  0
SECTION
  2
HEADER
  9
$ACADVER
  1
AC1021
  9
$ACADMAINTVER
 70
    50
  9
$DWGCODEPAGE
  3
ANSI_1252
  9
$INSBASE
 10
0.0
 20
0.0
 30
0.0
  9
$EXTMIN
 10
-12.72594860241126
 20
-56.27118184999999
 30
-0.00000001
  9
$EXTMAX
 10
54.66136615206467
 20
-8.233720930232557
 30
0.00000001
  9
$LIMMIN
 10
-642.8513613741633
 20
-1945.326193947933
  9
$LIMMAX
 10
2280.37698508253
 20
121.6029399103345
  9
$ORTHOMODE
 70
     0
  9
$REGENMODE
 70
     1
  9
$FILLMODE
 70
     1
  9
$QTEXTMODE
 70
     0
  9
$MIRRTEXT
 70
     0
  9
$LTSCALE
 40
0.254
  9
$ATTMODE
 70
     1
  9
$TEXTSIZE
 40
0.3750000000000001
  9
$TRACEWID
 40
0.05
  9
$TEXTSTYLE
  7
Standard
  9
$CLAYER
  8
0
  9
$CELTYPE
  6
ByLayer
  9
$CECOLOR
 62
   256
  9
$CELTSCALE
 40
1.0
  9
$DISPSILH
 70
     0
  9
$DIMSCALE
 40
1.0
  9
$DIMASZ
 40
0.18
  9
$DIMEXO
 40
0.0625
  9
$DIMDLI
 40
0.38
  9
$DIMRND
 40
0.0
  9
$DIMDLE
 40
0.0
  9
$DIMEXE
 40
0.18
  9
$DIMTP
 40
0.0
  9
$DIMTM
 40
0.0
  9
$DIMTXT
 40
39.37007874015748
  9
$DIMCEN
 40
0.09
  9
$DIMTSZ
 40
0.0
  9
$DIMTOL
 70
     0
  9
$DIMLIM
 70
     0
  9
$DIMTIH
 70
     1
  9
$DIMTOH
 70
     1
  9
$DIMSE1
 70
     0
  9
$DIMSE2
 70
     0
  9
$DIMTAD
 70
     0
  9
$DIMZIN
 70
     0
  9
$DIMBLK
  1

  9
$DIMASO
 70
     1
  9
$DIMSHO
 70
     1
  9
$DIMPOST
  1

  9
$DIMAPOST
  1

  9
$DIMALT
 70
     0
  9
$DIMALTD
 70
     2
  9
$DIMALTF
 40
25.4
  9
$DIMLFAC
 40
1.0
  9
$DIMTOFL
 70
     0
  9
$DIMTVP
 40
0.0
  9
$DIMTIX
 70
     0
  9
$DIMSOXD
 70
     0
  9
$DIMSAH
 70
     0
  9
$DIMBLK1
  1

  9
$DIMBLK2
  1

  9
$DIMSTYLE
  2
Standard
  9
$DIMCLRD
 70
     0
  9
$DIMCLRE
 70
     0
  9
$DIMCLRT
 70
     0
  9
$DIMTFAC
 40
1.0
  9
$DIMGAP
 40
0.09
  9
$DIMJUST
 70
     0
  9
$DIMSD1
 70
     0
  9
$DIMSD2
 70
     0
  9
$DIMTOLJ
 70
     1
  9
$DIMTZIN
 70
     0
  9
$DIMALTZ
 70
     0
  9
$DIMALTTZ
 70
     0
  9
$DIMUPT
 70
     0
  9
$DIMDEC
 70
     4
  9
$DIMTDEC
 70
     4
  9
$DIMALTU
 70
     2
  9
$DIMALTTD
 70
     2
  9
$DIMTXSTY
  7
Standard
  9
$DIMAUNIT
 70
     1
  9
$DIMADEC
 70
     0
  9
$DIMALTRND
 40
0.0
  9
$DIMAZIN
 70
     0
  9
$DIMDSEP
 70
    46
  9
$DIMATFIT
 70
     3
  9
$DIMFRAC
 70
     0
  9
$DIMLDRBLK
  1

  9
$DIMLUNIT
 70
     4
  9
$DIMLWD
 70
    -2
  9
$DIMLWE
 70
    -2
  9
$DIMTMOVE
 70
     0
  9
$DIMFXL
 40
1.0
  9
$DIMFXLON
 70
     0
  9
$DIMJOGANG
 40
0.7853981633974483
  9
$DIMTFILL
 70
     0
  9
$DIMTFILLCLR
 70
     0
  9
$DIMARCSYM
 70
     0
  9
$DIMLTYPE
  6

  9
$DIMLTEX1
  6

  9
$DIMLTEX2
  6

  9
$LUNITS
 70
     2
  9
$LUPREC
 70
     4
  9
$SKETCHINC
 40
0.1
  9
$FILLETRAD
 40
0.005
  9
$AUNITS
 70
     0
  9
$AUPREC
 70
     0
  9
$MENU
  1
.
  9
$ELEVATION
 40
0.0
  9
$PELEVATION
 40
0.0
  9
$THICKNESS
 40
0.0
  9
$LIMCHECK
 70
     0
  9
$CHAMFERA
 40
0.005
  9
$CHAMFERB
 40
0.005
  9
$CHAMFERC
 40
0.0
  9
$CHAMFERD
 40
0.0
  9
$SKPOLY
 70
     0
  9
$TDCREATE
 40
2458886.827603611
  9
$TDUCREATE
 40
2458886.785936944
  9
$TDUPDATE
 40
2458886.827603611
  9
$TDUUPDATE
 40
2458886.785936944
  9
$TDINDWG
 40
0.0000007060
  9
$TDUSRTIMER
 40
0.0000007060
  9
$USRTIMER
 70
     1
  9
$ANGBASE
 50
0.0
  9
$ANGDIR
 70
     0
  9
$PDMODE
 70
     0
  9
$PDSIZE
 40
0.0
  9
$PLINEWID
 40
0.0
  9
$SPLFRAME
 70
     0
  9
$SPLINETYPE
 70
     6
  9
$SPLINESEGS
 70
     8
  9
$HANDSEED
  5
418
  9
$SURFTAB1
 70
     6
  9
$SURFTAB2
 70
     6
  9
$SURFTYPE
 70
     6
  9
$SURFU
 70
     6
  9
$SURFV
 70
     6
  9
$UCSBASE
  2

  9
$UCSNAME
  2

  9
$UCSORG
 10
0.0
 20
0.0
 30
0.0
  9
$UCSXDIR
 10
1.0
 20
0.0
 30
0.0
  9
$UCSYDIR
 10
0.0
 20
1.0
 30
0.0
  9
$UCSORTHOREF
  2

  9
$UCSORTHOVIEW
 70
     0
  9
$UCSORGTOP
 10
0.0
 20
0.0
 30
0.0
  9
$UCSORGBOTTOM
 10
0.0
 20
0.0
 30
0.0
  9
$UCSORGLEFT
 10
0.0
 20
0.0
 30
0.0
  9
$UCSORGRIGHT
 10
0.0
 20
0.0
 30
0.0
  9
$UCSORGFRONT
 10
0.0
 20
0.0
 30
0.0
  9
$UCSORGBACK
 10
0.0
 20
0.0
 30
0.0
  9
$PUCSBASE
  2

  9
$PUCSNAME
  2

  9
$PUCSORG
 10
0.0
 20
0.0
 30
0.0
  9
$PUCSXDIR
 10
1.0
 20
0.0
 30
0.0
  9
$PUCSYDIR
 10
0.0
 20
1.0
 30
0.0
  9
$PUCSORTHOREF
  2

  9
$PUCSORTHOVIEW
 70
     0
  9
$PUCSORGTOP
 10
0.0
 20
0.0
 30
0.0
  9
$PUCSORGBOTTOM
 10
0.0
 20
0.0
 30
0.0
  9
$PUCSORGLEFT
 10
0.0
 20
0.0
 30
0.0
  9
$PUCSORGRIGHT
 10
0.0
 20
0.0
 30
0.0
  9
$PUCSORGFRONT
 10
0.0
 20
0.0
 30
0.0
  9
$PUCSORGBACK
 10
0.0
 20
0.0
 30
0.0
  9
$USERI1
 70
     0
  9
$USERI2
 70
     0
  9
$USERI3
 70
     0
  9
$USERI4
 70
     0
  9
$USERI5
 70
     0
  9
$USERR1
 40
0.0
  9
$USERR2
 40
0.0
  9
$USERR3
 40
0.0
  9
$USERR4
 40
0.0
  9
$USERR5
 40
0.0
  9
$WORLDVIEW
 70
     1
  9
$SHADEDGE
 70
     3
  9
$SHADEDIF
 70
    70
  9
$TILEMODE
 70
     1
  9
$MAXACTVP
 70
    64
  9
$PINSBASE
 10
0.0
 20
0.0
 30
0.0
  9
$PLIMCHECK
 70
     0
  9
$PEXTMIN
 10
1.000000000000000E+20
 20
1.000000000000000E+20
 30
1.000000000000000E+20
  9
$PEXTMAX
 10
-1.000000000000000E+20
 20
-1.000000000000000E+20
 30
-1.000000000000000E+20
  9
$PLIMMIN
 10
0.0
 20
0.0
  9
$PLIMMAX
 10
12.0
 20
9.0
  9
$UNITMODE
 70
     0
  9
$VISRETAIN
 70
     1
  9
$PLINEGEN
 70
     0
  9
$PSLTSCALE
 70
     1
  9
$TREEDEPTH
 70
  3020
  9
$CMLSTYLE
  2
Standard
  9
$CMLJUST
 70
     0
  9
$CMLSCALE
 40
1.0
  9
$PROXYGRAPHICS
 70
     1
  9
$MEASUREMENT
 70
     1
  9
$CELWEIGHT
370
    -1
  9
$ENDCAPS
280
     0
  9
$JOINSTYLE
280
     0
  9
$LWDISPLAY
290
     0
  9
$INSUNITS
 70
     0
  9
$HYPERLINKBASE
  1

  9
$STYLESHEET
  1

  9
$XEDIT
290
     1
  9
$CEPSNTYPE
380
     0
  9
$PSTYLEMODE
290
     1
  9
$FINGERPRINTGUID
  2
{CEE7B740-9EFE-4D35-8FDD-6C604D8FE9E6}
  9
$VERSIONGUID
  2
{263F04AB-D7FE-40A3-8261-8BFF7CEBBE63}
  9
$EXTNAMES
290
     1
  9
$PSVPSCALE
 40
0.0
  9
$OLESTARTUP
290
     0
  9
$SORTENTS
280
   127
  9
$INDEXCTL
280
     0
  9
$HIDETEXT
280
     1
  9
$XCLIPFRAME
290
     0
  9
$HALOGAP
280
     0
  9
$OBSCOLOR
 70
   257
  9
$OBSLTYPE
280
     0
  9
$INTERSECTIONDISPLAY
280
     0
  9
$INTERSECTIONCOLOR
 70
   257
  9
$DIMASSOC
280
     2
  9
$PROJECTNAME
  1

  9
$CAMERADISPLAY
290
     0
  9
$LENSLENGTH
 40
50.0
  9
$CAMERAHEIGHT
 40
0.0
  9
$STEPSPERSEC
 40
2.0
  9
$STEPSIZE
 40
6.0
  9
$3DDWFPREC
 40
2.0
  9
$PSOLWIDTH
 40
0.25
  9
$PSOLHEIGHT
 40
4.0
  9
$LOFTANG1
 40
1.570796326794896
  9
$LOFTANG2
 40
1.570796326794896
  9
$LOFTMAG1
 40
0.0
  9
$LOFTMAG2
 40
0.0
  9
$LOFTPARAM
 70
     7
  9
$LOFTNORMALS
280
     1
  9
$LATITUDE
 40
37.795
  9
$LONGITUDE
 40
-122.394
  9
$NORTHDIRECTION
 40
0.0
  9
$TIMEZONE
 70
 -8000
  9
$LIGHTGLYPHDISPLAY
280
     1
  9
$TILEMODELIGHTSYNCH
280
     1
  9
$CMATERIAL
347
11
  9
$SOLIDHIST
280
     1
  9
$SHOWHIST
280
     1
  9
$DWFFRAME
280
     2
  9
$DGNFRAME
280
     0
  9
$REALWORLDSCALE
290
     1
  9
$INTERFERECOLOR
 62
     1
  9
$INTERFEREOBJVS
345
33
  9
$INTERFEREVPVS
346
30
  9
$CSHADOW
280
     0
  9
$SHADOWPLANELOCATION
 40
0.0
  0
ENDSEC
  0
SECTION
  2
CLASSES
  0
CLASS
  1
ACDBDICTIONARYWDFLT
  2
AcDbDictionaryWithDefault
  3
ObjectDBX Classes
 90
        0
 91
        1
280
     0
281
     0
  0
CLASS
  1
MATERIAL
  2
AcDbMaterial
  3
ObjectDBX Classes
 90
     1153
 91
        3
280
     0
281
     0
  0
CLASS
  1
VISUALSTYLE
  2
AcDbVisualStyle
  3
ObjectDBX Classes
 90
     4095
 91
       16
280
     0
281
     0
  0
CLASS
  1
SCALE
  2
AcDbScale
  3
ObjectDBX Classes
 90
     1153
 91
       33
280
     0
281
     0
  0
CLASS
  1
TABLESTYLE
  2
AcDbTableStyle
  3
ObjectDBX Classes
 90
     4095
 91
        1
280
     0
281
     0
  0
CLASS
  1
MLEADERSTYLE
  2
AcDbMLeaderStyle
  3
ACDB_MLEADERSTYLE_CLASS
 90
     4095
 91
        1
280
     0
281
     0
  0
CLASS
  1
DICTIONARYVAR
  2
AcDbDictionaryVar
  3
ObjectDBX Classes
 90
        0
 91
        3
280
     0
281
     0
  0
CLASS
  1
CELLSTYLEMAP
  2
AcDbCellStyleMap
  3
ObjectDBX Classes
 90
     1152
 91
        1
280
     0
281
     0
  0
ENDSEC
  0
SECTION
  2
TABLES
  0
TABLE
  2
VPORT
  5
8
330
0
100
AcDbSymbolTable
 70
     1
  0
VPORT
  5
5F
330
8
100
AcDbSymbolTableRecord
100
AcDbViewportTableRecord
  2
*Active
 70
     0
 10
0.0
 20
0.0
 11
1.0
 21
1.0
 12
497.3371311671015
 22
-1884.524723992766
 13
0.0
 23
0.0
 14
1.0
 24
1.0
 15
0.0
 25
0.0
 16
0.0
 26
0.0
 36
1.0
 17
0.0
 27
0.0
 37
0.0
 40
121.6029399103345
 41
18.75264682551257
 42
50.0
 43
0.0
 44
0.0
 50
0.0
 51
0.0
 71
     0
 72
   100
 73
     1
 74
     1
 75
     0
 76
     0
 77
     0
 78
     0
281
     0
 65
     1
110
0.0
120
0.0
130
0.0
111
1.0
121
0.0
131
0.0
112
0.0
122
1.0
132
0.0
 79
     0
146
0.0
 60
     3
 61
     5
292
     1
282
     1
141
0.0
142
0.0
 63
   250
421
  3355443
  0
ENDTAB
  0
TABLE
  2
LTYPE
  5
5
330
0
100
AcDbSymbolTable
 70
    40
  0
LTYPE
  5
63
330
5
100
AcDbSymbolTableRecord
100
AcDbLinetypeTableRecord
  2
ByBlock
 70
     0
  3

 72
    65
 73
     0
 40
0.0
  0
LTYPE
  5
64
330
5
100
AcDbSymbolTableRecord
100
AcDbLinetypeTableRecord
  2
ByLayer
 70
     0
  3

 72
    65
 73
     0
 40
0.0
  0
LTYPE
  5
65
330
5
100
AcDbSymbolTableRecord
100
AcDbLinetypeTableRecord
  2
Continuous
 70
     0
  3
Solid line
 72
    65
 73
     0
 40
0.0
  0
LTYPE
  5
7D
330
5
100
AcDbSymbolTableRecord
100
AcDbLinetypeTableRecord
  2
HIDDEN
 70
     0
  3
_ _ _ _ _ _ _ _ _ _ _ _ _ _ 
 72
    65
 73
     2
 40
0.009525
 49
0.00635
 74
     0
 49
-0.003175
 74
     0
  0
LTYPE
  5
7E
330
5
100
AcDbSymbolTableRecord
100
AcDbLinetypeTableRecord
  2
DASHED
 70
     0
  3
__ __ __ __ __ __ __ __ __ 
 72
    65
 73
     2
 40
0.01905
 49
0.0127
 74
     0
 49
-0.00635
 74
     0
  0
LTYPE
  5
7F
330
5
100
AcDbSymbolTableRecord
100
AcDbLinetypeTableRecord
  2
CENTER
 70
     0
  3
____ _ ____ _ ____ _ ____ _ 
 72
    65
 73
     4
 40
0.0508
 49
0.03175
 74
     0
 49
-0.00635
 74
     0
 49
0.00635
 74
     0
 49
-0.00635
 74
     0
  0
LTYPE
  5
80
330
5
100
AcDbSymbolTableRecord
100
AcDbLinetypeTableRecord
  2
PHANTOM
 70
     0
  3
_____ _ _ _____ _ _ _____ _ _ 
 72
    65
 73
     6
 40
0.0635
 49
0.03175
 74
     0
 49
-0.00635
 74
     0
 49
0.00635
 74
     0
 49
-0.00635
 74
     0
 49
0.00635
 74
     0
 49
-0.00635
 74
     0
  0
LTYPE
  5
81
330
5
100
AcDbSymbolTableRecord
100
AcDbLinetypeTableRecord
  2
DOT
 70
     0
  3
...........................
 72
    65
 73
     2
 40
0.00635
 49
0.0
 74
     0
 49
-0.00635
 74
     0
  0
LTYPE
  5
82
330
5
100
AcDbSymbolTableRecord
100
AcDbLinetypeTableRecord
  2
DASHDOT
 70
     0
  3
__ . __ . __ . __ . __ . __ . 
 72
    65
 73
     4
 40
0.0254
 49
0.0127
 74
     0
 49
-0.00635
 74
     0
 49
0.0
 74
     0
 49
-0.00635
 74
     0
  0
LTYPE
  5
83
330
5
100
AcDbSymbolTableRecord
100
AcDbLinetypeTableRecord
  2
DIVIDE
 70
     0
  3
__ . . __ . . __ . . __ . . 
 72
    65
 73
     6
 40
0.03175
 49
0.0127
 74
     0
 49
-0.00635
 74
     0
 49
0.0
 74
     0
 49
-0.00635
 74
     0
 49
0.0
 74
     0
 49
-0.00635
 74
     0
  0
LTYPE
  5
84
330
5
100
AcDbSymbolTableRecord
100
AcDbLinetypeTableRecord
  2
BORDER
 70
     0
  3
__ __ . __ __ . __ __ . __ __ .
 72
    65
 73
     6
 40
0.04445
 49
0.0127
 74
     0
 49
-0.00635
 74
     0
 49
0.0127
 74
     0
 49
-0.00635
 74
     0
 49
0.0
 74
     0
 49
-0.00635
 74
     0
  0
LTYPE
  5
85
330
5
100
AcDbSymbolTableRecord
100
AcDbLinetypeTableRecord
  2
BORDER2
 70
     0
  3
Border (.5x) __.__.__.__.__.__.
 72
    65
 73
     6
 40
0.875
 49
0.25
 74
     0
 49
-0.125
 74
     0
 49
0.25
 74
     0
 49
-0.125
 74
     0
 49
0.0
 74
     0
 49
-0.125
 74
     0
  0
LTYPE
  5
86
330
5
100
AcDbSymbolTableRecord
100
AcDbLinetypeTableRecord
  2
BORDERX2
 70
     0
  3
Border (2x) ____  ____  .  ____
 72
    65
 73
     6
 40
3.5
 49
1.0
 74
     0
 49
-0.5
 74
     0
 49
1.0
 74
     0
 49
-0.5
 74
     0
 49
0.0
 74
     0
 49
-0.5
 74
     0
  0
LTYPE
  5
87
330
5
100
AcDbSymbolTableRecord
100
AcDbLinetypeTableRecord
  2
CENTER2
 70
     0
  3
Center (.5x) ___ _ ___ _ ___ _ 
 72
    65
 73
     4
 40
1.125
 49
0.7500000000000001
 74
     0
 49
-0.125
 74
     0
 49
0.125
 74
     0
 49
-0.125
 74
     0
  0
LTYPE
  5
88
330
5
100
AcDbSymbolTableRecord
100
AcDbLinetypeTableRecord
  2
CENTERX2
 70
     0
  3
Center (2x) ________  __  _____
 72
    65
 73
     4
 40
4.0
 49
2.5
 74
     0
 49
-0.5
 74
     0
 49
0.5
 74
     0
 49
-0.5
 74
     0
  0
LTYPE
  5
89
330
5
100
AcDbSymbolTableRecord
100
AcDbLinetypeTableRecord
  2
DASHDOT2
 70
     0
  3
Dash dot (.5x) _._._._._._._._.
 72
    65
 73
     4
 40
0.5
 49
0.25
 74
     0
 49
-0.125
 74
     0
 49
0.0
 74
     0
 49
-0.125
 74
     0
  0
LTYPE
  5
8A
330
5
100
AcDbSymbolTableRecord
100
AcDbLinetypeTableRecord
  2
DASHDOTX2
 70
     0
  3
Dash dot (2x) ____  .  ____  . 
 72
    65
 73
     4
 40
2.0
 49
1.0
 74
     0
 49
-0.5
 74
     0
 49
0.0
 74
     0
 49
-0.5
 74
     0
  0
LTYPE
  5
8B
330
5
100
AcDbSymbolTableRecord
100
AcDbLinetypeTableRecord
  2
DASHED2
 70
     0
  3
Dashed (.5x) _ _ _ _ _ _ _ _ _ 
 72
    65
 73
     2
 40
0.375
 49
0.25
 74
     0
 49
-0.125
 74
     0
  0
LTYPE
  5
8C
330
5
100
AcDbSymbolTableRecord
100
AcDbLinetypeTableRecord
  2
DASHEDX2
 70
     0
  3
Dashed (2x) ____  ____  ____  _
 72
    65
 73
     2
 40
1.5
 49
1.0
 74
     0
 49
-0.5
 74
     0
  0
LTYPE
  5
8D
330
5
100
AcDbSymbolTableRecord
100
AcDbLinetypeTableRecord
  2
DIVIDE2
 70
     0
  3
Divide (.5x) __..__..__..__..__
 72
    65
 73
     6
 40
0.625
 49
0.25
 74
     0
 49
-0.125
 74
     0
 49
0.0
 74
     0
 49
-0.125
 74
     0
 49
0.0
 74
     0
 49
-0.125
 74
     0
  0
LTYPE
  5
8E
330
5
100
AcDbSymbolTableRecord
100
AcDbLinetypeTableRecord
  2
DIVIDEX2
 70
     0
  3
Divide (2x) ________  .  .  ___
 72
    65
 73
     6
 40
2.5
 49
1.0
 74
     0
 49
-0.5
 74
     0
 49
0.0
 74
     0
 49
-0.5
 74
     0
 49
0.0
 74
     0
 49
-0.5
 74
     0
  0
LTYPE
  5
8F
330
5
100
AcDbSymbolTableRecord
100
AcDbLinetypeTableRecord
  2
DOT2
 70
     0
  3
Dot (.5x) .....................
 72
    65
 73
     2
 40
0.125
 49
0.0
 74
     0
 49
-0.125
 74
     0
  0
LTYPE
  5
90
330
5
100
AcDbSymbolTableRecord
100
AcDbLinetypeTableRecord
  2
DOTX2
 70
     0
  3
Dot (2x) .  .  .  .  .  .  .  .
 72
    65
 73
     2
 40
0.5
 49
0.0
 74
     0
 49
-0.5
 74
     0
  0
LTYPE
  5
91
330
5
100
AcDbSymbolTableRecord
100
AcDbLinetypeTableRecord
  2
HIDDEN2
 70
     0
  3
Hidden (.5x) _ _ _ _ _ _ _ _ _ 
 72
    65
 73
     2
 40
0.1875
 49
0.125
 74
     0
 49
-0.0625
 74
     0
  0
LTYPE
  5
92
330
5
100
AcDbSymbolTableRecord
100
AcDbLinetypeTableRecord
  2
HIDDENX2
 70
     0
  3
Hidden (2x) ____ ____ ____ ____
 72
    65
 73
     2
 40
0.75
 49
0.5
 74
     0
 49
-0.25
 74
     0
  0
LTYPE
  5
93
330
5
100
AcDbSymbolTableRecord
100
AcDbLinetypeTableRecord
  2
PHANTOM2
 70
     0
  3
Phantom (.5x) ___ _ _ ___ _ _ _
 72
    65
 73
     6
 40
1.25
 49
0.6250000000000001
 74
     0
 49
-0.125
 74
     0
 49
0.125
 74
     0
 49
-0.125
 74
     0
 49
0.125
 74
     0
 49
-0.125
 74
     0
  0
LTYPE
  5
94
330
5
100
AcDbSymbolTableRecord
100
AcDbLinetypeTableRecord
  2
PHANTOMX2
 70
     0
  3
Phantom (2x) ____________    __
 72
    65
 73
     6
 40
5.0
 49
2.5
 74
     0
 49
-0.5
 74
     0
 49
0.5
 74
     0
 49
-0.5
 74
     0
 49
0.5
 74
     0
 49
-0.5
 74
     0
  0
LTYPE
  5
95
330
5
100
AcDbSymbolTableRecord
100
AcDbLinetypeTableRecord
  2
DOTS
 70
     0
  3
Dots - - - - - - - - - - - - - 
 72
    65
 73
     2
 40
0.1
 49
0.05
 74
     0
 49
-0.05
 74
     0
  0
LTYPE
  5
96
330
5
100
AcDbSymbolTableRecord
100
AcDbLinetypeTableRecord
  2
ACAD_ISO02W100
 70
     0
  3
__ __ __ __ __ __ __ __ __ __ _
 72
    65
 73
     2
 40
15.0
 49
12.0
 74
     0
 49
-3.0
 74
     0
  0
LTYPE
  5
97
330
5
100
AcDbSymbolTableRecord
100
AcDbLinetypeTableRecord
  2
ACAD_ISO03W100
 70
     0
  3
__    __    __    __    __    _
 72
    65
 73
     2
 40
30.0
 49
12.0
 74
     0
 49
-18.0
 74
     0
  0
LTYPE
  5
98
330
5
100
AcDbSymbolTableRecord
100
AcDbLinetypeTableRecord
  2
ACAD_ISO04W100
 70
     0
  3
____ . ____ . ____ . ____ . ___
 72
    65
 73
     4
 40
30.5
 49
24.0
 74
     0
 49
-3.0
 74
     0
 49
0.5
 74
     0
 49
-3.0
 74
     0
  0
LTYPE
  5
99
330
5
100
AcDbSymbolTableRecord
100
AcDbLinetypeTableRecord
  2
ACAD_ISO05W100
 70
     0
  3
____ .. ____ .. ____ .. ____ ..
 72
    65
 73
     6
 40
34.0
 49
24.0
 74
     0
 49
-3.0
 74
     0
 49
0.5
 74
     0
 49
-3.0
 74
     0
 49
0.5
 74
     0
 49
-3.0
 74
     0
  0
LTYPE
  5
9A
330
5
100
AcDbSymbolTableRecord
100
AcDbLinetypeTableRecord
  2
ACAD_ISO06W100
 70
     0
  3
____ ... ____ ... ____ ... ____
 72
    65
 73
     6
 40
34.0
 49
24.0
 74
     0
 49
-3.0
 74
     0
 49
0.5
 74
     0
 49
-3.0
 74
     0
 49
0.5
 74
     0
 49
-3.0
 74
     0
  0
LTYPE
  5
9B
330
5
100
AcDbSymbolTableRecord
100
AcDbLinetypeTableRecord
  2
ACAD_ISO07W100
 70
     0
  3
. . . . . . . . . . . . . . . .
 72
    65
 73
     2
 40
3.5
 49
0.5
 74
     0
 49
-3.0
 74
     0
  0
LTYPE
  5
9C
330
5
100
AcDbSymbolTableRecord
100
AcDbLinetypeTableRecord
  2
ACAD_ISO08W100
 70
     0
  3
____ __ ____ __ ____ __ ____ __
 72
    65
 73
     4
 40
36.0
 49
24.0
 74
     0
 49
-3.0
 74
     0
 49
6.0
 74
     0
 49
-3.0
 74
     0
  0
LTYPE
  5
9D
330
5
100
AcDbSymbolTableRecord
100
AcDbLinetypeTableRecord
  2
ACAD_ISO09W100
 70
     0
  3
____ __ __ ____ __ __ ____ __ _
 72
    65
 73
     6
 40
45.0
 49
24.0
 74
     0
 49
-3.0
 74
     0
 49
6.0
 74
     0
 49
-3.0
 74
     0
 49
6.0
 74
     0
 49
-3.0
 74
     0
  0
LTYPE
  5
9E
330
5
100
AcDbSymbolTableRecord
100
AcDbLinetypeTableRecord
  2
ACAD_ISO10W100
 70
     0
  3
__ . __ . __ . __ . __ . __ . _
 72
    65
 73
     4
 40
18.5
 49
12.0
 74
     0
 49
-3.0
 74
     0
 49
0.5
 74
     0
 49
-3.0
 74
     0
  0
LTYPE
  5
9F
330
5
100
AcDbSymbolTableRecord
100
AcDbLinetypeTableRecord
  2
ACAD_ISO11W100
 70
     0
  3
__ __ . __ __ . __ __ . __ __ .
 72
    65
 73
     6
 40
33.5
 49
12.0
 74
     0
 49
-3.0
 74
     0
 49
12.0
 74
     0
 49
-3.0
 74
     0
 49
0.5
 74
     0
 49
-3.0
 74
     0
  0
LTYPE
  5
A0
330
5
100
AcDbSymbolTableRecord
100
AcDbLinetypeTableRecord
  2
ACAD_ISO12W100
 70
     0
  3
__ . . __ . . __ . . __ . . __ 
 72
    65
 73
     6
 40
22.0
 49
12.0
 74
     0
 49
-3.0
 74
     0
 49
0.5
 74
     0
 49
-3.0
 74
     0
 49
0.5
 74
     0
 49
-3.0
 74
     0
  0
LTYPE
  5
A1
330
5
100
AcDbSymbolTableRecord
100
AcDbLinetypeTableRecord
  2
ACAD_ISO13W100
 70
     0
  3
__ __ . . __ __ . . __ __ . . _
 72
    65
 73
     6
 40
33.5
 49
12.0
 74
     0
 49
-3.0
 74
     0
 49
12.0
 74
     0
 49
-3.0
 74
     0
 49
0.5
 74
     0
 49
-3.0
 74
     0
  0
LTYPE
  5
A2
330
5
100
AcDbSymbolTableRecord
100
AcDbLinetypeTableRecord
  2
ACAD_ISO14W100
 70
     0
  3
__ . . . __ . . . __ . . . __ .
 72
    65
 73
     6
 40
22.0
 49
12.0
 74
     0
 49
-3.0
 74
     0
 49
0.5
 74
     0
 49
-3.0
 74
     0
 49
0.5
 74
     0
 49
-3.0
 74
     0
  0
LTYPE
  5
A3
330
5
100
AcDbSymbolTableRecord
100
AcDbLinetypeTableRecord
  2
ACAD_ISO15W100
 70
     0
  3
__ __ . . . __ __ . . . __ __ .
 72
    65
 73
     6
 40
33.5
 49
12.0
 74
     0
 49
-3.0
 74
     0
 49
12.0
 74
     0
 49
-3.0
 74
     0
 49
0.5
 74
     0
 49
-3.0
 74
     0
  0
ENDTAB
  0
TABLE
  2
LAYER
  5
2
330
0
100
AcDbSymbolTable
 70
     6
  0
LAYER
  5
5C
330
2
100
AcDbSymbolTableRecord
100
AcDbLayerTableRecord
  2
0
 70
     0
 62
     7
  6
Continuous
370
    -3
390
F
347
21
  0
LAYER
  5
A4
330
2
100
AcDbSymbolTableRecord
100
AcDbLayerTableRecord
  2
BODENDURCHFÜHRUNGEN
 70
     1
 62
     7
  6
Continuous
370
    -3
390
F
347
21
  0
LAYER
  5
A5
330
2
100
AcDbSymbolTableRecord
100
AcDbLayerTableRecord
  2
GRUNDRISS
 70
     0
 62
     7
  6
Continuous
370
    -3
390
F
347
21
  0
LAYER
  5
A6
330
2
100
AcDbSymbolTableRecord
100
AcDbLayerTableRecord
  2
HALLE_0_1_EG
 70
     0
 62
     7
  6
Continuous
370
    -3
390
F
347
21
  0
LAYER
  5
A7
330
2
100
AcDbSymbolTableRecord
100
AcDbLayerTableRecord
  2
MOEBEL
 70
     0
 62
     5
  6
Continuous
370
    -3
390
F
347
21
  0
LAYER
  5
A8
330
2
100
AcDbSymbolTableRecord
100
AcDbLayerTableRecord
  2
UMRISS10
 70
     0
 62
     4
  6
Continuous
370
    -3
390
F
347
21
  0
ENDTAB
  0
TABLE
  2
STYLE
  5
3
330
0
100
AcDbSymbolTable
 70
     7
  0
STYLE
  5
5D
330
3
100
AcDbSymbolTableRecord
100
AcDbTextStyleTableRecord
  2
Standard
 70
     0
 40
0.0
 41
1.0
 50
0.0
 71
     0
 42
0.3750000000000001
  3
txt
  4

  0
STYLE
  5
62
330
3
100
AcDbSymbolTableRecord
100
AcDbTextStyleTableRecord
  2
Annotative
 70
     0
 40
0.0
 41
1.0
 50
0.0
 71
     0
 42
0.2
  3
txt
  4

1001
AcadAnnotative
1000
AnnotativeData
1002
{
1070
     1
1070
     1
1002
}
  0
STYLE
  5
A9
330
3
100
AcDbSymbolTableRecord
100
AcDbTextStyleTableRecord
  2
ITALIC
 70
     0
 40
0.0
 41
1.0
 50
0.0
 71
     0
 42
0.3750000000000001
  3
ITALIC
  4

  0
STYLE
  5
AA
330
3
100
AcDbSymbolTableRecord
100
AcDbTextStyleTableRecord
  2
SIMPLEX
 70
     0
 40
0.0
 41
1.0
 50
0.0
 71
     0
 42
0.3750000000000001
  3
SIMPLEX
  4

  0
STYLE
  5
AB
330
3
100
AcDbSymbolTableRecord
100
AcDbTextStyleTableRecord
  2
COMPLEX
 70
     0
 40
0.0
 41
1.0
 50
0.0
 71
     0
 42
0.3750000000000001
  3
COMPLEX
  4

  0
STYLE
  5
139
330
3
100
AcDbSymbolTableRecord
100
AcDbTextStyleTableRecord
  2
ARIALB
 70
     0
 40
0.0
 41
1.0
 50
0.0
 71
     0
 42
0.3750000000000001
  3

  4

1001
ACAD
1000
Arial
1071
 33554432
  0
STYLE
  5
2AA
330
3
100
AcDbSymbolTableRecord
100
AcDbTextStyleTableRecord
  2
ARIAL
 70
     0
 40
0.0
 41
1.0
 50
0.0
 71
     0
 42
0.3750000000000001
  3
arial.ttf
  4

1001
ACAD
1000
Arial
1071
        0
  0
ENDTAB
  0
TABLE
  2
VIEW
  5
6
330
0
100
AcDbSymbolTable
 70
     0
  0
ENDTAB
  0
TABLE
  2
UCS
  5
7
330
0
100
AcDbSymbolTable
 70
     0
  0
ENDTAB
  0
TABLE
  2
APPID
  5
9
330
0
100
AcDbSymbolTable
 70
     3
  0
APPID
  5
5E
330
9
100
AcDbSymbolTableRecord
100
AcDbRegAppTableRecord
  2
ACAD
 70
     0
  0
APPID
  5
66
330
9
100
AcDbSymbolTableRecord
100
AcDbRegAppTableRecord
  2
AcadAnnotative
 70
     0
  0
APPID
  5
70
330
9
100
AcDbSymbolTableRecord
100
AcDbRegAppTableRecord
  2
ACAD_MLEADERVER
 70
     0
  0
ENDTAB
  0
TABLE
  2
DIMSTYLE
  5
A
330
0
100
AcDbSymbolTable
 70
     2
100
AcDbDimStyleTable
 71
     0
  0
DIMSTYLE
105
60
330
A
100
AcDbSymbolTableRecord
100
AcDbDimStyleTableRecord
  2
Standard
 70
     0
340
5D
  0
DIMSTYLE
105
61
330
A
100
AcDbSymbolTableRecord
100
AcDbDimStyleTableRecord
  2
Annotative
 70
     0
340
5D
1001
AcadAnnotative
1000
AnnotativeData
1002
{
1070
     1
1070
     1
1002
}
  0
ENDTAB
  0
TABLE
  2
BLOCK_RECORD
  5
1
330
0
100
AcDbSymbolTable
 70
     1
  0
BLOCK_RECORD
  5
75
330
1
100
AcDbSymbolTableRecord
100
AcDbBlockTableRecord
  2
*Model_Space
340
78
 70
     0
280
     1
281
     0
  0
BLOCK_RECORD
  5
71
330
1
100
AcDbSymbolTableRecord
100
AcDbBlockTableRecord
  2
*Paper_Space
340
74
 70
     0
280
     1
281
     0
  0
BLOCK_RECORD
  5
79
330
1
100
AcDbSymbolTableRecord
100
AcDbBlockTableRecord
  2
*Paper_Space0
340
7C
 70
     0
280
     1
281
     0
  0
ENDTAB
  0
ENDSEC
  0
SECTION
  2
BLOCKS
  0
BLOCK
  5
76
330
75
100
AcDbEntity
  8
0
100
AcDbBlockBegin
  2
*Model_Space
 70
     0
 10
0.0
 20
0.0
 30
0.0
  3
*Model_Space
  1

  0
ENDBLK
  5
77
330
75
100
AcDbEntity
  8
0
100
AcDbBlockEnd
  0
BLOCK
  5
72
330
71
100
AcDbEntity
 67
     1
  8
0
100
AcDbBlockBegin
  2
*Paper_Space
 70
     0
 10
0.0
 20
0.0
 30
0.0
  3
*Paper_Space
  1

  0
ENDBLK
  5
73
330
71
100
AcDbEntity
 67
     1
  8
0
100
AcDbBlockEnd
  0
BLOCK
  5
7A
330
79
100
AcDbEntity
 67
     1
  8
0
100
AcDbBlockBegin
  2
*Paper_Space0
 70
     0
 10
0.0
 20
0.0
 30
0.0
  3
*Paper_Space0
  1

  0
ENDBLK
  5
7B
330
79
100
AcDbEntity
 67
     1
  8
0
100
AcDbBlockEnd
  0
ENDSEC
  0
SECTION
  2
ENTITIES
  0
LINE
  5
AC
330
75
100
AcDbEntity
  8
HALLE_0_1_EG
  6
Continuous
100
AcDbLine
 10
27.88455140758875
 20
-28.53372093023256
 30
0.0
 11
45.78361869094198
 21
-28.53372093023256
 31
0.0
  0
LINE
  5
AD
330
75
100
AcDbEntity
  8
HALLE_0_1_EG
  6
Continuous
100
AcDbLine
 10
-11.80594859241125
 20
-15.65372093023256
 30
0.0
 11
-11.80594859241125
 21
-18.31372093023255
 31
0.0
  0
LINE
  5
AE
330
75
100
AcDbEntity
  8
HALLE_0_1_EG
  6
Continuous
100
AcDbLine
 10
-11.72594859241126
 20
-18.23372093023255
 30
0.0
 11
-11.72594859241126
 21
-15.73372093023256
 31
0.0
  0
LINE
  5
AF
330
75
100
AcDbEntity
  8
HALLE_0_1_EG
  6
Continuous
100
AcDbLine
 10
-10.72594859241125
 20
-15.65372093023256
 30
0.0
 11
-11.80594859241125
 21
-15.65372093023256
 31
0.0
  0
LINE
  5
B0
330
75
100
AcDbEntity
  8
HALLE_0_1_EG
  6
Continuous
100
AcDbLine
 10
-11.72594859241126
 20
-15.73372093023256
 30
0.0
 11
-10.72594859241125
 21
-15.73372093023256
 31
0.0
  0
LINE
  5
B1
330
75
100
AcDbEntity
  8
HALLE_0_1_EG
  6
Continuous
100
AcDbLine
 10
-10.72594859241125
 20
-18.23372093023255
 30
0.0
 11
-11.72594859241126
 21
-18.23372093023255
 31
0.0
  0
LINE
  5
B2
330
75
100
AcDbEntity
  8
HALLE_0_1_EG
  6
Continuous
100
AcDbLine
 10
-11.80594859241125
 20
-18.31372093023255
 30
0.0
 11
-10.72594859241125
 21
-18.31372093023255
 31
0.0
  0
LINE
  5
B3
330
75
100
AcDbEntity
  8
HALLE_0_1_EG
  6
Continuous
100
AcDbLine
 10
49.26999999999999
 20
-8.234564735264319
 30
0.0
 11
42.32405135635605
 21
-8.234564735264319
 31
0.0
  0
LINE
  5
B4
330
75
100
AcDbEntity
  8
HALLE_0_1_EG
  6
Continuous
100
AcDbLine
 10
-10.50594859241125
 20
-10.53372093023255
 30
0.0
 11
-10.72594859241125
 21
-10.53372093023255
 31
0.0
  0
LINE
  5
B5
330
75
100
AcDbEntity
  8
HALLE_0_1_EG
  6
Continuous
100
AcDbLine
 10
-10.72594859241125
 20
-10.79372093023255
 30
0.0
 11
-10.72594859241125
 21
-10.53372093023255
 31
0.0
  0
LINE
  5
B6
330
75
100
AcDbEntity
  8
HALLE_0_1_EG
  6
Continuous
100
AcDbLine
 10
-10.50594859241125
 20
-10.79372093023255
 30
0.0
 11
-10.50594859241125
 21
-10.53372093023255
 31
0.0
  0
LINE
  5
B7
330
75
100
AcDbEntity
  8
HALLE_0_1_EG
  6
Continuous
100
AcDbLine
 10
-3.814948592411256
 20
-10.78372093023255
 30
0.0
 11
-3.814948592411256
 21
-11.97372093023256
 31
0.0
  0
LINE
  5
B8
330
75
100
AcDbEntity
  8
HALLE_0_1_EG
  6
Continuous
100
AcDbLine
 10
-3.964948592411257
 20
-10.78372093023255
 30
0.0
 11
-3.964948592411257
 21
-12.12372093023256
 31
0.0
  0
LINE
  5
B9
330
75
100
AcDbEntity
  8
HALLE_0_1_EG
  6
Continuous
100
AcDbLine
 10
-3.854948592411257
 20
-10.55372093023256
 30
0.0
 11
2.756051407588743
 21
-10.55372093023256
 31
0.0
  0
LINE
  5
BA
330
75
100
AcDbEntity
  8
HALLE_0_1_EG
  6
Continuous
100
AcDbLine
 10
0.5950514075887423
 20
-10.70372093023255
 30
0.0
 11
2.756051407588743
 21
-10.70372093023255
 31
0.0
  0
LINE
  5
BB
330
75
100
AcDbEntity
  8
HALLE_0_1_EG
  6
Continuous
100
AcDbLine
 10
-3.854948592411257
 20
-10.70372093023255
 30
0.0
 11
0.4450514075887419
 21
-10.70372093023255
 31
0.0
  0
LINE
  5
BC
330
75
100
AcDbEntity
  8
HALLE_0_1_EG
  6
Continuous
100
AcDbLine
 10
42.32405140758874
 20
-8.233720930232557
 30
0.0
 11
42.32405140758874
 21
-8.533720930232558
 31
0.0
  0
LINE
  5
BD
330
75
100
AcDbEntity
  8
HALLE_0_1_EG
  6
Continuous
100
AcDbLine
 10
49.26999999999999
 20
-8.533720930232558
 30
0.0
 11
42.32405140758874
 21
-8.533720930232558
 31
0.0
  0
LINE
  5
BE
330
75
100
AcDbEntity
  8
HALLE_0_1_EG
  6
Continuous
100
AcDbLine
 10
-4.725948592411255
 20
-8.233720930232557
 30
0.0
 11
-4.725948592411255
 21
-8.533720930232558
 31
0.0
  0
LINE
  5
BF
330
75
100
AcDbEntity
  8
HALLE_0_1_EG
  6
Continuous
100
AcDbLine
 10
39.32405140758874
 20
-8.533720930232558
 30
0.0
 11
-4.725948592411258
 21
-8.533720930232558
 31
0.0
  0
LINE
  5
C0
330
75
100
AcDbEntity
  8
HALLE_0_1_EG
  6
Continuous
100
AcDbLine
 10
39.32405140758874
 20
-8.233720930232557
 30
0.0
 11
-4.725948592411258
 21
-8.233720930232557
 31
0.0
  0
LINE
  5
C1
330
75
100
AcDbEntity
  8
HALLE_0_1_EG
  6
Continuous
100
AcDbLine
 10
39.32405140758874
 20
-8.233720930232557
 30
0.0
 11
39.32405140758874
 21
-8.533720930232558
 31
0.0
  0
LINE
  5
C2
330
75
100
AcDbEntity
  8
HALLE_0_1_EG
  6
Continuous
100
AcDbLine
 10
-7.725948592411256
 20
-8.533720930232558
 30
0.0
 11
-10.72594859241125
 21
-8.533720930232558
 31
0.0
  0
LINE
  5
C3
330
75
100
AcDbEntity
  8
HALLE_0_1_EG
  6
Continuous
100
AcDbLine
 10
-7.725948592411258
 20
-8.233720930232557
 30
0.0
 11
-10.73123629774072
 21
-8.233720930232557
 31
0.0
  0
LINE
  5
C4
330
75
100
AcDbEntity
  8
HALLE_0_1_EG
  6
Continuous
100
AcDbLine
 10
-7.725948592411256
 20
-8.233720930232557
 30
0.0
 11
-7.725948592411256
 21
-8.533720930232558
 31
0.0
  0
LINE
  5
C5
330
75
100
AcDbEntity
  8
HALLE_0_1_EG
  6
Continuous
100
AcDbLine
 10
-10.72594859241125
 20
-17.53372093023255
 30
0.0
 11
-10.40594859241125
 21
-17.53372093023255
 31
0.0
  0
LINE
  5
C6
330
75
100
AcDbEntity
  8
HALLE_0_1_EG
  6
Continuous
100
AcDbLine
 10
-10.40594859241125
 20
-10.79372093023255
 30
0.0
 11
-10.40594859241125
 21
-17.53372093023255
 31
0.0
  0
LINE
  5
C7
330
75
100
AcDbEntity
  8
HALLE_0_1_EG
  6
Continuous
100
AcDbLine
 10
-10.72594859241125
 20
-10.79372093023255
 30
0.0
 11
-10.72594859241125
 21
-17.53372093023255
 31
0.0
  0
LINE
  5
C8
330
75
100
AcDbEntity
  8
HALLE_0_1_EG
  6
Continuous
100
AcDbLine
 10
-10.40594859241125
 20
-24.37372093023256
 30
0.0
 11
-10.40594859241125
 21
-28.28372093023256
 31
0.0
  0
LINE
  5
C9
330
75
100
AcDbEntity
  8
HALLE_0_1_EG
  6
Continuous
100
AcDbLine
 10
-10.72594859241125
 20
-21.53372093023255
 30
0.0
 11
-10.72594859241125
 21
-28.53372093023256
 31
0.0
  0
LINE
  5
CA
330
75
100
AcDbEntity
  8
HALLE_0_1_EG
  6
Continuous
100
AcDbLine
 10
-10.40594859241125
 20
-21.53372093023255
 30
0.0
 11
-10.40594859241125
 21
-24.22372093023256
 31
0.0
  0
LINE
  5
CB
330
75
100
AcDbEntity
  8
HALLE_0_1_EG
  6
Continuous
100
AcDbLine
 10
-10.72594859241125
 20
-21.53372093023255
 30
0.0
 11
-10.40594859241125
 21
-21.53372093023255
 31
0.0
  0
LINE
  5
CC
330
75
100
AcDbEntity
  8
HALLE_0_1_EG
  6
Continuous
100
AcDbLine
 10
-1.159448592411257
 20
-28.53372093023256
 30
0.0
 11
-1.159448592411257
 21
-28.21372093023255
 31
0.0
  0
LINE
  5
CD
330
75
100
AcDbEntity
  8
HALLE_0_1_EG
  6
Continuous
100
AcDbLine
 10
-5.345948592411256
 20
-28.21372093023255
 30
0.0
 11
-1.159448592411257
 21
-28.21372093023255
 31
0.0
  0
LINE
  5
CE
330
75
100
AcDbEntity
  8
HALLE_0_1_EG
  6
Continuous
100
AcDbLine
 10
-10.72594859241125
 20
-28.53372093023256
 30
0.0
 11
-1.159448592411257
 21
-28.53372093023256
 31
0.0
  0
LINE
  5
CF
330
75
100
AcDbEntity
  8
HALLE_0_1_EG
  6
Continuous
100
AcDbLine
 10
-7.388448592411257
 20
-28.21372093023255
 30
0.0
 11
-5.645948592411257
 21
-28.21372093023255
 31
0.0
  0
LINE
  5
D0
330
75
100
AcDbEntity
  8
HALLE_0_1_EG
  6
Continuous
100
AcDbLine
 10
-10.47594859241125
 20
-28.21372093023255
 30
0.0
 11
-7.538448592411257
 21
-28.21372093023255
 31
0.0
  0
LINE
  5
D1
330
75
100
AcDbEntity
  8
HALLE_0_1_EG
  6
Continuous
100
AcDbLine
 10
23.88455140758874
 20
-28.53372093023256
 30
0.0
 11
23.88455140758874
 21
-28.21372093023255
 31
0.0
  0
LINE
  5
D2
330
75
100
AcDbEntity
  8
HALLE_0_1_EG
  6
Continuous
100
AcDbLine
 10
0.0405514075887414
 20
-28.53372093023256
 30
0.0
 11
23.88455140758874
 21
-28.53372093023256
 31
0.0
  0
LINE
  5
D3
330
75
100
AcDbEntity
  8
HALLE_0_1_EG
  6
Continuous
100
AcDbLine
 10
0.0405514075887414
 20
-28.53372093023256
 30
0.0
 11
0.0405514075887414
 21
-28.21372093023255
 31
0.0
  0
LINE
  5
D4
330
75
100
AcDbEntity
  8
HALLE_0_1_EG
  6
Continuous
100
AcDbLine
 10
27.88455140758875
 20
-28.21372093023255
 30
0.0
 11
46.85505140758873
 21
-28.21372093023255
 31
0.0
  0
LINE
  5
D5
330
75
100
AcDbEntity
  8
HALLE_0_1_EG
  6
Continuous
100
AcDbLine
 10
27.88455140758875
 20
-28.53372093023256
 30
0.0
 11
27.88455140758875
 21
-28.21372093023255
 31
0.0
  0
LINE
  5
D6
330
75
100
AcDbEntity
  8
HALLE_0_1_EG
  6
Continuous
100
AcDbLine
 10
47.93505140758873
 20
-28.21372093023255
 30
0.0
 11
48.95405140758875
 21
-28.21372093023255
 31
0.0
  0
LINE
  5
D7
330
75
100
AcDbEntity
  8
HALLE_0_1_EG
  6
Continuous
100
AcDbLine
 10
47.93505140758873
 20
-28.53372093023256
 30
0.0
 11
49.27405140758874
 21
-28.53372093023256
 31
0.0
  0
LINE
  5
D8
330
75
100
AcDbEntity
  8
HALLE_0_1_EG
  6
Continuous
100
AcDbLine
 10
49.27405140758874
 20
-21.53372093023255
 30
0.0
 11
48.95405140758875
 21
-21.53372093023255
 31
0.0
  0
LINE
  5
D9
330
75
100
AcDbEntity
  8
HALLE_0_1_EG
  6
Continuous
100
AcDbLine
 10
48.95405140758875
 20
-28.21372093023255
 30
0.0
 11
48.95405140758875
 21
-21.53372093023255
 31
0.0
  0
LINE
  5
DA
330
75
100
AcDbEntity
  8
HALLE_0_1_EG
  6
Continuous
100
AcDbLine
 10
49.27405140758874
 20
-28.53372093023256
 30
0.0
 11
49.27405140758874
 21
-21.53372093023255
 31
0.0
  0
LINE
  5
DB
330
75
100
AcDbEntity
  8
HALLE_0_1_EG
  6
Continuous
100
AcDbLine
 10
48.95405140758875
 20
-14.18383434710383
 30
0.0
 11
48.95405140758875
 21
-10.79372093023255
 31
0.0
  0
LINE
  5
DC
330
75
100
AcDbEntity
  8
HALLE_0_1_EG
  6
Continuous
100
AcDbLine
 10
49.27405140758874
 20
-17.53372093023255
 30
0.0
 11
49.27405140758874
 21
-10.79372093023255
 31
0.0
  0
LINE
  5
DD
330
75
100
AcDbEntity
  8
HALLE_0_1_EG
  6
Continuous
100
AcDbLine
 10
48.95405140758875
 20
-17.53372093023255
 30
0.0
 11
48.95405140758875
 21
-14.33383434710383
 31
0.0
  0
LINE
  5
DE
330
75
100
AcDbEntity
  8
HALLE_0_1_EG
  6
Continuous
100
AcDbLine
 10
49.27405140758874
 20
-17.53372093023255
 30
0.0
 11
48.95405140758875
 21
-17.53372093023255
 31
0.0
  0
LINE
  5
DF
330
75
100
AcDbEntity
  8
HALLE_0_1_EG
  6
Continuous
100
AcDbLine
 10
-7.388448592411257
 20
-25.87372093023255
 30
0.0
 11
-7.538448592411257
 21
-25.87372093023255
 31
0.0
  0
LINE
  5
E0
330
75
100
AcDbEntity
  8
HALLE_0_1_EG
  6
Continuous
100
AcDbLine
 10
-7.538448592411257
 20
-28.21372093023255
 30
0.0
 11
-7.538448592411257
 21
-25.87372093023255
 31
0.0
  0
LINE
  5
E1
330
75
100
AcDbEntity
  8
HALLE_0_1_EG
  6
Continuous
100
AcDbLine
 10
-7.388448592411257
 20
-28.21372093023255
 30
0.0
 11
-7.388448592411257
 21
-25.87372093023255
 31
0.0
  0
LINE
  5
E2
330
75
100
AcDbEntity
  8
HALLE_0_1_EG
  6
Continuous
100
AcDbLine
 10
-7.538448592411257
 20
-25.07372093023256
 30
0.0
 11
-7.538448592411257
 21
-24.37372093023256
 31
0.0
  0
LINE
  5
E3
330
75
100
AcDbEntity
  8
HALLE_0_1_EG
  6
Continuous
100
AcDbLine
 10
-7.388448592411257
 20
-25.07372093023256
 30
0.0
 11
-7.388448592411257
 21
-24.37372093023256
 31
0.0
  0
LINE
  5
E4
330
75
100
AcDbEntity
  8
HALLE_0_1_EG
  6
Continuous
100
AcDbLine
 10
-7.388448592411257
 20
-25.07372093023256
 30
0.0
 11
-7.538448592411257
 21
-25.07372093023256
 31
0.0
  0
LINE
  5
E5
330
75
100
AcDbEntity
  8
HALLE_0_1_EG
  6
Continuous
100
AcDbLine
 10
-10.17594859241125
 20
-24.37372093023256
 30
0.0
 11
-10.17594859241125
 21
-24.22372093023256
 31
0.0
  0
LINE
  5
E6
330
75
100
AcDbEntity
  8
HALLE_0_1_EG
  6
Continuous
100
AcDbLine
 10
-10.40594859241125
 20
-24.22372093023256
 30
0.0
 11
-10.17594859241125
 21
-24.22372093023256
 31
0.0
  0
LINE
  5
E7
330
75
100
AcDbEntity
  8
HALLE_0_1_EG
  6
Continuous
100
AcDbLine
 10
-10.40594859241125
 20
-24.37372093023256
 30
0.0
 11
-10.17594859241125
 21
-24.37372093023256
 31
0.0
  0
LINE
  5
E8
330
75
100
AcDbEntity
  8
HALLE_0_1_EG
  6
Continuous
100
AcDbLine
 10
-7.275948592411256
 20
-24.37372093023256
 30
0.0
 11
-7.275948592411256
 21
-24.22372093023256
 31
0.0
  0
LINE
  5
E9
330
75
100
AcDbEntity
  8
HALLE_0_1_EG
  6
Continuous
100
AcDbLine
 10
-7.775948592411256
 20
-24.22372093023256
 30
0.0
 11
-7.275948592411256
 21
-24.22372093023256
 31
0.0
  0
LINE
  5
EA
330
75
100
AcDbEntity
  8
HALLE_0_1_EG
  6
Continuous
100
AcDbLine
 10
-7.388448592411257
 20
-24.37372093023256
 30
0.0
 11
-7.275948592411256
 21
-24.37372093023256
 31
0.0
  0
LINE
  5
EB
330
75
100
AcDbEntity
  8
HALLE_0_1_EG
  6
Continuous
100
AcDbLine
 10
-7.775948592411256
 20
-24.37372093023256
 30
0.0
 11
-7.538448592411257
 21
-24.37372093023256
 31
0.0
  0
LINE
  5
EC
330
75
100
AcDbEntity
  8
HALLE_0_1_EG
  6
Continuous
100
AcDbLine
 10
-7.775948592411256
 20
-24.37372093023256
 30
0.0
 11
-7.775948592411256
 21
-24.22372093023256
 31
0.0
  0
LINE
  5
ED
330
75
100
AcDbEntity
  8
HALLE_0_1_EG
  6
Continuous
100
AcDbLine
 10
-5.495948592411257
 20
-25.97372093023257
 30
0.0
 11
-5.495948592411257
 21
-24.37372093023256
 31
0.0
  0
LINE
  5
EE
330
75
100
AcDbEntity
  8
HALLE_0_1_EG
  6
Continuous
100
AcDbLine
 10
-5.345948592411256
 20
-25.97372093023257
 30
0.0
 11
-5.345948592411256
 21
-24.38805802643981
 31
0.0
  0
LINE
  5
EF
330
75
100
AcDbEntity
  8
HALLE_0_1_EG
  6
Continuous
100
AcDbLine
 10
-6.475948592411256
 20
-24.22372093023256
 30
0.0
 11
-5.345948592411256
 21
-24.22372093023256
 31
0.0
  0
LINE
  5
F0
330
75
100
AcDbEntity
  8
HALLE_0_1_EG
  6
Continuous
100
AcDbLine
 10
-6.475948592411256
 20
-24.37372093023256
 30
0.0
 11
-5.495948592411257
 21
-24.37372093023256
 31
0.0
  0
LINE
  5
F1
330
75
100
AcDbEntity
  8
HALLE_0_1_EG
  6
Continuous
100
AcDbLine
 10
-6.475948592411256
 20
-24.37372093023256
 30
0.0
 11
-6.475948592411256
 21
-24.22372093023256
 31
0.0
  0
LINE
  5
F2
330
75
100
AcDbEntity
  8
HALLE_0_1_EG
  6
Continuous
100
AcDbLine
 10
-5.645948592411257
 20
-28.21372093023255
 30
0.0
 11
-5.645948592411257
 21
-25.97372093023257
 31
0.0
  0
LINE
  5
F3
330
75
100
AcDbEntity
  8
HALLE_0_1_EG
  6
Continuous
100
AcDbLine
 10
-5.345948592411256
 20
-28.21372093023255
 30
0.0
 11
-5.345948592411256
 21
-25.97372093023257
 31
0.0
  0
LINE
  5
F4
330
75
100
AcDbEntity
  8
HALLE_0_1_EG
  6
Continuous
100
AcDbLine
 10
-5.645948592411257
 20
-25.97372093023257
 30
0.0
 11
-5.495948592411257
 21
-25.97372093023257
 31
0.0
  0
ARC
  5
F5
330
75
100
AcDbEntity
  8
HALLE_0_1_EG
  6
Continuous
100
AcDbCircle
 10
-7.238448592411256
 20
-26.01372093023256
 30
0.0
 40
0.8
100
AcDbArc
 50
270.0
 51
0.0
  0
LINE
  5
F6
330
75
100
AcDbEntity
  8
HALLE_0_1_EG
  6
Continuous
100
AcDbLine
 10
-7.238448592411256
 20
-26.01372093023256
 30
0.0
 11
-7.238448592411256
 21
-26.81372093023256
 31
0.0
  0
CIRCLE
  5
F7
330
75
100
AcDbEntity
  8
HALLE_0_1_EG
  6
Continuous
100
AcDbCircle
 10
-5.920948592411257
 20
-25.17372093023255
 30
0.0
 40
0.22
  0
CIRCLE
  5
F8
330
75
100
AcDbEntity
  8
HALLE_0_1_EG
  6
Continuous
100
AcDbCircle
 10
-5.920948592411257
 20
-24.65372093023257
 30
0.0
 40
0.1
  0
ARC
  5
F9
330
75
100
AcDbEntity
  8
HALLE_0_1_EG
  6
Continuous
100
AcDbCircle
 10
-7.275948592411256
 20
-24.37372093023256
 30
0.0
 40
0.8
100
AcDbArc
 50
270.0
 51
0.0
  0
LINE
  5
FA
330
75
100
AcDbEntity
  8
HALLE_0_1_EG
  6
Continuous
100
AcDbLine
 10
-7.275948592411256
 20
-24.37372093023256
 30
0.0
 11
-7.275948592411256
 21
-25.17372093023255
 31
0.0
  0
LINE
  5
FB
330
75
100
AcDbEntity
  8
HALLE_0_1_EG
  6
Continuous
100
AcDbLine
 10
-7.538448592411257
 20
-24.67372093023256
 30
0.0
 11
-10.47594859241125
 21
-24.67372093023256
 31
0.0
  0
LINE
  5
FC
330
75
100
AcDbEntity
  8
HALLE_0_1_EG
  6
Continuous
100
AcDbLine
 10
-10.17594859241125
 20
-24.22372093023256
 30
0.0
 11
-10.17594859241125
 21
-24.12372093023256
 31
0.0
  0
LINE
  5
FD
330
75
100
AcDbEntity
  8
HALLE_0_1_EG
  6
Continuous
100
AcDbLine
 10
-10.17594859241125
 20
-24.12372093023256
 30
0.0
 11
-7.775948592411256
 21
-24.12372093023256
 31
0.0
  0
LINE
  5
FE
330
75
100
AcDbEntity
  8
HALLE_0_1_EG
  6
Continuous
100
AcDbLine
 10
-7.775948592411256
 20
-24.22372093023256
 30
0.0
 11
-7.775948592411256
 21
-24.12372093023256
 31
0.0
  0
ARC
  5
FF
330
75
100
AcDbEntity
  8
HALLE_0_1_EG
  6
Continuous
100
AcDbCircle
 10
-7.538448592411257
 20
-25.07372093023256
 30
0.0
 40
0.8
100
AcDbArc
 50
180.0
 51
270.0
  0
LINE
  5
100
330
75
100
AcDbEntity
  8
HALLE_0_1_EG
  6
Continuous
100
AcDbLine
 10
-7.538448592411257
 20
-25.07372093023256
 30
0.0
 11
-8.338448592411257
 21
-25.07372093023256
 31
0.0
  0
ARC
  5
101
330
75
100
AcDbEntity
  8
HALLE_0_1_EG
  6
Continuous
100
AcDbCircle
 10
-0.0094485924112573
 20
-28.53372093023256
 30
0.0
 40
1.1
100
AcDbArc
 50
180.0
 51
270.0
  0
LINE
  5
102
330
75
100
AcDbEntity
  8
HALLE_0_1_EG
  6
Continuous
100
AcDbLine
 10
-0.0094485924112573
 20
-28.53372093023256
 30
0.0
 11
-0.0094485924112573
 21
-29.63372093023255
 31
0.0
  0
LINE
  5
103
330
75
100
AcDbEntity
  8
HALLE_0_1_EG
  6
Continuous
100
AcDbLine
 10
-10.72594859241125
 20
-17.53372093023255
 30
0.0
 11
-10.72594859241125
 21
-21.53372093023255
 31
0.0
  0
ARC
  5
104
330
75
100
AcDbEntity
  8
HALLE_0_1_EG
  6
Continuous
100
AcDbCircle
 10
-10.72594859241125
 20
-17.53372093023255
 30
0.0
 40
2.0
100
AcDbArc
 50
90.0
 51
270.0
  0
LINE
  5
105
330
75
100
AcDbEntity
  8
HALLE_0_1_EG
  6
Continuous
100
AcDbLine
 10
-10.72594859241125
 20
-17.53372093023255
 30
0.0
 11
-12.72594859241126
 21
-17.53372093023255
 31
0.0
  0
ARC
  5
106
330
75
100
AcDbEntity
  8
HALLE_0_1_EG
  6
Continuous
100
AcDbCircle
 10
-10.72594859241125
 20
-21.53372093023255
 30
0.0
 40
2.0
100
AcDbArc
 50
90.0
 51
270.0
  0
LINE
  5
107
330
75
100
AcDbEntity
  8
HALLE_0_1_EG
  6
Continuous
100
AcDbLine
 10
-10.72594859241125
 20
-21.53372093023255
 30
0.0
 11
-12.72594859241126
 21
-21.53372093023255
 31
0.0
  0
LINE
  5
108
330
75
100
AcDbEntity
  8
HALLE_0_1_EG
  6
Continuous
100
AcDbLine
 10
-10.72594859241125
 20
-8.533720930232558
 30
0.0
 11
-10.72594859241125
 21
-10.78372093023255
 31
0.0
  0
LINE
  5
109
330
75
100
AcDbEntity
  8
HALLE_0_1_EG
  6
Continuous
100
AcDbLine
 10
-10.72594859241125
 20
-10.53372093023255
 30
0.0
 11
-10.73123629774072
 21
-8.233720930232557
 31
0.0
  0
ARC
  5
10A
330
75
100
AcDbEntity
  8
HALLE_0_1_EG
  6
Continuous
100
AcDbCircle
 10
-10.72594859241125
 20
-8.583720930232558
 30
0.0
 40
0.95
100
AcDbArc
 50
180.0
 51
270.0
  0
LINE
  5
10B
330
75
100
AcDbEntity
  8
HALLE_0_1_EG
  6
Continuous
100
AcDbLine
 10
-10.63394859241125
 20
-8.583720930232558
 30
0.0
 11
-11.67594859241126
 21
-8.583720930232558
 31
0.0
  0
ARC
  5
10C
330
75
100
AcDbEntity
  8
HALLE_0_1_EG
  6
Continuous
100
AcDbCircle
 10
-10.72594859241125
 20
-10.48372093023256
 30
0.0
 40
0.95
100
AcDbArc
 50
90.0
 51
180.0
  0
LINE
  5
10D
330
75
100
AcDbEntity
  8
HALLE_0_1_EG
  6
Continuous
100
AcDbLine
 10
-10.63594859241125
 20
-10.48372093023256
 30
0.0
 11
-11.67594859241126
 21
-10.48372093023256
 31
0.0
  0
LINE
  5
10E
330
75
100
AcDbEntity
  8
HALLE_0_1_EG
  6
Continuous
100
AcDbLine
 10
-7.725948592411256
 20
-8.533720930232558
 30
0.0
 11
-4.725948592411255
 21
-8.533720930232558
 31
0.0
  0
ARC
  5
10F
330
75
100
AcDbEntity
  8
HALLE_0_1_EG
  6
Continuous
100
AcDbCircle
 10
-4.725948592411255
 20
-8.533720930232558
 30
0.0
 40
1.5
100
AcDbArc
 50
180.0
 51
0.0
  0
ARC
  5
110
330
75
100
AcDbEntity
  8
HALLE_0_1_EG
  6
Continuous
100
AcDbCircle
 10
-7.725948592411256
 20
-8.533720930232558
 30
0.0
 40
1.5
100
AcDbArc
 50
180.0
 51
0.0
  0
LINE
  5
111
330
75
100
AcDbEntity
  8
HALLE_0_1_EG
  6
Continuous
100
AcDbLine
 10
-3.814948592411256
 20
-11.97372093023256
 30
0.0
 11
0.4450514075887419
 21
-11.97372093023256
 31
0.0
  0
LINE
  5
112
330
75
100
AcDbEntity
  8
HALLE_0_1_EG
  6
Continuous
100
AcDbLine
 10
-3.964948592411257
 20
-12.12372093023256
 30
0.0
 11
0.5950514075887423
 21
-12.12372093023256
 31
0.0
  0
LINE
  5
113
330
75
100
AcDbEntity
  8
HALLE_0_1_EG
  6
Continuous
100
AcDbLine
 10
0.5950514075887423
 20
-11.64372093023255
 30
0.0
 11
0.4450514075887419
 21
-11.64372093023255
 31
0.0
  0
LINE
  5
114
330
75
100
AcDbEntity
  8
HALLE_0_1_EG
  6
Continuous
100
AcDbLine
 10
0.4450514075887419
 20
-11.97372093023256
 30
0.0
 11
0.4450514075887419
 21
-11.64372093023255
 31
0.0
  0
LINE
  5
115
330
75
100
AcDbEntity
  8
HALLE_0_1_EG
  6
Continuous
100
AcDbLine
 10
0.5950514075887423
 20
-12.12372093023256
 30
0.0
 11
0.5950514075887423
 21
-11.64372093023255
 31
0.0
  0
LINE
  5
116
330
75
100
AcDbEntity
  8
HALLE_0_1_EG
  6
Continuous
100
AcDbLine
 10
0.4450514075887419
 20
-10.93372093023256
 30
0.0
 11
0.4450514075887419
 21
-10.70372093023255
 31
0.0
  0
LINE
  5
117
330
75
100
AcDbEntity
  8
HALLE_0_1_EG
  6
Continuous
100
AcDbLine
 10
0.5950514075887423
 20
-10.93372093023256
 30
0.0
 11
0.5950514075887423
 21
-10.70372093023255
 31
0.0
  0
LINE
  5
118
330
75
100
AcDbEntity
  8
HALLE_0_1_EG
  6
Continuous
100
AcDbLine
 10
0.5950514075887423
 20
-10.93372093023256
 30
0.0
 11
0.4450514075887419
 21
-10.93372093023256
 31
0.0
  0
ARC
  5
119
330
75
100
AcDbEntity
  8
HALLE_0_1_EG
  6
Continuous
100
AcDbCircle
 10
0.4450514075887419
 20
-11.64372093023255
 30
0.0
 40
0.71
100
AcDbArc
 50
90.0
 51
180.0
  0
LINE
  5
11A
330
75
100
AcDbEntity
  8
HALLE_0_1_EG
  6
Continuous
100
AcDbLine
 10
-0.264948592411257
 20
-11.64372093023255
 30
0.0
 11
0.4450514075887419
 21
-11.64372093023255
 31
0.0
  0
LINE
  5
11B
330
75
100
AcDbEntity
  8
HALLE_0_1_EG
  6
Continuous
100
AcDbLine
 10
23.88455140758874
 20
-28.53372093023256
 30
0.0
 11
27.88455140758875
 21
-28.53372093023256
 31
0.0
  0
ARC
  5
11C
330
75
100
AcDbEntity
  8
HALLE_0_1_EG
  6
Continuous
100
AcDbCircle
 10
27.88455140758875
 20
-28.53372093023256
 30
0.0
 40
2.0
100
AcDbArc
 50
180.0
 51
0.0
  0
ARC
  5
11D
330
75
100
AcDbEntity
  8
HALLE_0_1_EG
  6
Continuous
100
AcDbCircle
 10
23.88455140758874
 20
-28.53372093023256
 30
0.0
 40
2.0
100
AcDbArc
 50
180.0
 51
0.0
  0
LINE
  5
11E
330
75
100
AcDbEntity
  8
HALLE_0_1_EG
  6
Continuous
100
AcDbLine
 10
27.88455140758875
 20
-28.53372093023256
 30
0.0
 11
27.88455140758875
 21
-30.53372093023256
 31
0.0
  0
LINE
  5
11F
330
75
100
AcDbEntity
  8
HALLE_0_1_EG
  6
Continuous
100
AcDbLine
 10
23.88455140758874
 20
-28.53372093023256
 30
0.0
 11
23.88455140758874
 21
-30.53372093023256
 31
0.0
  0
LINE
  5
120
330
75
100
AcDbEntity
  8
HALLE_0_1_EG
  6
Continuous
100
AcDbLine
 10
-7.725948592411256
 20
-8.533720930232558
 30
0.0
 11
-7.725948592411256
 21
-10.03372093023256
 31
0.0
  0
LINE
  5
121
330
75
100
AcDbEntity
  8
HALLE_0_1_EG
  6
Continuous
100
AcDbLine
 10
-4.725948592411255
 20
-8.533720930232558
 30
0.0
 11
-4.725948592411255
 21
-10.03372093023256
 31
0.0
  0
LINE
  5
122
330
75
100
AcDbEntity
  8
HALLE_0_1_EG
  6
Continuous
100
AcDbLine
 10
42.42405140759404
 20
-14.33383434710383
 30
0.0
 11
42.42405140759404
 21
-10.79372093023255
 31
0.0
  0
LINE
  5
123
330
75
100
AcDbEntity
  8
HALLE_0_1_EG
  6
Continuous
100
AcDbLine
 10
42.57405140759404
 20
-14.18383434710383
 30
0.0
 11
42.57405140759404
 21
-10.94372093023256
 31
0.0
  0
LINE
  5
124
330
75
100
AcDbEntity
  8
HALLE_0_1_EG
  6
Continuous
100
AcDbLine
 10
46.55705140758874
 20
-14.33383434710383
 30
0.0
 11
46.55705140758874
 21
-14.18383434710383
 31
0.0
  0
LINE
  5
125
330
75
100
AcDbEntity
  8
HALLE_0_1_EG
  6
Continuous
100
AcDbLine
 10
42.57405140759404
 20
-14.18383434710383
 30
0.0
 11
46.55705140758874
 21
-14.18383434710383
 31
0.0
  0
LINE
  5
126
330
75
100
AcDbEntity
  8
HALLE_0_1_EG
  6
Continuous
100
AcDbLine
 10
42.42405140759404
 20
-14.33383434710383
 30
0.0
 11
46.55705140758874
 21
-14.33383434710383
 31
0.0
  0
LINE
  5
127
330
75
100
AcDbEntity
  8
HALLE_0_1_EG
  6
Continuous
100
AcDbLine
 10
48.75705140758874
 20
-14.18383434710383
 30
0.0
 11
48.95405140758875
 21
-14.18383434710383
 31
0.0
  0
LINE
  5
128
330
75
100
AcDbEntity
  8
HALLE_0_1_EG
  6
Continuous
100
AcDbLine
 10
48.75705140758874
 20
-14.33383434710383
 30
0.0
 11
48.95405140758875
 21
-14.33383434710383
 31
0.0
  0
LINE
  5
129
330
75
100
AcDbEntity
  8
HALLE_0_1_EG
  6
Continuous
100
AcDbLine
 10
48.75705140758874
 20
-14.33383434710383
 30
0.0
 11
48.75705140758874
 21
-14.18383434710383
 31
0.0
  0
LINE
  5
12A
330
75
100
AcDbEntity
  8
HALLE_0_1_EG
  6
Continuous
100
AcDbLine
 10
39.32405140758874
 20
-8.533720930232558
 30
0.0
 11
42.32405140758874
 21
-8.533720930232558
 31
0.0
  0
ARC
  5
12B
330
75
100
AcDbEntity
  8
HALLE_0_1_EG
  6
Continuous
100
AcDbCircle
 10
42.32405140758874
 20
-8.533720930232558
 30
0.0
 40
1.5
100
AcDbArc
 50
180.0
 51
270.0
  0
ARC
  5
12C
330
75
100
AcDbEntity
  8
HALLE_0_1_EG
  6
Continuous
100
AcDbCircle
 10
42.32405140758874
 20
-8.533720930232558
 30
0.0
 40
1.5
100
AcDbArc
 50
270.0
 51
0.0
  0
LINE
  5
12D
330
75
100
AcDbEntity
  8
HALLE_0_1_EG
  6
Continuous
100
AcDbLine
 10
42.32405140758874
 20
-8.533720930232558
 30
0.0
 11
42.32405140758874
 21
-10.03372093023256
 31
0.0
  0
ARC
  5
12E
330
75
100
AcDbEntity
  8
HALLE_0_1_EG
  6
Continuous
100
AcDbCircle
 10
39.32405140758874
 20
-8.533720930232558
 30
0.0
 40
1.5
100
AcDbArc
 50
270.0
 51
0.0
  0
ARC
  5
12F
330
75
100
AcDbEntity
  8
HALLE_0_1_EG
  6
Continuous
100
AcDbCircle
 10
39.32405140758874
 20
-8.533720930232558
 30
0.0
 40
1.5
100
AcDbArc
 50
180.0
 51
270.0
  0
LINE
  5
130
330
75
100
AcDbEntity
  8
HALLE_0_1_EG
  6
Continuous
100
AcDbLine
 10
39.32405140758874
 20
-8.533720930232558
 30
0.0
 11
39.32405140758874
 21
-10.03372093023256
 31
0.0
  0
LINE
  5
131
330
75
100
AcDbEntity
  8
HALLE_0_1_EG
  6
Continuous
100
AcDbLine
 10
-10.40594859241125
 20
-10.79372093023255
 30
0.0
 11
-10.50594859241125
 21
-10.79372093023255
 31
0.0
  0
LINE
  5
132
330
75
100
AcDbEntity
  8
HALLE_0_1_EG
  6
Continuous
100
AcDbLine
 10
46.19405140759403
 20
-10.94372093023256
 30
0.0
 11
42.57405140759404
 21
-10.94372093023256
 31
0.0
  0
LINE
  5
133
330
75
100
AcDbEntity
  8
HALLE_0_1_EG
  6
Continuous
100
AcDbLine
 10
46.19405140759403
 20
-10.79372093023255
 30
0.0
 11
42.42405140759404
 21
-10.79372093023255
 31
0.0
  0
LINE
  5
134
330
75
100
AcDbEntity
  8
HALLE_0_1_EG
  6
Continuous
100
AcDbLine
 10
46.19405140759403
 20
-10.79372093023255
 30
0.0
 11
46.19405140759403
 21
-10.94372093023256
 31
0.0
  0
ARC
  5
135
330
75
100
AcDbEntity
  8
HALLE_0_1_EG
  6
Continuous
100
AcDbCircle
 10
43.99205140758874
 20
-10.69372093023256
 30
0.0
 40
1.04
100
AcDbArc
 50
0.0
 51
90.0
  0
LINE
  5
136
330
75
100
AcDbEntity
  8
HALLE_0_1_EG
  6
Continuous
100
AcDbLine
 10
45.03205140758875
 20
-10.69372093023256
 30
0.0
 11
43.99205140758874
 21
-10.69372093023256
 31
0.0
  0
ARC
  5
137
330
75
100
AcDbEntity
  8
HALLE_0_1_EG
  6
Continuous
100
AcDbCircle
 10
43.99205140758874
 20
-8.613720930232563
 30
0.0
 40
1.04
100
AcDbArc
 50
270.0
 51
0.0
  0
LINE
  5
138
330
75
100
AcDbEntity
  8
HALLE_0_1_EG
  6
Continuous
100
AcDbLine
 10
45.03205140758875
 20
-8.613720930232563
 30
0.0
 11
43.99205140758874
 21
-8.613720930232563
 31
0.0
  0
TEXT
  5
13A
330
75
100
AcDbEntity
  8
HALLE_0_1_EG
100
AcDbText
 10
21.53063265758874
 20
-28.09370184108527
 30
0.0
 40
0.1136434108527132
  1
F
  7
ARIALB
 11
21.53063265758874
 21
-27.98005843023256
 31
0.0
100
AcDbText
 73
     3
  0
LINE
  5
13C
330
75
100
AcDbEntity
  8
HALLE_0_1_EG
  6
Continuous
100
AcDbLine
 10
-6.195948592411256
 20
-24.37372093023256
 30
0.0
 11
-5.645948592411257
 21
-24.37372093023256
 31
0.0
  0
LINE
  5
13D
330
75
100
AcDbEntity
  8
HALLE_0_1_EG
  6
Continuous
100
AcDbLine
 10
-5.645948592411257
 20
-24.37372093023256
 30
0.0
 11
-5.645948592411257
 21
-25.97372093023257
 31
0.0
  0
LINE
  5
13E
330
75
100
AcDbEntity
  8
HALLE_0_1_EG
  6
Continuous
100
AcDbLine
 10
-5.645948592411257
 20
-25.97372093023257
 30
0.0
 11
-6.195948592411256
 21
-25.97372093023257
 31
0.0
  0
LINE
  5
13F
330
75
100
AcDbEntity
  8
HALLE_0_1_EG
  6
Continuous
100
AcDbLine
 10
-6.195948592411256
 20
-25.97372093023257
 30
0.0
 11
-6.195948592411256
 21
-24.37372093023256
 31
0.0
  0
LINE
  5
140
330
75
100
AcDbEntity
  8
HALLE_0_1_EG
  6
Continuous
100
AcDbLine
 10
-3.775948592411257
 20
-27.49356686657755
 30
0.0
 11
-1.975948592411256
 21
-27.49356686657755
 31
0.0
  0
LINE
  5
141
330
75
100
AcDbEntity
  8
HALLE_0_1_EG
  6
Continuous
100
AcDbLine
 10
-1.975948592411256
 20
-27.49356686657755
 30
0.0
 11
-2.275948592411257
 21
-28.19534180537081
 31
0.0
  0
LINE
  5
142
330
75
100
AcDbEntity
  8
HALLE_0_1_EG
  6
Continuous
100
AcDbLine
 10
-1.975948592411256
 20
-27.49356686657755
 30
0.0
 11
-2.275948592411257
 21
-26.79179192778429
 31
0.0
  0
LINE
  5
143
330
75
100
AcDbEntity
  8
HALLE_0_1_EG
  6
Continuous
100
AcDbLine
 10
-4.575948592411257
 20
-26.74372093023462
 30
0.0
 11
-4.575948592411257
 21
-24.94372093023463
 31
0.0
  0
LINE
  5
144
330
75
100
AcDbEntity
  8
HALLE_0_1_EG
  6
Continuous
100
AcDbLine
 10
-5.325948592411258
 20
-26.44372093023462
 30
0.0
 11
-4.575948592411257
 21
-26.74372093023462
 31
0.0
  0
LINE
  5
145
330
75
100
AcDbEntity
  8
HALLE_0_1_EG
  6
Continuous
100
AcDbLine
 10
-4.575948592411257
 20
-26.74372093023462
 30
0.0
 11
-3.825948592411257
 21
-26.44372093023462
 31
0.0
  0
LINE
  5
146
330
75
100
AcDbEntity
  8
HALLE_0_1_EG
  6
Continuous
100
AcDbLine
 10
-7.388448592411257
 20
-25.97372093023257
 30
0.0
 11
-7.238448592411256
 21
-25.97372093023257
 31
0.0
  0
LINE
  5
147
330
75
100
AcDbEntity
  8
HALLE_0_1_EG
  6
Continuous
100
AcDbLine
 10
-7.238448592411256
 20
-25.97372093023257
 30
0.0
 11
-7.238448592411256
 21
-26.01372093023256
 31
0.0
  0
LINE
  5
148
330
75
100
AcDbEntity
  8
HALLE_0_1_EG
  6
Continuous
100
AcDbLine
 10
-7.238448592411256
 20
-26.01372093023256
 30
0.0
 11
-7.388448592411257
 21
-26.01372093023256
 31
0.0
  0
LINE
  5
149
330
75
100
AcDbEntity
  8
HALLE_0_1_EG
  6
Continuous
100
AcDbLine
 10
-7.388448592411257
 20
-26.01372093023256
 30
0.0
 11
-7.388448592411257
 21
-25.97372093023257
 31
0.0
  0
LINE
  5
14A
330
75
100
AcDbEntity
  8
HALLE_0_1_EG
  6
Continuous
100
AcDbLine
 10
-6.438448592411256
 20
-25.97372093023257
 30
0.0
 11
-5.645948592411257
 21
-25.97372093023257
 31
0.0
  0
LINE
  5
14B
330
75
100
AcDbEntity
  8
HALLE_0_1_EG
  6
Continuous
100
AcDbLine
 10
-5.645948592411257
 20
-25.97372093023257
 30
0.0
 11
-5.645948592411257
 21
-26.01372093023256
 31
0.0
  0
LINE
  5
14C
330
75
100
AcDbEntity
  8
HALLE_0_1_EG
  6
Continuous
100
AcDbLine
 10
-5.645948592411257
 20
-26.01372093023256
 30
0.0
 11
-6.438448592411256
 21
-26.01372093023256
 31
0.0
  0
LINE
  5
14D
330
75
100
AcDbEntity
  8
HALLE_0_1_EG
  6
Continuous
100
AcDbLine
 10
-6.438448592411256
 20
-26.01372093023256
 30
0.0
 11
-6.438448592411256
 21
-25.97372093023257
 31
0.0
  0
LINE
  5
14E
330
75
100
AcDbEntity
  8
HALLE_0_1_EG
  6
Continuous
100
AcDbLine
 10
-1.159448592411257
 20
-28.48372093023256
 30
0.0
 11
0.0405514075887414
 21
-28.48372093023256
 31
0.0
  0
LINE
  5
14F
330
75
100
AcDbEntity
  8
HALLE_0_1_EG
  6
Continuous
100
AcDbLine
 10
0.0405514075887414
 20
-28.48372093023256
 30
0.0
 11
0.0405514075887414
 21
-28.53372093023256
 31
0.0
  0
LINE
  5
150
330
75
100
AcDbEntity
  8
HALLE_0_1_EG
  6
Continuous
100
AcDbLine
 10
0.0405514075887414
 20
-28.53372093023256
 30
0.0
 11
-1.159448592411257
 21
-28.53372093023256
 31
0.0
  0
LINE
  5
151
330
75
100
AcDbEntity
  8
HALLE_0_1_EG
  6
Continuous
100
AcDbLine
 10
-1.159448592411257
 20
-28.53372093023256
 30
0.0
 11
-1.159448592411257
 21
-28.48372093023256
 31
0.0
  0
LINE
  5
152
330
75
100
AcDbEntity
  8
HALLE_0_1_EG
  6
Continuous
100
AcDbLine
 10
-10.72594859241125
 20
-18.31372093023255
 30
0.0
 11
-10.72594859241125
 21
-18.23372093023255
 31
0.0
  0
LINE
  5
153
330
75
100
AcDbEntity
  8
HALLE_0_1_EG
  6
Continuous
100
AcDbLine
 10
-10.72594859241125
 20
-15.73372093023256
 30
0.0
 11
-10.72594859241125
 21
-15.65372093023256
 31
0.0
  0
LINE
  5
154
330
75
100
AcDbEntity
  8
HALLE_0_1_EG
  6
Continuous
100
AcDbLine
 10
-12.12594859241125
 20
-8.283720930232556
 30
0.0
 11
-10.72594859241125
 21
-8.283720930232556
 31
0.0
  0
LINE
  5
155
330
75
100
AcDbEntity
  8
HALLE_0_1_EG
  6
Continuous
100
AcDbLine
 10
-10.72594859241125
 20
-10.79372093023255
 30
0.0
 11
-12.12594859241125
 21
-10.79372093023255
 31
0.0
  0
LINE
  5
156
330
75
100
AcDbEntity
  8
HALLE_0_1_EG
  6
Continuous
100
AcDbLine
 10
-12.12594859241125
 20
-10.79372093023255
 30
0.0
 11
-12.12594859241125
 21
-8.283720930232556
 31
0.0
  0
LINE
  5
157
330
75
100
AcDbEntity
  8
HALLE_0_1_EG
  6
Continuous
100
AcDbLine
 10
-10.63594859241125
 20
-10.48372093023256
 30
0.0
 11
-10.57594859241125
 21
-10.48372093023256
 31
0.0
  0
LINE
  5
158
330
75
100
AcDbEntity
  8
HALLE_0_1_EG
  6
Continuous
100
AcDbLine
 10
-10.57594859241125
 20
-10.48372093023256
 30
0.0
 11
-10.57594859241125
 21
-10.53372093023255
 31
0.0
  0
LINE
  5
159
330
75
100
AcDbEntity
  8
HALLE_0_1_EG
  6
Continuous
100
AcDbLine
 10
-10.57594859241125
 20
-10.53372093023255
 30
0.0
 11
-10.63594859241125
 21
-10.53372093023255
 31
0.0
  0
LINE
  5
15A
330
75
100
AcDbEntity
  8
HALLE_0_1_EG
  6
Continuous
100
AcDbLine
 10
-10.63594859241125
 20
-10.53372093023255
 30
0.0
 11
-10.63594859241125
 21
-10.48372093023256
 31
0.0
  0
LINE
  5
15B
330
75
100
AcDbEntity
  8
HALLE_0_1_EG
  6
Continuous
100
AcDbLine
 10
-3.874948592411256
 20
-10.53372093023255
 30
0.0
 11
-3.854948592411257
 21
-10.53372093023255
 31
0.0
  0
LINE
  5
15C
330
75
100
AcDbEntity
  8
HALLE_0_1_EG
  6
Continuous
100
AcDbLine
 10
-3.854948592411257
 20
-10.53372093023255
 30
0.0
 11
-3.734948592411257
 21
-10.5337209302332
 31
0.0
  0
LINE
  5
15D
330
75
100
AcDbEntity
  8
HALLE_0_1_EG
  6
Continuous
100
AcDbLine
 10
-3.734948592411257
 20
-10.5337209302332
 30
0.0
 11
-3.734948592411257
 21
-10.55372093023319
 31
0.0
  0
LINE
  5
15E
330
75
100
AcDbEntity
  8
HALLE_0_1_EG
  6
Continuous
100
AcDbLine
 10
-3.734948592411257
 20
-10.55372093023319
 30
0.0
 11
-3.854948592411257
 21
-10.55372093023319
 31
0.0
  0
LINE
  5
15F
330
75
100
AcDbEntity
  8
HALLE_0_1_EG
  6
Continuous
100
AcDbLine
 10
-3.854948592411257
 20
-10.55372093023319
 30
0.0
 11
-3.854948592411257
 21
-10.77372093023255
 31
0.0
  0
LINE
  5
160
330
75
100
AcDbEntity
  8
HALLE_0_1_EG
  6
Continuous
100
AcDbLine
 10
-3.854948592411257
 20
-10.77372093023255
 30
0.0
 11
-3.734948592411257
 21
-10.77372093023255
 31
0.0
  0
LINE
  5
161
330
75
100
AcDbEntity
  8
HALLE_0_1_EG
  6
Continuous
100
AcDbLine
 10
-3.734948592411257
 20
-10.77372093023255
 30
0.0
 11
-3.734948592411257
 21
-10.79372093023255
 31
0.0
  0
LINE
  5
162
330
75
100
AcDbEntity
  8
HALLE_0_1_EG
  6
Continuous
100
AcDbLine
 10
-3.734948592411257
 20
-10.79372093023255
 30
0.0
 11
-3.994948592411256
 21
-10.79372093023255
 31
0.0
  0
LINE
  5
163
330
75
100
AcDbEntity
  8
HALLE_0_1_EG
  6
Continuous
100
AcDbLine
 10
-3.994948592411256
 20
-10.79372093023255
 30
0.0
 11
-3.994948592411256
 21
-10.77372093023255
 31
0.0
  0
LINE
  5
164
330
75
100
AcDbEntity
  8
HALLE_0_1_EG
  6
Continuous
100
AcDbLine
 10
-3.994948592411256
 20
-10.77372093023255
 30
0.0
 11
-3.874948592411256
 21
-10.77372093023255
 31
0.0
  0
LINE
  5
165
330
75
100
AcDbEntity
  8
HALLE_0_1_EG
  6
Continuous
100
AcDbLine
 10
-3.874948592411256
 20
-10.77372093023255
 30
0.0
 11
-3.874948592411256
 21
-10.55372093023319
 31
0.0
  0
LINE
  5
166
330
75
100
AcDbEntity
  8
HALLE_0_1_EG
  6
Continuous
100
AcDbLine
 10
-3.874948592411256
 20
-10.55372093023319
 30
0.0
 11
-3.994948592411256
 21
-10.55372093023319
 31
0.0
  0
LINE
  5
167
330
75
100
AcDbEntity
  8
HALLE_0_1_EG
  6
Continuous
100
AcDbLine
 10
-3.994948592411256
 20
-10.55372093023319
 30
0.0
 11
-3.994948592411256
 21
-10.5337209302332
 31
0.0
  0
LINE
  5
168
330
75
100
AcDbEntity
  8
HALLE_0_1_EG
  6
Continuous
100
AcDbLine
 10
-3.994948592411256
 20
-10.5337209302332
 30
0.0
 11
-3.874948592411256
 21
-10.53372093023255
 31
0.0
  0
LINE
  5
169
330
75
100
AcDbEntity
  8
HALLE_0_1_EG
  6
Continuous
100
AcDbLine
 10
2.736051407588742
 20
-10.53372093023255
 30
0.0
 11
2.756051407588743
 21
-10.53372093023255
 31
0.0
  0
LINE
  5
16A
330
75
100
AcDbEntity
  8
HALLE_0_1_EG
  6
Continuous
100
AcDbLine
 10
2.756051407588743
 20
-10.53372093023255
 30
0.0
 11
2.876051407588744
 21
-10.5337209302332
 31
0.0
  0
LINE
  5
16B
330
75
100
AcDbEntity
  8
HALLE_0_1_EG
  6
Continuous
100
AcDbLine
 10
2.876051407588744
 20
-10.5337209302332
 30
0.0
 11
2.876051407588744
 21
-10.55372093023319
 31
0.0
  0
LINE
  5
16C
330
75
100
AcDbEntity
  8
HALLE_0_1_EG
  6
Continuous
100
AcDbLine
 10
2.876051407588744
 20
-10.55372093023319
 30
0.0
 11
2.756051407588743
 21
-10.55372093023319
 31
0.0
  0
LINE
  5
16D
330
75
100
AcDbEntity
  8
HALLE_0_1_EG
  6
Continuous
100
AcDbLine
 10
2.756051407588743
 20
-10.55372093023319
 30
0.0
 11
2.756051407588743
 21
-10.77372093023255
 31
0.0
  0
LINE
  5
16E
330
75
100
AcDbEntity
  8
HALLE_0_1_EG
  6
Continuous
100
AcDbLine
 10
2.756051407588743
 20
-10.77372093023255
 30
0.0
 11
2.876051407588744
 21
-10.77372093023255
 31
0.0
  0
LINE
  5
16F
330
75
100
AcDbEntity
  8
HALLE_0_1_EG
  6
Continuous
100
AcDbLine
 10
2.876051407588744
 20
-10.77372093023255
 30
0.0
 11
2.876051407588744
 21
-10.79372093023255
 31
0.0
  0
LINE
  5
170
330
75
100
AcDbEntity
  8
HALLE_0_1_EG
  6
Continuous
100
AcDbLine
 10
2.876051407588744
 20
-10.79372093023255
 30
0.0
 11
2.616051407588743
 21
-10.79372093023255
 31
0.0
  0
LINE
  5
171
330
75
100
AcDbEntity
  8
HALLE_0_1_EG
  6
Continuous
100
AcDbLine
 10
2.616051407588743
 20
-10.79372093023255
 30
0.0
 11
2.616051407588743
 21
-10.77372093023255
 31
0.0
  0
LINE
  5
172
330
75
100
AcDbEntity
  8
HALLE_0_1_EG
  6
Continuous
100
AcDbLine
 10
2.616051407588743
 20
-10.77372093023255
 30
0.0
 11
2.736051407588742
 21
-10.77372093023255
 31
0.0
  0
LINE
  5
173
330
75
100
AcDbEntity
  8
HALLE_0_1_EG
  6
Continuous
100
AcDbLine
 10
2.736051407588742
 20
-10.77372093023255
 30
0.0
 11
2.736051407588742
 21
-10.55372093023319
 31
0.0
  0
LINE
  5
174
330
75
100
AcDbEntity
  8
HALLE_0_1_EG
  6
Continuous
100
AcDbLine
 10
2.736051407588742
 20
-10.55372093023319
 30
0.0
 11
2.616051407588743
 21
-10.55372093023319
 31
0.0
  0
LINE
  5
175
330
75
100
AcDbEntity
  8
HALLE_0_1_EG
  6
Continuous
100
AcDbLine
 10
2.616051407588743
 20
-10.55372093023319
 30
0.0
 11
2.616051407588743
 21
-10.5337209302332
 31
0.0
  0
LINE
  5
176
330
75
100
AcDbEntity
  8
HALLE_0_1_EG
  6
Continuous
100
AcDbLine
 10
2.616051407588743
 20
-10.5337209302332
 30
0.0
 11
2.736051407588742
 21
-10.53372093023255
 31
0.0
  0
LINE
  5
177
330
75
100
AcDbEntity
  8
HALLE_0_1_EG
  6
Continuous
100
AcDbLine
 10
9.347051407588743
 20
-10.53372093023255
 30
0.0
 11
9.367051407588741
 21
-10.53372093023255
 31
0.0
  0
LINE
  5
178
330
75
100
AcDbEntity
  8
HALLE_0_1_EG
  6
Continuous
100
AcDbLine
 10
9.367051407588741
 20
-10.53372093023255
 30
0.0
 11
9.487051407588742
 21
-10.5337209302332
 31
0.0
  0
LINE
  5
179
330
75
100
AcDbEntity
  8
HALLE_0_1_EG
  6
Continuous
100
AcDbLine
 10
9.487051407588742
 20
-10.5337209302332
 30
0.0
 11
9.487051407588742
 21
-10.55372093023319
 31
0.0
  0
LINE
  5
17A
330
75
100
AcDbEntity
  8
HALLE_0_1_EG
  6
Continuous
100
AcDbLine
 10
9.487051407588742
 20
-10.55372093023319
 30
0.0
 11
9.367051407588741
 21
-10.55372093023319
 31
0.0
  0
LINE
  5
17B
330
75
100
AcDbEntity
  8
HALLE_0_1_EG
  6
Continuous
100
AcDbLine
 10
9.367051407588741
 20
-10.55372093023319
 30
0.0
 11
9.367051407588741
 21
-10.77372093023255
 31
0.0
  0
LINE
  5
17C
330
75
100
AcDbEntity
  8
HALLE_0_1_EG
  6
Continuous
100
AcDbLine
 10
9.367051407588741
 20
-10.77372093023255
 30
0.0
 11
9.487051407588742
 21
-10.77372093023255
 31
0.0
  0
LINE
  5
17D
330
75
100
AcDbEntity
  8
HALLE_0_1_EG
  6
Continuous
100
AcDbLine
 10
9.487051407588742
 20
-10.77372093023255
 30
0.0
 11
9.487051407588742
 21
-10.79372093023255
 31
0.0
  0
LINE
  5
17E
330
75
100
AcDbEntity
  8
HALLE_0_1_EG
  6
Continuous
100
AcDbLine
 10
9.487051407588742
 20
-10.79372093023255
 30
0.0
 11
9.227051407588744
 21
-10.79372093023255
 31
0.0
  0
LINE
  5
17F
330
75
100
AcDbEntity
  8
HALLE_0_1_EG
  6
Continuous
100
AcDbLine
 10
9.227051407588744
 20
-10.79372093023255
 30
0.0
 11
9.227051407588744
 21
-10.77372093023255
 31
0.0
  0
LINE
  5
180
330
75
100
AcDbEntity
  8
HALLE_0_1_EG
  6
Continuous
100
AcDbLine
 10
9.227051407588744
 20
-10.77372093023255
 30
0.0
 11
9.347051407588743
 21
-10.77372093023255
 31
0.0
  0
LINE
  5
181
330
75
100
AcDbEntity
  8
HALLE_0_1_EG
  6
Continuous
100
AcDbLine
 10
9.347051407588743
 20
-10.77372093023255
 30
0.0
 11
9.347051407588743
 21
-10.55372093023319
 31
0.0
  0
LINE
  5
182
330
75
100
AcDbEntity
  8
HALLE_0_1_EG
  6
Continuous
100
AcDbLine
 10
9.347051407588743
 20
-10.55372093023319
 30
0.0
 11
9.227051407588744
 21
-10.55372093023319
 31
0.0
  0
LINE
  5
183
330
75
100
AcDbEntity
  8
HALLE_0_1_EG
  6
Continuous
100
AcDbLine
 10
9.227051407588744
 20
-10.55372093023319
 30
0.0
 11
9.227051407588744
 21
-10.5337209302332
 31
0.0
  0
LINE
  5
184
330
75
100
AcDbEntity
  8
HALLE_0_1_EG
  6
Continuous
100
AcDbLine
 10
9.227051407588744
 20
-10.5337209302332
 30
0.0
 11
9.347051407588743
 21
-10.53372093023255
 31
0.0
  0
LINE
  5
185
330
75
100
AcDbEntity
  8
HALLE_0_1_EG
  6
Continuous
100
AcDbLine
 10
15.95805140758874
 20
-10.53372093023255
 30
0.0
 11
15.97805140758874
 21
-10.53372093023255
 31
0.0
  0
LINE
  5
186
330
75
100
AcDbEntity
  8
HALLE_0_1_EG
  6
Continuous
100
AcDbLine
 10
15.97805140758874
 20
-10.53372093023255
 30
0.0
 11
16.09805140758874
 21
-10.5337209302332
 31
0.0
  0
LINE
  5
187
330
75
100
AcDbEntity
  8
HALLE_0_1_EG
  6
Continuous
100
AcDbLine
 10
16.09805140758874
 20
-10.5337209302332
 30
0.0
 11
16.09805140758874
 21
-10.55372093023319
 31
0.0
  0
LINE
  5
188
330
75
100
AcDbEntity
  8
HALLE_0_1_EG
  6
Continuous
100
AcDbLine
 10
16.09805140758874
 20
-10.55372093023319
 30
0.0
 11
15.97805140758874
 21
-10.55372093023319
 31
0.0
  0
LINE
  5
189
330
75
100
AcDbEntity
  8
HALLE_0_1_EG
  6
Continuous
100
AcDbLine
 10
15.97805140758874
 20
-10.55372093023319
 30
0.0
 11
15.97805140758874
 21
-10.77372093023255
 31
0.0
  0
LINE
  5
18A
330
75
100
AcDbEntity
  8
HALLE_0_1_EG
  6
Continuous
100
AcDbLine
 10
15.97805140758874
 20
-10.77372093023255
 30
0.0
 11
16.09805140758874
 21
-10.77372093023255
 31
0.0
  0
LINE
  5
18B
330
75
100
AcDbEntity
  8
HALLE_0_1_EG
  6
Continuous
100
AcDbLine
 10
16.09805140758874
 20
-10.77372093023255
 30
0.0
 11
16.09805140758874
 21
-10.79372093023255
 31
0.0
  0
LINE
  5
18C
330
75
100
AcDbEntity
  8
HALLE_0_1_EG
  6
Continuous
100
AcDbLine
 10
16.09805140758874
 20
-10.79372093023255
 30
0.0
 11
15.83805140758874
 21
-10.79372093023255
 31
0.0
  0
LINE
  5
18D
330
75
100
AcDbEntity
  8
HALLE_0_1_EG
  6
Continuous
100
AcDbLine
 10
15.83805140758874
 20
-10.79372093023255
 30
0.0
 11
15.83805140758874
 21
-10.77372093023255
 31
0.0
  0
LINE
  5
18E
330
75
100
AcDbEntity
  8
HALLE_0_1_EG
  6
Continuous
100
AcDbLine
 10
15.83805140758874
 20
-10.77372093023255
 30
0.0
 11
15.95805140758874
 21
-10.77372093023255
 31
0.0
  0
LINE
  5
18F
330
75
100
AcDbEntity
  8
HALLE_0_1_EG
  6
Continuous
100
AcDbLine
 10
15.95805140758874
 20
-10.77372093023255
 30
0.0
 11
15.95805140758874
 21
-10.55372093023319
 31
0.0
  0
LINE
  5
190
330
75
100
AcDbEntity
  8
HALLE_0_1_EG
  6
Continuous
100
AcDbLine
 10
15.95805140758874
 20
-10.55372093023319
 30
0.0
 11
15.83805140758874
 21
-10.55372093023319
 31
0.0
  0
LINE
  5
191
330
75
100
AcDbEntity
  8
HALLE_0_1_EG
  6
Continuous
100
AcDbLine
 10
15.83805140758874
 20
-10.55372093023319
 30
0.0
 11
15.83805140758874
 21
-10.5337209302332
 31
0.0
  0
LINE
  5
192
330
75
100
AcDbEntity
  8
HALLE_0_1_EG
  6
Continuous
100
AcDbLine
 10
15.83805140758874
 20
-10.5337209302332
 30
0.0
 11
15.95805140758874
 21
-10.53372093023255
 31
0.0
  0
LINE
  5
193
330
75
100
AcDbEntity
  8
HALLE_0_1_EG
  6
Continuous
100
AcDbLine
 10
22.56905140758874
 20
-10.53372093023255
 30
0.0
 11
22.58905140758875
 21
-10.53372093023255
 31
0.0
  0
LINE
  5
194
330
75
100
AcDbEntity
  8
HALLE_0_1_EG
  6
Continuous
100
AcDbLine
 10
22.58905140758875
 20
-10.53372093023255
 30
0.0
 11
22.70905140758875
 21
-10.5337209302332
 31
0.0
  0
LINE
  5
195
330
75
100
AcDbEntity
  8
HALLE_0_1_EG
  6
Continuous
100
AcDbLine
 10
22.70905140758875
 20
-10.5337209302332
 30
0.0
 11
22.70905140758875
 21
-10.55372093023319
 31
0.0
  0
LINE
  5
196
330
75
100
AcDbEntity
  8
HALLE_0_1_EG
  6
Continuous
100
AcDbLine
 10
22.70905140758875
 20
-10.55372093023319
 30
0.0
 11
22.58905140758875
 21
-10.55372093023319
 31
0.0
  0
LINE
  5
197
330
75
100
AcDbEntity
  8
HALLE_0_1_EG
  6
Continuous
100
AcDbLine
 10
22.58905140758875
 20
-10.55372093023319
 30
0.0
 11
22.58905140758875
 21
-10.77372093023255
 31
0.0
  0
LINE
  5
198
330
75
100
AcDbEntity
  8
HALLE_0_1_EG
  6
Continuous
100
AcDbLine
 10
22.58905140758875
 20
-10.77372093023255
 30
0.0
 11
22.70905140758875
 21
-10.77372093023255
 31
0.0
  0
LINE
  5
199
330
75
100
AcDbEntity
  8
HALLE_0_1_EG
  6
Continuous
100
AcDbLine
 10
22.70905140758875
 20
-10.77372093023255
 30
0.0
 11
22.70905140758875
 21
-10.79372093023255
 31
0.0
  0
LINE
  5
19A
330
75
100
AcDbEntity
  8
HALLE_0_1_EG
  6
Continuous
100
AcDbLine
 10
22.70905140758875
 20
-10.79372093023255
 30
0.0
 11
22.44905140758875
 21
-10.79372093023255
 31
0.0
  0
LINE
  5
19B
330
75
100
AcDbEntity
  8
HALLE_0_1_EG
  6
Continuous
100
AcDbLine
 10
22.44905140758875
 20
-10.79372093023255
 30
0.0
 11
22.44905140758875
 21
-10.77372093023255
 31
0.0
  0
LINE
  5
19C
330
75
100
AcDbEntity
  8
HALLE_0_1_EG
  6
Continuous
100
AcDbLine
 10
22.44905140758875
 20
-10.77372093023255
 30
0.0
 11
22.56905140758874
 21
-10.77372093023255
 31
0.0
  0
LINE
  5
19D
330
75
100
AcDbEntity
  8
HALLE_0_1_EG
  6
Continuous
100
AcDbLine
 10
22.56905140758874
 20
-10.77372093023255
 30
0.0
 11
22.56905140758874
 21
-10.55372093023319
 31
0.0
  0
LINE
  5
19E
330
75
100
AcDbEntity
  8
HALLE_0_1_EG
  6
Continuous
100
AcDbLine
 10
22.56905140758874
 20
-10.55372093023319
 30
0.0
 11
22.44905140758875
 21
-10.55372093023319
 31
0.0
  0
LINE
  5
19F
330
75
100
AcDbEntity
  8
HALLE_0_1_EG
  6
Continuous
100
AcDbLine
 10
22.44905140758875
 20
-10.55372093023319
 30
0.0
 11
22.44905140758875
 21
-10.5337209302332
 31
0.0
  0
LINE
  5
1A0
330
75
100
AcDbEntity
  8
HALLE_0_1_EG
  6
Continuous
100
AcDbLine
 10
22.44905140758875
 20
-10.5337209302332
 30
0.0
 11
22.56905140758874
 21
-10.53372093023255
 31
0.0
  0
LINE
  5
1A1
330
75
100
AcDbEntity
  8
HALLE_0_1_EG
  6
Continuous
100
AcDbLine
 10
29.18005140758874
 20
-10.53372093023255
 30
0.0
 11
29.20005140758874
 21
-10.53372093023255
 31
0.0
  0
LINE
  5
1A2
330
75
100
AcDbEntity
  8
HALLE_0_1_EG
  6
Continuous
100
AcDbLine
 10
29.20005140758874
 20
-10.53372093023255
 30
0.0
 11
29.32005140758874
 21
-10.5337209302332
 31
0.0
  0
LINE
  5
1A3
330
75
100
AcDbEntity
  8
HALLE_0_1_EG
  6
Continuous
100
AcDbLine
 10
29.32005140758874
 20
-10.55372093023319
 30
0.0
 11
29.20005140758874
 21
-10.55372093023319
 31
0.0
  0
LINE
  5
1A4
330
75
100
AcDbEntity
  8
HALLE_0_1_EG
  6
Continuous
100
AcDbLine
 10
29.20005140758874
 20
-10.55372093023319
 30
0.0
 11
29.20005140758874
 21
-10.77372093023255
 31
0.0
  0
LINE
  5
1A5
330
75
100
AcDbEntity
  8
HALLE_0_1_EG
  6
Continuous
100
AcDbLine
 10
29.20005140758874
 20
-10.77372093023255
 30
0.0
 11
29.32005140758874
 21
-10.77372093023255
 31
0.0
  0
LINE
  5
1A6
330
75
100
AcDbEntity
  8
HALLE_0_1_EG
  6
Continuous
100
AcDbLine
 10
29.32005140758874
 20
-10.79372093023255
 30
0.0
 11
29.06005140758875
 21
-10.79372093023255
 31
0.0
  0
LINE
  5
1A7
330
75
100
AcDbEntity
  8
HALLE_0_1_EG
  6
Continuous
100
AcDbLine
 10
29.06005140758875
 20
-10.79372093023255
 30
0.0
 11
29.06005140758875
 21
-10.77372093023255
 31
0.0
  0
LINE
  5
1A8
330
75
100
AcDbEntity
  8
HALLE_0_1_EG
  6
Continuous
100
AcDbLine
 10
29.06005140758875
 20
-10.77372093023255
 30
0.0
 11
29.18005140758874
 21
-10.77372093023255
 31
0.0
  0
LINE
  5
1A9
330
75
100
AcDbEntity
  8
HALLE_0_1_EG
  6
Continuous
100
AcDbLine
 10
29.18005140758874
 20
-10.77372093023255
 30
0.0
 11
29.18005140758874
 21
-10.55372093023319
 31
0.0
  0
LINE
  5
1AA
330
75
100
AcDbEntity
  8
HALLE_0_1_EG
  6
Continuous
100
AcDbLine
 10
29.18005140758874
 20
-10.55372093023319
 30
0.0
 11
29.06005140758875
 21
-10.55372093023319
 31
0.0
  0
LINE
  5
1AB
330
75
100
AcDbEntity
  8
HALLE_0_1_EG
  6
Continuous
100
AcDbLine
 10
29.06005140758875
 20
-10.55372093023319
 30
0.0
 11
29.06005140758875
 21
-10.5337209302332
 31
0.0
  0
LINE
  5
1AC
330
75
100
AcDbEntity
  8
HALLE_0_1_EG
  6
Continuous
100
AcDbLine
 10
29.06005140758875
 20
-10.5337209302332
 30
0.0
 11
29.18005140758874
 21
-10.53372093023255
 31
0.0
  0
LINE
  5
1AD
330
75
100
AcDbEntity
  8
HALLE_0_1_EG
  6
Continuous
100
AcDbLine
 10
35.79105140758875
 20
-10.53372093023255
 30
0.0
 11
35.81105140758874
 21
-10.53372093023255
 31
0.0
  0
LINE
  5
1AE
330
75
100
AcDbEntity
  8
HALLE_0_1_EG
  6
Continuous
100
AcDbLine
 10
35.81105140758874
 20
-10.53372093023255
 30
0.0
 11
35.93105140758875
 21
-10.5337209302332
 31
0.0
  0
LINE
  5
1AF
330
75
100
AcDbEntity
  8
HALLE_0_1_EG
  6
Continuous
100
AcDbLine
 10
35.93105140758875
 20
-10.5337209302332
 30
0.0
 11
35.93105140758875
 21
-10.55372093023319
 31
0.0
  0
LINE
  5
1B0
330
75
100
AcDbEntity
  8
HALLE_0_1_EG
  6
Continuous
100
AcDbLine
 10
35.93105140758875
 20
-10.55372093023319
 30
0.0
 11
35.81105140758874
 21
-10.55372093023319
 31
0.0
  0
LINE
  5
1B1
330
75
100
AcDbEntity
  8
HALLE_0_1_EG
  6
Continuous
100
AcDbLine
 10
35.81105140758874
 20
-10.55372093023319
 30
0.0
 11
35.81105140758874
 21
-10.77372093023255
 31
0.0
  0
LINE
  5
1B2
330
75
100
AcDbEntity
  8
HALLE_0_1_EG
  6
Continuous
100
AcDbLine
 10
35.81105140758874
 20
-10.77372093023255
 30
0.0
 11
35.93105140758875
 21
-10.77372093023255
 31
0.0
  0
LINE
  5
1B3
330
75
100
AcDbEntity
  8
HALLE_0_1_EG
  6
Continuous
100
AcDbLine
 10
35.93105140758875
 20
-10.77372093023255
 30
0.0
 11
35.93105140758875
 21
-10.79372093023255
 31
0.0
  0
LINE
  5
1B4
330
75
100
AcDbEntity
  8
HALLE_0_1_EG
  6
Continuous
100
AcDbLine
 10
35.93105140758875
 20
-10.79372093023255
 30
0.0
 11
35.67105140758874
 21
-10.79372093023255
 31
0.0
  0
LINE
  5
1B5
330
75
100
AcDbEntity
  8
HALLE_0_1_EG
  6
Continuous
100
AcDbLine
 10
35.67105140758874
 20
-10.79372093023255
 30
0.0
 11
35.67105140758874
 21
-10.77372093023255
 31
0.0
  0
LINE
  5
1B6
330
75
100
AcDbEntity
  8
HALLE_0_1_EG
  6
Continuous
100
AcDbLine
 10
35.67105140758874
 20
-10.77372093023255
 30
0.0
 11
35.79105140758875
 21
-10.77372093023255
 31
0.0
  0
LINE
  5
1B7
330
75
100
AcDbEntity
  8
HALLE_0_1_EG
  6
Continuous
100
AcDbLine
 10
35.79105140758875
 20
-10.77372093023255
 30
0.0
 11
35.79105140758875
 21
-10.55372093023319
 31
0.0
  0
LINE
  5
1B8
330
75
100
AcDbEntity
  8
HALLE_0_1_EG
  6
Continuous
100
AcDbLine
 10
35.79105140758875
 20
-10.55372093023319
 30
0.0
 11
35.67105140758874
 21
-10.55372093023319
 31
0.0
  0
LINE
  5
1B9
330
75
100
AcDbEntity
  8
HALLE_0_1_EG
  6
Continuous
100
AcDbLine
 10
35.67105140758874
 20
-10.55372093023319
 30
0.0
 11
35.67105140758874
 21
-10.5337209302332
 31
0.0
  0
LINE
  5
1BA
330
75
100
AcDbEntity
  8
HALLE_0_1_EG
  6
Continuous
100
AcDbLine
 10
35.67105140758874
 20
-10.5337209302332
 30
0.0
 11
35.79105140758875
 21
-10.53372093023255
 31
0.0
  0
LINE
  5
1BB
330
75
100
AcDbEntity
  8
HALLE_0_1_EG
  6
Continuous
100
AcDbLine
 10
42.40205140758874
 20
-10.53372093023255
 30
0.0
 11
42.42205140758875
 21
-10.53372093023255
 31
0.0
  0
LINE
  5
1BC
330
75
100
AcDbEntity
  8
HALLE_0_1_EG
  6
Continuous
100
AcDbLine
 10
42.42205140758875
 20
-10.53372093023255
 30
0.0
 11
42.54205140758874
 21
-10.5337209302332
 31
0.0
  0
LINE
  5
1BD
330
75
100
AcDbEntity
  8
HALLE_0_1_EG
  6
Continuous
100
AcDbLine
 10
42.54205140758874
 20
-10.5337209302332
 30
0.0
 11
42.54205140758874
 21
-10.55372093023319
 31
0.0
  0
LINE
  5
1BE
330
75
100
AcDbEntity
  8
HALLE_0_1_EG
  6
Continuous
100
AcDbLine
 10
42.54205140758874
 20
-10.55372093023319
 30
0.0
 11
42.42205140758875
 21
-10.55372093023319
 31
0.0
  0
LINE
  5
1BF
330
75
100
AcDbEntity
  8
HALLE_0_1_EG
  6
Continuous
100
AcDbLine
 10
42.42205140758875
 20
-10.55372093023319
 30
0.0
 11
42.42205140758875
 21
-10.77372093023255
 31
0.0
  0
LINE
  5
1C0
330
75
100
AcDbEntity
  8
HALLE_0_1_EG
  6
Continuous
100
AcDbLine
 10
42.42205140758875
 20
-10.77372093023255
 30
0.0
 11
42.54205140758874
 21
-10.77372093023255
 31
0.0
  0
LINE
  5
1C1
330
75
100
AcDbEntity
  8
HALLE_0_1_EG
  6
Continuous
100
AcDbLine
 10
42.54205140758874
 20
-10.77372093023255
 30
0.0
 11
42.54205140758874
 21
-10.79372093023255
 31
0.0
  0
LINE
  5
1C2
330
75
100
AcDbEntity
  8
HALLE_0_1_EG
  6
Continuous
100
AcDbLine
 10
42.54205140758874
 20
-10.79372093023255
 30
0.0
 11
42.28205140758874
 21
-10.79372093023255
 31
0.0
  0
LINE
  5
1C3
330
75
100
AcDbEntity
  8
HALLE_0_1_EG
  6
Continuous
100
AcDbLine
 10
42.28205140758874
 20
-10.79372093023255
 30
0.0
 11
42.28205140758874
 21
-10.77372093023255
 31
0.0
  0
LINE
  5
1C4
330
75
100
AcDbEntity
  8
HALLE_0_1_EG
  6
Continuous
100
AcDbLine
 10
42.28205140758874
 20
-10.77372093023255
 30
0.0
 11
42.40205140758874
 21
-10.77372093023255
 31
0.0
  0
LINE
  5
1C5
330
75
100
AcDbEntity
  8
HALLE_0_1_EG
  6
Continuous
100
AcDbLine
 10
42.40205140758874
 20
-10.77372093023255
 30
0.0
 11
42.40205140758874
 21
-10.55372093023319
 31
0.0
  0
LINE
  5
1C6
330
75
100
AcDbEntity
  8
HALLE_0_1_EG
  6
Continuous
100
AcDbLine
 10
42.40205140758874
 20
-10.55372093023319
 30
0.0
 11
42.28205140758874
 21
-10.55372093023319
 31
0.0
  0
LINE
  5
1C7
330
75
100
AcDbEntity
  8
HALLE_0_1_EG
  6
Continuous
100
AcDbLine
 10
42.28205140758874
 20
-10.55372093023319
 30
0.0
 11
42.28205140758874
 21
-10.5337209302332
 31
0.0
  0
LINE
  5
1C8
330
75
100
AcDbEntity
  8
HALLE_0_1_EG
  6
Continuous
100
AcDbLine
 10
42.28205140758874
 20
-10.5337209302332
 30
0.0
 11
42.40205140758874
 21
-10.53372093023255
 31
0.0
  0
LINE
  5
1C9
330
75
100
AcDbEntity
  8
HALLE_0_1_EG
  6
Continuous
100
AcDbLine
 10
-10.63594859241125
 20
-8.533720930232558
 30
0.0
 11
-10.57594859241125
 21
-8.533720930232558
 31
0.0
  0
LINE
  5
1CA
330
75
100
AcDbEntity
  8
HALLE_0_1_EG
  6
Continuous
100
AcDbLine
 10
-10.57594859241125
 20
-8.533720930232558
 30
0.0
 11
-10.57594859241125
 21
-8.583720930232558
 31
0.0
  0
LINE
  5
1CB
330
75
100
AcDbEntity
  8
HALLE_0_1_EG
  6
Continuous
100
AcDbLine
 10
-10.57594859241125
 20
-8.583720930232558
 30
0.0
 11
-10.63594859241125
 21
-8.583720930232558
 31
0.0
  0
LINE
  5
1CC
330
75
100
AcDbEntity
  8
HALLE_0_1_EG
  6
Continuous
100
AcDbLine
 10
-10.63594859241125
 20
-8.583720930232558
 30
0.0
 11
-10.63594859241125
 21
-8.533720930232558
 31
0.0
  0
LINE
  5
1CD
330
75
100
AcDbEntity
  8
HALLE_0_1_EG
  6
Continuous
100
AcDbLine
 10
44.07405140759403
 20
-10.94372093023256
 30
0.0
 11
44.11405140759403
 21
-10.94372093023256
 31
0.0
  0
LINE
  5
1CE
330
75
100
AcDbEntity
  8
HALLE_0_1_EG
  6
Continuous
100
AcDbLine
 10
44.11405140759403
 20
-10.94372093023256
 30
0.0
 11
44.11405140759403
 21
-12.68383434710383
 31
0.0
  0
LINE
  5
1CF
330
75
100
AcDbEntity
  8
HALLE_0_1_EG
  6
Continuous
100
AcDbLine
 10
44.11405140759403
 20
-12.68383434710383
 30
0.0
 11
44.07405140759403
 21
-12.68383434710383
 31
0.0
  0
LINE
  5
1D0
330
75
100
AcDbEntity
  8
HALLE_0_1_EG
  6
Continuous
100
AcDbLine
 10
44.07405140759403
 20
-12.68383434710383
 30
0.0
 11
44.07405140759403
 21
-10.94372093023256
 31
0.0
  0
LINE
  5
1D1
330
75
100
AcDbEntity
  8
HALLE_0_1_EG
  6
Continuous
100
AcDbLine
 10
44.07405140759403
 20
-12.64383434710383
 30
0.0
 11
46.08405140759404
 21
-12.64383434710383
 31
0.0
  0
LINE
  5
1D2
330
75
100
AcDbEntity
  8
HALLE_0_1_EG
  6
Continuous
100
AcDbLine
 10
46.08405140759404
 20
-12.64383434710383
 30
0.0
 11
46.08405140759404
 21
-12.68383434710383
 31
0.0
  0
LINE
  5
1D3
330
75
100
AcDbEntity
  8
HALLE_0_1_EG
  6
Continuous
100
AcDbLine
 10
46.08405140759404
 20
-12.68383434710383
 30
0.0
 11
44.07405140759403
 21
-12.68383434710383
 31
0.0
  0
LINE
  5
1D4
330
75
100
AcDbEntity
  8
HALLE_0_1_EG
  6
Continuous
100
AcDbLine
 10
44.07405140759403
 20
-12.68383434710383
 30
0.0
 11
44.07405140759403
 21
-12.64383434710383
 31
0.0
  0
LINE
  5
1D5
330
75
100
AcDbEntity
  8
HALLE_0_1_EG
  6
Continuous
100
AcDbLine
 10
43.94205140758873
 20
-8.533720930232558
 30
0.0
 11
43.99205140758874
 21
-8.533720930232558
 31
0.0
  0
LINE
  5
1D6
330
75
100
AcDbEntity
  8
HALLE_0_1_EG
  6
Continuous
100
AcDbLine
 10
43.99205140758874
 20
-8.533720930232558
 30
0.0
 11
43.99205140758874
 21
-10.79372093023255
 31
0.0
  0
LINE
  5
1D7
330
75
100
AcDbEntity
  8
HALLE_0_1_EG
  6
Continuous
100
AcDbLine
 10
43.99205140758874
 20
-10.79372093023255
 30
0.0
 11
43.94205140758873
 21
-10.79372093023255
 31
0.0
  0
LINE
  5
1D8
330
75
100
AcDbEntity
  8
HALLE_0_1_EG
  6
Continuous
100
AcDbLine
 10
43.94205140758873
 20
-10.79372093023255
 30
0.0
 11
43.94205140758873
 21
-8.533720930232558
 31
0.0
  0
LINE
  5
1D9
330
75
100
AcDbEntity
  8
HALLE_0_1_EG
  6
Continuous
100
AcDbLine
 10
46.55705140758874
 20
-14.18383434710383
 30
0.0
 11
48.75705140758874
 21
-14.18383434710383
 31
0.0
  0
LINE
  5
1DA
330
75
100
AcDbEntity
  8
HALLE_0_1_EG
  6
Continuous
100
AcDbLine
 10
48.75705140758874
 20
-14.18383434710383
 30
0.0
 11
48.75705140758874
 21
-14.23383434710383
 31
0.0
  0
LINE
  5
1DB
330
75
100
AcDbEntity
  8
HALLE_0_1_EG
  6
Continuous
100
AcDbLine
 10
48.75705140758874
 20
-14.23383434710383
 30
0.0
 11
46.55705140758874
 21
-14.23383434710383
 31
0.0
  0
LINE
  5
1DC
330
75
100
AcDbEntity
  8
HALLE_0_1_EG
  6
Continuous
100
AcDbLine
 10
46.55705140758874
 20
-14.23383434710383
 30
0.0
 11
46.55705140758874
 21
-14.18383434710383
 31
0.0
  0
LINE
  5
1DD
330
75
100
AcDbEntity
  8
HALLE_0_1_EG
  6
Continuous
100
AcDbLine
 10
35.65105140758874
 20
-8.533720930232558
 30
0.0
 11
35.95105140758874
 21
-8.533720930232558
 31
0.0
  0
LINE
  5
1DE
330
75
100
AcDbEntity
  8
HALLE_0_1_EG
  6
Continuous
100
AcDbLine
 10
35.95105140758874
 20
-8.533720930232558
 30
0.0
 11
35.95105140758874
 21
-8.718720930232557
 31
0.0
  0
LINE
  5
1DF
330
75
100
AcDbEntity
  8
HALLE_0_1_EG
  6
Continuous
100
AcDbLine
 10
35.95105140758874
 20
-8.718720930232557
 30
0.0
 11
35.65105140758874
 21
-8.718720930232557
 31
0.0
  0
LINE
  5
1E0
330
75
100
AcDbEntity
  8
HALLE_0_1_EG
  6
Continuous
100
AcDbLine
 10
35.65105140758874
 20
-8.718720930232557
 30
0.0
 11
35.65105140758874
 21
-8.533720930232558
 31
0.0
  0
LINE
  5
1E1
330
75
100
AcDbEntity
  8
HALLE_0_1_EG
  6
Continuous
100
AcDbLine
 10
29.04005140758874
 20
-8.533720930232558
 30
0.0
 11
29.34005140758875
 21
-8.533720930232558
 31
0.0
  0
LINE
  5
1E2
330
75
100
AcDbEntity
  8
HALLE_0_1_EG
  6
Continuous
100
AcDbLine
 10
29.34005140758875
 20
-8.533720930232558
 30
0.0
 11
29.34005140758875
 21
-8.718720930232557
 31
0.0
  0
LINE
  5
1E3
330
75
100
AcDbEntity
  8
HALLE_0_1_EG
  6
Continuous
100
AcDbLine
 10
29.34005140758875
 20
-8.718720930232557
 30
0.0
 11
29.04005140758874
 21
-8.718720930232557
 31
0.0
  0
LINE
  5
1E4
330
75
100
AcDbEntity
  8
HALLE_0_1_EG
  6
Continuous
100
AcDbLine
 10
29.04005140758874
 20
-8.718720930232557
 30
0.0
 11
29.04005140758874
 21
-8.533720930232558
 31
0.0
  0
LINE
  5
1E5
330
75
100
AcDbEntity
  8
HALLE_0_1_EG
  6
Continuous
100
AcDbLine
 10
9.207051407588739
 20
-8.533720930232558
 30
0.0
 11
9.507051407588742
 21
-8.533720930232558
 31
0.0
  0
LINE
  5
1E6
330
75
100
AcDbEntity
  8
HALLE_0_1_EG
  6
Continuous
100
AcDbLine
 10
9.507051407588742
 20
-8.533720930232558
 30
0.0
 11
9.507051407588742
 21
-8.718720930232557
 31
0.0
  0
LINE
  5
1E7
330
75
100
AcDbEntity
  8
HALLE_0_1_EG
  6
Continuous
100
AcDbLine
 10
9.507051407588742
 20
-8.718720930232557
 30
0.0
 11
9.207051407588739
 21
-8.718720930232557
 31
0.0
  0
LINE
  5
1E8
330
75
100
AcDbEntity
  8
HALLE_0_1_EG
  6
Continuous
100
AcDbLine
 10
9.207051407588739
 20
-8.718720930232557
 30
0.0
 11
9.207051407588739
 21
-8.533720930232558
 31
0.0
  0
LINE
  5
1E9
330
75
100
AcDbEntity
  8
HALLE_0_1_EG
  6
Continuous
100
AcDbLine
 10
2.596051407588741
 20
-8.533720930232558
 30
0.0
 11
2.896051407588743
 21
-8.533720930232558
 31
0.0
  0
LINE
  5
1EA
330
75
100
AcDbEntity
  8
HALLE_0_1_EG
  6
Continuous
100
AcDbLine
 10
2.896051407588743
 20
-8.533720930232558
 30
0.0
 11
2.896051407588743
 21
-8.718720930232557
 31
0.0
  0
LINE
  5
1EB
330
75
100
AcDbEntity
  8
HALLE_0_1_EG
  6
Continuous
100
AcDbLine
 10
2.896051407588743
 20
-8.718720930232557
 30
0.0
 11
2.596051407588741
 21
-8.718720930232557
 31
0.0
  0
LINE
  5
1EC
330
75
100
AcDbEntity
  8
HALLE_0_1_EG
  6
Continuous
100
AcDbLine
 10
2.596051407588741
 20
-8.718720930232557
 30
0.0
 11
2.596051407588741
 21
-8.533720930232558
 31
0.0
  0
LINE
  5
1ED
330
75
100
AcDbEntity
  8
HALLE_0_1_EG
  6
Continuous
100
AcDbLine
 10
21.07905140758874
 20
-28.21372093023255
 30
0.0
 11
22.07905140758874
 21
-28.21372093023255
 31
0.0
  0
LINE
  5
1EE
330
75
100
AcDbEntity
  8
HALLE_0_1_EG
  6
Continuous
100
AcDbLine
 10
22.07905140758874
 20
-28.21372093023255
 30
0.0
 11
22.07905140758874
 21
-28.41372093023256
 31
0.0
  0
LINE
  5
1EF
330
75
100
AcDbEntity
  8
HALLE_0_1_EG
  6
Continuous
100
AcDbLine
 10
22.07905140758874
 20
-28.41372093023256
 30
0.0
 11
21.07905140758874
 21
-28.41372093023256
 31
0.0
  0
LINE
  5
1F0
330
75
100
AcDbEntity
  8
HALLE_0_1_EG
  6
Continuous
100
AcDbLine
 10
21.07905140758874
 20
-28.41372093023256
 30
0.0
 11
21.07905140758874
 21
-28.21372093023255
 31
0.0
  0
LINE
  5
1F1
330
75
100
AcDbEntity
  8
HALLE_0_1_EG
  6
Continuous
100
AcDbLine
 10
29.16405140758874
 20
-8.233720930232557
 30
0.0
 11
28.18405140758875
 21
-8.233720930232557
 31
0.0
  0
LINE
  5
1F2
330
75
100
AcDbEntity
  8
HALLE_0_1_EG
  6
Continuous
100
AcDbLine
 10
7.594051407588739
 20
-8.233720930232557
 30
0.0
 11
6.594051407588742
 21
-8.233720930232557
 31
0.0
  0
LINE
  5
1F3
330
75
100
AcDbEntity
  8
HALLE_0_1_EG
  6
Continuous
100
AcDbLine
 10
-5.954244492411254
 20
-27.64643196953514
 30
0.0
 11
-5.645948592411257
 21
-27.65787396953514
 31
0.0
  0
LINE
  5
1F4
330
75
100
AcDbEntity
  8
HALLE_0_1_EG
  6
Continuous
100
AcDbLine
 10
-5.645948592411257
 20
-27.65787396953514
 30
0.0
 11
-5.645948592411257
 21
-27.99498796953513
 31
0.0
  0
LINE
  5
1F5
330
75
100
AcDbEntity
  8
HALLE_0_1_EG
  6
Continuous
100
AcDbLine
 10
-5.645948592411257
 20
-27.99498796953513
 30
0.0
 11
-5.954244592411258
 21
-28.00643036953514
 31
0.0
  0
LINE
  5
1F6
330
75
100
AcDbEntity
  8
HALLE_0_1_EG
  6
Continuous
100
AcDbLine
 10
-5.954244592411258
 20
-28.00643036953514
 30
0.0
 11
-5.954244146690905
 21
-28.00643035420238
 31
0.0
  0
ARC
  5
1F7
330
75
100
AcDbEntity
  8
HALLE_0_1_EG
  6
Continuous
100
AcDbCircle
 10
-5.96393338143722
 20
-27.72476605947397
 30
0.0
 40
0.2818309000000276
100
AcDbArc
 50
218.9271889035576
 51
271.9701944567307
  0
LINE
  5
1F8
330
75
100
AcDbEntity
  8
HALLE_0_1_EG
  6
Continuous
100
AcDbLine
 10
-6.183182340639557
 20
-27.9018495146117
 30
0.0
 11
-6.183183992411255
 21
-27.90184746953514
 31
0.0
  0
LINE
  5
1F9
330
75
100
AcDbEntity
  8
HALLE_0_1_EG
  6
Continuous
100
AcDbLine
 10
-6.183183992411255
 20
-27.90184746953514
 30
0.0
 11
-6.183183892411257
 21
-27.75101466953514
 31
0.0
  0
LINE
  5
1FA
330
75
100
AcDbEntity
  8
HALLE_0_1_EG
  6
Continuous
100
AcDbLine
 10
-6.183183892411257
 20
-27.75101466953514
 30
0.0
 11
-6.183184624367612
 21
-27.7510155758026
 31
0.0
  0
ARC
  5
1FB
330
75
100
AcDbEntity
  8
HALLE_0_1_EG
  6
Continuous
100
AcDbCircle
 10
-5.963933577939422
 20
-27.92809596923028
 30
0.0
 40
0.2818306000000043
100
AcDbArc
 50
88.0303431058809
 51
141.0735619421052
  0
LINE
  5
1FC
330
75
100
AcDbEntity
  8
HALLE_0_1_EG
  6
Continuous
100
AcDbLine
 10
-5.954246996145914
 20
-27.64643188343034
 30
0.0
 11
-5.954244492411254
 21
-27.64643196953514
 31
0.0
  0
ARC
  5
1FD
330
75
100
AcDbEntity
  8
HALLE_0_1_EG
  6
Continuous
100
AcDbCircle
 10
-5.72594774847126
 20
-27.97794602252586
 30
0.0
 40
0.0199976861255201
100
AcDbArc
 50
272.1239878262025
 51
316.0661326963335
  0
LINE
  5
1FE
330
75
100
AcDbEntity
  8
HALLE_0_1_EG
  6
Continuous
100
AcDbLine
 10
-5.711546592411255
 20
-27.99182096953514
 30
0.0
 11
-5.705948592411257
 21
-27.97794396953514
 31
0.0
  0
LINE
  5
1FF
330
75
100
AcDbEntity
  8
HALLE_0_1_EG
  6
Continuous
100
AcDbLine
 10
-5.705948592411257
 20
-27.97794396953514
 30
0.0
 11
-5.705948592411257
 21
-27.67491796953514
 31
0.0
  0
LINE
  5
200
330
75
100
AcDbEntity
  8
HALLE_0_1_EG
  6
Continuous
100
AcDbLine
 10
-5.705948592411257
 20
-27.67491796953514
 30
0.0
 11
-5.711546592411255
 21
-27.66104096953514
 31
0.0
  0
LINE
  5
201
330
75
100
AcDbEntity
  8
HALLE_0_1_EG
  6
Continuous
100
AcDbLine
 10
-5.711546592411255
 20
-27.66104096953514
 30
0.0
 11
-5.725206592411257
 21
-27.65493196953513
 31
0.0
  0
ARC
  5
202
330
75
100
AcDbEntity
  8
HALLE_0_1_EG
  6
Continuous
100
AcDbCircle
 10
-6.069642699324881
 20
-27.82643096953514
 30
0.0
 40
0.0963056187058146
100
AcDbArc
 50
147.4675249527174
 51
212.5324750472824
  0
LINE
  5
203
330
75
100
AcDbEntity
  8
HALLE_0_1_EG
  6
Continuous
100
AcDbLine
 10
-6.150836692411252
 20
-27.77463996953514
 30
0.0
 11
-6.150837230507811
 21
-27.77464062414635
 31
0.0
  0
ARC
  5
204
330
75
100
AcDbEntity
  8
HALLE_0_1_EG
  6
Continuous
100
AcDbCircle
 10
-5.964138564048584
 20
-27.92810867833023
 30
0.0
 40
0.2416791999999996
100
AcDbArc
 50
88.01488505271349
 51
140.5794747400723
  0
LINE
  5
205
330
75
100
AcDbEntity
  8
HALLE_0_1_EG
  6
Continuous
100
AcDbLine
 10
-5.955766830248851
 20
-27.68657451969873
 30
0.0
 11
-5.955765392411257
 21
-27.68657456953514
 31
0.0
  0
LINE
  5
206
330
75
100
AcDbEntity
  8
HALLE_0_1_EG
  6
Continuous
100
AcDbLine
 10
-5.955765392411257
 20
-27.68657456953514
 30
0.0
 11
-5.826304092411255
 21
-27.82643096953513
 31
0.0
  0
LINE
  5
207
330
75
100
AcDbEntity
  8
HALLE_0_1_EG
  6
Continuous
100
AcDbLine
 10
-5.826304092411255
 20
-27.82643096953513
 30
0.0
 11
-5.955765392411257
 21
-27.96628746953514
 31
0.0
  0
LINE
  5
208
330
75
100
AcDbEntity
  8
HALLE_0_1_EG
  6
Continuous
100
AcDbLine
 10
-5.955765392411257
 20
-27.96628746953514
 30
0.0
 11
-5.955764510470999
 21
-27.96628743895831
 31
0.0
  0
ARC
  5
209
330
75
100
AcDbEntity
  8
HALLE_0_1_EG
  6
Continuous
100
AcDbCircle
 10
-5.964138484105205
 20
-27.72475335797133
 30
0.0
 40
0.2416792000000182
100
AcDbArc
 50
219.4213395460325
 51
271.9856462720628
  0
LINE
  5
20A
330
75
100
AcDbEntity
  8
HALLE_0_1_EG
  6
Continuous
100
AcDbLine
 10
-6.150834969461658
 20
-27.87822406549624
 30
0.0
 11
-6.150836692411252
 21
-27.87822196953514
 31
0.0
  0
LINE
  5
20B
330
75
100
AcDbEntity
  8
HALLE_0_1_EG
  6
Continuous
100
AcDbLine
 10
-5.896218592411253
 20
-27.78143096953514
 30
0.0
 11
-5.868298592411254
 21
-27.77709846953514
 31
0.0
  0
LINE
  5
20C
330
75
100
AcDbEntity
  8
HALLE_0_1_EG
  6
Continuous
100
AcDbLine
 10
-5.868298592411254
 20
-27.77709846953514
 30
0.0
 11
-5.864837792411253
 21
-27.77782726953514
 31
0.0
  0
LINE
  5
20D
330
75
100
AcDbEntity
  8
HALLE_0_1_EG
  6
Continuous
100
AcDbLine
 10
-5.864837792411253
 20
-27.77782726953514
 30
0.0
 11
-5.862724892411254
 21
-27.78066346953514
 31
0.0
  0
LINE
  5
20E
330
75
100
AcDbEntity
  8
HALLE_0_1_EG
  6
Continuous
100
AcDbLine
 10
-5.862724892411254
 20
-27.78066346953514
 30
0.0
 11
-5.856304092411255
 21
-27.82643096953513
 31
0.0
  0
LINE
  5
20F
330
75
100
AcDbEntity
  8
HALLE_0_1_EG
  6
Continuous
100
AcDbLine
 10
-5.856304092411255
 20
-27.82643096953513
 30
0.0
 11
-5.862724892411254
 21
-27.87219846953514
 31
0.0
  0
LINE
  5
210
330
75
100
AcDbEntity
  8
HALLE_0_1_EG
  6
Continuous
100
AcDbLine
 10
-5.862724892411254
 20
-27.87219846953514
 30
0.0
 11
-5.864837792411253
 21
-27.87503466953513
 31
0.0
  0
LINE
  5
211
330
75
100
AcDbEntity
  8
HALLE_0_1_EG
  6
Continuous
100
AcDbLine
 10
-5.864837792411253
 20
-27.87503466953513
 30
0.0
 11
-5.868298592411254
 21
-27.87576346953514
 31
0.0
  0
LINE
  5
212
330
75
100
AcDbEntity
  8
HALLE_0_1_EG
  6
Continuous
100
AcDbLine
 10
-5.868298592411254
 20
-27.87576346953514
 30
0.0
 11
-5.896218592411253
 21
-27.87143096953514
 31
0.0
  0
ARC
  5
213
330
75
100
AcDbEntity
  8
HALLE_0_1_EG
  6
Continuous
100
AcDbCircle
 10
-5.969207641925883
 20
-27.7492763262803
 30
0.0
 40
0.2178819243354917
100
AcDbArc
 50
216.2858965738569
 51
238.7087625097132
  0
LINE
  5
214
330
75
100
AcDbEntity
  8
HALLE_0_1_EG
  6
Continuous
100
AcDbLine
 10
-6.144836592411255
 20
-27.87822206953514
 30
0.0
 11
-6.144836492411259
 21
-27.77464006953513
 31
0.0
  0
LINE
  5
215
330
75
100
AcDbEntity
  8
HALLE_0_1_EG
  6
Continuous
100
AcDbLine
 10
-6.144836492411259
 20
-27.77464006953513
 30
0.0
 11
-6.083397892411257
 21
-27.71792026953514
 31
0.0
  0
LINE
  5
216
330
75
100
AcDbEntity
  8
HALLE_0_1_EG
  6
Continuous
100
AcDbLine
 10
-5.955816892411259
 20
-26.42788518023256
 30
0.0
 11
-5.955818065075364
 21
-26.42788632547348
 31
0.0
  0
ARC
  5
217
330
75
100
AcDbEntity
  8
HALLE_0_1_EG
  6
Continuous
100
AcDbCircle
 10
-5.673254478377686
 20
-26.71721599438587
 30
0.0
 40
0.4044179000000016
100
AcDbArc
 50
86.12904269841207
 51
134.3221639444735
  0
LINE
  5
218
330
75
100
AcDbEntity
  8
HALLE_0_1_EG
  6
Continuous
100
AcDbLine
 10
-5.645952401847972
 20
-26.31372072247109
 30
0.0
 11
-5.645948592411257
 21
-26.31372098023256
 31
0.0
  0
LINE
  5
219
330
75
100
AcDbEntity
  8
HALLE_0_1_EG
  6
Continuous
100
AcDbLine
 10
-5.645948592411257
 20
-26.31372098023256
 30
0.0
 11
-5.645948592411257
 21
-26.61372088023256
 31
0.0
  0
LINE
  5
21A
330
75
100
AcDbEntity
  8
HALLE_0_1_EG
  6
Continuous
100
AcDbLine
 10
-5.645948592411257
 20
-26.61372088023256
 30
0.0
 11
-5.645948313628945
 21
-26.61372086136622
 31
0.0
  0
ARC
  5
21B
330
75
100
AcDbEntity
  8
HALLE_0_1_EG
  6
Continuous
100
AcDbCircle
 10
-5.673254478362249
 20
-26.21022586609618
 30
0.0
 40
0.4044178999999925
100
AcDbArc
 50
225.678248086773
 51
273.8715378211331
  0
LINE
  5
21C
330
75
100
AcDbEntity
  8
HALLE_0_1_EG
  6
Continuous
100
AcDbLine
 10
-5.955815984395623
 20
-26.49955756700114
 30
0.0
 11
-5.955816892411259
 21
-26.49955668023255
 31
0.0
  0
LINE
  5
21D
330
75
100
AcDbEntity
  8
HALLE_0_1_EG
  6
Continuous
100
AcDbLine
 10
-5.955816892411259
 20
-26.49955668023255
 30
0.0
 11
-5.97094849241126
 21
-26.46372088023256
 31
0.0
  0
LINE
  5
21E
330
75
100
AcDbEntity
  8
HALLE_0_1_EG
  6
Continuous
100
AcDbLine
 10
-5.97094849241126
 20
-26.46372088023256
 30
0.0
 11
-5.97094849241126
 21
-26.4637208423828
 31
0.0
  0
ARC
  5
21F
330
75
100
AcDbEntity
  8
HALLE_0_1_EG
  6
Continuous
100
AcDbCircle
 10
-5.920948492411253
 20
-26.46372084238281
 30
0.0
 40
0.0500000000000065
100
AcDbArc
 50
134.2168523489047
 51
179.9999999999867
  0
LINE
  5
220
330
75
100
AcDbEntity
  8
HALLE_0_1_EG
  6
Continuous
100
AcDbLine
 10
-5.955817289255123
 20
-26.42788556637353
 30
0.0
 11
-5.955816892411259
 21
-26.42788518023256
 31
0.0
  0
LINE
  5
221
330
75
100
AcDbEntity
  8
HALLE_0_1_EG
  6
Continuous
100
AcDbLine
 10
-5.735477392411256
 20
-26.34743018023256
 30
0.0
 11
-5.899434592411254
 21
-26.42253918023256
 31
0.0
  0
LINE
  5
222
330
75
100
AcDbEntity
  8
HALLE_0_1_EG
  6
Continuous
100
AcDbLine
 10
-5.899434592411254
 20
-26.42253918023256
 30
0.0
 11
-5.899434947084587
 21
-26.42253942444869
 31
0.0
  0
ARC
  5
223
330
75
100
AcDbEntity
  8
HALLE_0_1_EG
  6
Continuous
100
AcDbCircle
 10
-5.871078692411239
 20
-26.4637210079649
 30
0.0
 40
0.0500000000000205
100
AcDbArc
 50
124.5499921066541
 51
179.9999999999861
  0
LINE
  5
224
330
75
100
AcDbEntity
  8
HALLE_0_1_EG
  6
Continuous
100
AcDbLine
 10
-5.921078692411259
 20
-26.46372100796489
 30
0.0
 11
-5.921078692411259
 21
-26.46372098023255
 31
0.0
  0
LINE
  5
225
330
75
100
AcDbEntity
  8
HALLE_0_1_EG
  6
Continuous
100
AcDbLine
 10
-5.921078692411259
 20
-26.46372098023255
 30
0.0
 11
-5.899434592411254
 21
-26.50490278023255
 31
0.0
  0
LINE
  5
226
330
75
100
AcDbEntity
  8
HALLE_0_1_EG
  6
Continuous
100
AcDbLine
 10
4.726514000000002
 20
-56.27118184999999
 30
0.0
 11
4.726513984686268
 21
-56.27118183834053
 31
0.0
  0
ARC
  5
227
330
75
100
AcDbEntity
  8
HALLE_0_1_EG
  6
Continuous
100
AcDbCircle
 10
-5.650434046329305
 20
-26.17786115165563
 30
0.0
 40
0.411044399999994
100
AcDbArc
 50
232.7153445427914
 51
258.0591527537998
  0
LINE
  5
228
330
75
100
AcDbEntity
  8
HALLE_0_1_EG
  6
Continuous
100
AcDbLine
 10
-5.735479844010114
 20
-26.58001126177396
 30
0.0
 11
-5.735477392411256
 21
-26.58001178023255
 31
0.0
  0
LINE
  5
229
330
75
100
AcDbEntity
  8
HALLE_0_1_EG
  6
Continuous
100
AcDbLine
 10
-5.735477392411256
 20
-26.58001178023255
 30
0.0
 11
-5.694139992411261
 21
-26.56950558023256
 31
0.0
  0
LINE
  5
22A
330
75
100
AcDbEntity
  8
HALLE_0_1_EG
  6
Continuous
100
AcDbLine
 10
-5.694139992411261
 20
-26.56950558023256
 30
0.0
 11
-5.675948492411259
 21
-26.53092808023254
 31
0.0
  0
LINE
  5
22B
330
75
100
AcDbEntity
  8
HALLE_0_1_EG
  6
Continuous
100
AcDbLine
 10
-5.675948492411259
 20
-26.53092808023254
 30
0.0
 11
-5.675948592411256
 21
-26.39651388023255
 31
0.0
  0
LINE
  5
22C
330
75
100
AcDbEntity
  8
HALLE_0_1_EG
  6
Continuous
100
AcDbLine
 10
-5.675948592411256
 20
-26.39651388023255
 30
0.0
 11
-5.675948592411256
 21
-26.39651382607539
 31
0.0
  0
ARC
  5
22D
330
75
100
AcDbEntity
  8
HALLE_0_1_EG
  6
Continuous
100
AcDbCircle
 10
-5.725948592411277
 20
-26.39651382607538
 30
0.0
 40
0.0500000000000202
100
AcDbArc
 50
0.0
 51
50.49309095829981
  0
LINE
  5
22E
330
75
100
AcDbEntity
  8
HALLE_0_1_EG
  6
Continuous
100
AcDbLine
 10
-5.694140029290805
 20
-26.35793643227782
 30
0.0
 11
-5.694140092411258
 21
-26.35793638023255
 31
0.0
  0
LINE
  5
22F
330
75
100
AcDbEntity
  8
HALLE_0_1_EG
  6
Continuous
100
AcDbLine
 10
-5.694140092411258
 20
-26.35793638023255
 30
0.0
 11
-5.694140260653169
 21
-26.35793624151207
 31
0.0
  0
ARC
  5
230
330
75
100
AcDbEntity
  8
HALLE_0_1_EG
  6
Continuous
100
AcDbCircle
 10
-5.725948615598221
 20
-26.39651380695741
 30
0.0
 40
0.0499999999999938
100
AcDbArc
 50
50.49340014313948
 51
100.9865249687693
  0
LINE
  5
231
330
75
100
AcDbEntity
  8
HALLE_0_1_EG
  6
Continuous
100
AcDbLine
 10
-5.73547752196953
 20
-26.34743020538452
 30
0.0
 11
-5.735477392411256
 21
-26.34743018023256
 31
0.0
  0
LINE
  5
232
330
75
100
AcDbEntity
  8
HALLE_0_1_EG
  6
Continuous
100
AcDbLine
 10
-1.975948592411256
 20
-26.83857692370384
 30
0.0
 11
-1.975948592411256
 21
-26.79179192778429
 31
0.0
  0
LINE
  5
233
330
75
100
AcDbEntity
  8
HALLE_0_1_EG
  6
Continuous
100
AcDbLine
 10
-1.975948592411256
 20
-26.79179192778429
 30
0.0
 11
-1.925948592411257
 21
-26.79179192778429
 31
0.0
  0
LINE
  5
234
330
75
100
AcDbEntity
  8
HALLE_0_1_EG
  6
Continuous
100
AcDbLine
 10
-3.825948592411257
 20
-24.89372093023667
 30
0.0
 11
-3.795948592411256
 21
-24.89372093023667
 31
0.0
  0
LINE
  5
235
330
75
100
AcDbEntity
  8
HALLE_0_1_EG
  6
Continuous
100
AcDbLine
 10
-3.795948592411256
 20
-24.89372093023667
 30
0.0
 11
-3.795948592411256
 21
-26.79372093023256
 31
0.0
  0
LINE
  5
236
330
75
100
AcDbEntity
  8
HALLE_0_1_EG
  6
Continuous
100
AcDbLine
 10
-3.795948592411256
 20
-26.79179192778429
 30
0.0
 11
-3.825948592411257
 21
-26.79179192778429
 31
0.0
  0
LINE
  5
237
330
75
100
AcDbEntity
  8
HALLE_0_1_EG
  6
Continuous
100
AcDbLine
 10
-3.825948592411257
 20
-26.79372093023256
 30
0.0
 11
-3.825948592411257
 21
-24.89372093023667
 31
0.0
  0
LINE
  5
238
330
75
100
AcDbEntity
  8
HALLE_0_1_EG
  6
Continuous
100
AcDbLine
 10
-3.825948592411257
 20
-26.76372093023255
 30
0.0
 11
-1.925948592411257
 21
-26.76372093023255
 31
0.0
  0
LINE
  5
239
330
75
100
AcDbEntity
  8
HALLE_0_1_EG
  6
Continuous
100
AcDbLine
 10
-1.925948592411257
 20
-26.76372093023255
 30
0.0
 11
-1.925948592411257
 21
-26.79179192778429
 31
0.0
  0
LINE
  5
23A
330
75
100
AcDbEntity
  8
HALLE_0_1_EG
  6
Continuous
100
AcDbLine
 10
-1.925948592411257
 20
-26.79179192778429
 30
0.0
 11
-3.825948592411257
 21
-26.79179192778429
 31
0.0
  0
LINE
  5
23B
330
75
100
AcDbEntity
  8
HALLE_0_1_EG
  6
Continuous
100
AcDbLine
 10
-3.825948592411257
 20
-26.79179192778429
 30
0.0
 11
-3.825948592411257
 21
-26.76372093023255
 31
0.0
  0
LINE
  5
23C
330
75
100
AcDbEntity
  8
HALLE_0_1_EG
  6
Continuous
100
AcDbLine
 10
44.22405140759403
 20
-13.43383434710485
 30
0.0
 11
46.04405140759403
 21
-13.43383434710383
 31
0.0
  0
LINE
  5
23D
330
75
100
AcDbEntity
  8
HALLE_0_1_EG
  6
Continuous
100
AcDbLine
 10
46.04405140759403
 20
-13.43383434710383
 30
0.0
 11
45.78405140759403
 21
-12.68383434710383
 31
0.0
  0
LINE
  5
23E
330
75
100
AcDbEntity
  8
HALLE_0_1_EG
  6
Continuous
100
AcDbLine
 10
46.04405140759403
 20
-13.43383434710383
 30
0.0
 11
45.78405140759403
 21
-14.18383434710383
 31
0.0
  0
LINE
  5
23F
330
75
100
AcDbEntity
  8
HALLE_0_1_EG
  6
Continuous
100
AcDbLine
 10
43.32405140759404
 20
-10.95372093024186
 30
0.0
 11
43.32405140759404
 21
-12.51372093024187
 31
0.0
  0
LINE
  5
240
330
75
100
AcDbEntity
  8
HALLE_0_1_EG
  6
Continuous
100
AcDbLine
 10
43.32405140759404
 20
-12.51372093024187
 30
0.0
 11
44.07405140759403
 21
-12.25372093024186
 31
0.0
  0
LINE
  5
241
330
75
100
AcDbEntity
  8
HALLE_0_1_EG
  6
Continuous
100
AcDbLine
 10
43.32405140759404
 20
-12.51372093024187
 30
0.0
 11
42.57405140759404
 21
-12.25372093024186
 31
0.0
  0
LINE
  5
242
330
75
100
AcDbEntity
  8
HALLE_0_1_EG
  6
Continuous
100
AcDbLine
 10
46.04405140759403
 20
-10.79372093023255
 30
0.0
 11
46.08405140759404
 21
-10.79372093023255
 31
0.0
  0
LINE
  5
243
330
75
100
AcDbEntity
  8
HALLE_0_1_EG
  6
Continuous
100
AcDbLine
 10
46.08405140759404
 20
-10.79372093023255
 30
0.0
 11
46.08405140759404
 21
-12.68383434710383
 31
0.0
  0
LINE
  5
244
330
75
100
AcDbEntity
  8
HALLE_0_1_EG
  6
Continuous
100
AcDbLine
 10
46.08405140759404
 20
-12.68383434710383
 30
0.0
 11
46.04405140759403
 21
-12.68383434710383
 31
0.0
  0
LINE
  5
245
330
75
100
AcDbEntity
  8
HALLE_0_1_EG
  6
Continuous
100
AcDbLine
 10
46.04405140759403
 20
-12.68383434710383
 30
0.0
 11
46.04405140759403
 21
-10.79372093023255
 31
0.0
  0
LINE
  5
246
330
75
100
AcDbEntity
  8
HALLE_0_1_EG
  6
Continuous
100
AcDbLine
 10
-2.275948592411257
 20
-26.79179192778429
 30
0.0
 11
-1.975948592411256
 21
-26.79179192778429
 31
0.0
  0
LINE
  5
247
330
75
100
AcDbEntity
  8
HALLE_0_1_EG
  6
Continuous
100
AcDbLine
 10
-1.975948592411256
 20
-26.79179192778429
 30
0.0
 11
-1.975948592411256
 21
-28.19534180537081
 31
0.0
  0
LINE
  5
248
330
75
100
AcDbEntity
  8
HALLE_0_1_EG
  6
Continuous
100
AcDbLine
 10
-1.975948592411256
 20
-28.19534180537081
 30
0.0
 11
-2.275948592411257
 21
-28.19534180537081
 31
0.0
  0
LINE
  5
249
330
75
100
AcDbEntity
  8
HALLE_0_1_EG
  6
Continuous
100
AcDbLine
 10
-2.275948592411257
 20
-28.19534180537081
 30
0.0
 11
-2.275948592411257
 21
-26.79179192778429
 31
0.0
  0
LINE
  5
24A
330
75
100
AcDbEntity
  8
HALLE_0_1_EG
  6
Continuous
100
AcDbLine
 10
-2.575948592411256
 20
-26.79179192778429
 30
0.0
 11
-2.275948592411257
 21
-26.79179192778429
 31
0.0
  0
LINE
  5
24B
330
75
100
AcDbEntity
  8
HALLE_0_1_EG
  6
Continuous
100
AcDbLine
 10
-2.275948592411257
 20
-26.79179192778429
 30
0.0
 11
-2.275948592411257
 21
-28.19534180537081
 31
0.0
  0
LINE
  5
24C
330
75
100
AcDbEntity
  8
HALLE_0_1_EG
  6
Continuous
100
AcDbLine
 10
-2.275948592411257
 20
-28.19534180537081
 30
0.0
 11
-2.575948592411256
 21
-28.19534180537081
 31
0.0
  0
LINE
  5
24D
330
75
100
AcDbEntity
  8
HALLE_0_1_EG
  6
Continuous
100
AcDbLine
 10
-2.575948592411256
 20
-28.19534180537081
 30
0.0
 11
-2.575948592411256
 21
-26.79179192778429
 31
0.0
  0
LINE
  5
24E
330
75
100
AcDbEntity
  8
HALLE_0_1_EG
  6
Continuous
100
AcDbLine
 10
-2.875948592411256
 20
-26.79179192778429
 30
0.0
 11
-2.575948592411256
 21
-26.79179192778429
 31
0.0
  0
LINE
  5
24F
330
75
100
AcDbEntity
  8
HALLE_0_1_EG
  6
Continuous
100
AcDbLine
 10
-2.575948592411256
 20
-26.79179192778429
 30
0.0
 11
-2.575948592411256
 21
-28.19534180537081
 31
0.0
  0
LINE
  5
250
330
75
100
AcDbEntity
  8
HALLE_0_1_EG
  6
Continuous
100
AcDbLine
 10
-2.575948592411256
 20
-28.19534180537081
 30
0.0
 11
-2.875948592411256
 21
-28.19534180537081
 31
0.0
  0
LINE
  5
251
330
75
100
AcDbEntity
  8
HALLE_0_1_EG
  6
Continuous
100
AcDbLine
 10
-2.875948592411256
 20
-28.19534180537081
 30
0.0
 11
-2.875948592411256
 21
-26.79179192778429
 31
0.0
  0
LINE
  5
252
330
75
100
AcDbEntity
  8
HALLE_0_1_EG
  6
Continuous
100
AcDbLine
 10
-3.175948592411257
 20
-26.79179192778429
 30
0.0
 11
-2.875948592411256
 21
-26.79179192778429
 31
0.0
  0
LINE
  5
253
330
75
100
AcDbEntity
  8
HALLE_0_1_EG
  6
Continuous
100
AcDbLine
 10
-2.875948592411256
 20
-26.79179192778429
 30
0.0
 11
-2.875948592411256
 21
-28.19534180537081
 31
0.0
  0
LINE
  5
254
330
75
100
AcDbEntity
  8
HALLE_0_1_EG
  6
Continuous
100
AcDbLine
 10
-2.875948592411256
 20
-28.19534180537081
 30
0.0
 11
-3.175948592411257
 21
-28.19534180537081
 31
0.0
  0
LINE
  5
255
330
75
100
AcDbEntity
  8
HALLE_0_1_EG
  6
Continuous
100
AcDbLine
 10
-3.175948592411257
 20
-28.19534180537081
 30
0.0
 11
-3.175948592411257
 21
-26.79179192778429
 31
0.0
  0
LINE
  5
256
330
75
100
AcDbEntity
  8
HALLE_0_1_EG
  6
Continuous
100
AcDbLine
 10
-3.475948592411257
 20
-26.79179192778429
 30
0.0
 11
-3.175948592411257
 21
-26.79179192778429
 31
0.0
  0
LINE
  5
257
330
75
100
AcDbEntity
  8
HALLE_0_1_EG
  6
Continuous
100
AcDbLine
 10
-3.175948592411257
 20
-26.79179192778429
 30
0.0
 11
-3.175948592411257
 21
-28.19534180537081
 31
0.0
  0
LINE
  5
258
330
75
100
AcDbEntity
  8
HALLE_0_1_EG
  6
Continuous
100
AcDbLine
 10
-3.175948592411257
 20
-28.19534180537081
 30
0.0
 11
-3.475948592411257
 21
-28.19534180537081
 31
0.0
  0
LINE
  5
259
330
75
100
AcDbEntity
  8
HALLE_0_1_EG
  6
Continuous
100
AcDbLine
 10
-3.475948592411257
 20
-28.19534180537081
 30
0.0
 11
-3.475948592411257
 21
-26.79179192778429
 31
0.0
  0
LINE
  5
25A
330
75
100
AcDbEntity
  8
HALLE_0_1_EG
  6
Continuous
100
AcDbLine
 10
-3.775948592411257
 20
-26.79179192778429
 30
0.0
 11
-3.475948592411257
 21
-26.79179192778429
 31
0.0
  0
LINE
  5
25B
330
75
100
AcDbEntity
  8
HALLE_0_1_EG
  6
Continuous
100
AcDbLine
 10
-3.475948592411257
 20
-26.79179192778429
 30
0.0
 11
-3.475948592411257
 21
-28.19534180537081
 31
0.0
  0
LINE
  5
25C
330
75
100
AcDbEntity
  8
HALLE_0_1_EG
  6
Continuous
100
AcDbLine
 10
-3.475948592411257
 20
-28.19534180537081
 30
0.0
 11
-3.775948592411257
 21
-28.19534180537081
 31
0.0
  0
LINE
  5
25D
330
75
100
AcDbEntity
  8
HALLE_0_1_EG
  6
Continuous
100
AcDbLine
 10
-3.775948592411257
 20
-28.19534180537081
 30
0.0
 11
-3.775948592411257
 21
-26.79179192778429
 31
0.0
  0
LINE
  5
25E
330
75
100
AcDbEntity
  8
HALLE_0_1_EG
  6
Continuous
100
AcDbLine
 10
-5.325948592411258
 20
-26.44372093023462
 30
0.0
 11
-3.825948592411257
 21
-26.44372093023462
 31
0.0
  0
LINE
  5
25F
330
75
100
AcDbEntity
  8
HALLE_0_1_EG
  6
Continuous
100
AcDbLine
 10
-3.825948592411257
 20
-26.44372093023462
 30
0.0
 11
-3.825948592411257
 21
-26.74372093023462
 31
0.0
  0
LINE
  5
260
330
75
100
AcDbEntity
  8
HALLE_0_1_EG
  6
Continuous
100
AcDbLine
 10
-3.825948592411257
 20
-26.74372093023462
 30
0.0
 11
-5.325948592411258
 21
-26.74372093023462
 31
0.0
  0
LINE
  5
261
330
75
100
AcDbEntity
  8
HALLE_0_1_EG
  6
Continuous
100
AcDbLine
 10
-5.325948592411258
 20
-26.74372093023462
 30
0.0
 11
-5.325948592411258
 21
-26.44372093023462
 31
0.0
  0
LINE
  5
262
330
75
100
AcDbEntity
  8
HALLE_0_1_EG
  6
Continuous
100
AcDbLine
 10
-5.325948592411258
 20
-26.14372093023462
 30
0.0
 11
-3.825948592411257
 21
-26.14372093023462
 31
0.0
  0
LINE
  5
263
330
75
100
AcDbEntity
  8
HALLE_0_1_EG
  6
Continuous
100
AcDbLine
 10
-3.825948592411257
 20
-26.14372093023462
 30
0.0
 11
-3.825948592411257
 21
-26.44372093023462
 31
0.0
  0
LINE
  5
264
330
75
100
AcDbEntity
  8
HALLE_0_1_EG
  6
Continuous
100
AcDbLine
 10
-3.825948592411257
 20
-26.44372093023462
 30
0.0
 11
-5.325948592411258
 21
-26.44372093023462
 31
0.0
  0
LINE
  5
265
330
75
100
AcDbEntity
  8
HALLE_0_1_EG
  6
Continuous
100
AcDbLine
 10
-5.325948592411258
 20
-26.44372093023462
 30
0.0
 11
-5.325948592411258
 21
-26.14372093023462
 31
0.0
  0
LINE
  5
266
330
75
100
AcDbEntity
  8
HALLE_0_1_EG
  6
Continuous
100
AcDbLine
 10
-5.325948592411258
 20
-25.84372093023462
 30
0.0
 11
-3.825948592411257
 21
-25.84372093023462
 31
0.0
  0
LINE
  5
267
330
75
100
AcDbEntity
  8
HALLE_0_1_EG
  6
Continuous
100
AcDbLine
 10
-3.825948592411257
 20
-25.84372093023462
 30
0.0
 11
-3.825948592411257
 21
-26.14372093023462
 31
0.0
  0
LINE
  5
268
330
75
100
AcDbEntity
  8
HALLE_0_1_EG
  6
Continuous
100
AcDbLine
 10
-3.825948592411257
 20
-26.14372093023462
 30
0.0
 11
-5.325948592411258
 21
-26.14372093023462
 31
0.0
  0
LINE
  5
269
330
75
100
AcDbEntity
  8
HALLE_0_1_EG
  6
Continuous
100
AcDbLine
 10
-5.325948592411258
 20
-26.14372093023462
 30
0.0
 11
-5.325948592411258
 21
-25.84372093023462
 31
0.0
  0
LINE
  5
26A
330
75
100
AcDbEntity
  8
HALLE_0_1_EG
  6
Continuous
100
AcDbLine
 10
-5.325948592411258
 20
-25.54372093023462
 30
0.0
 11
-3.825948592411257
 21
-25.54372093023462
 31
0.0
  0
LINE
  5
26B
330
75
100
AcDbEntity
  8
HALLE_0_1_EG
  6
Continuous
100
AcDbLine
 10
-3.825948592411257
 20
-25.54372093023462
 30
0.0
 11
-3.825948592411257
 21
-25.84372093023462
 31
0.0
  0
LINE
  5
26C
330
75
100
AcDbEntity
  8
HALLE_0_1_EG
  6
Continuous
100
AcDbLine
 10
-3.825948592411257
 20
-25.84372093023462
 30
0.0
 11
-5.325948592411258
 21
-25.84372093023462
 31
0.0
  0
LINE
  5
26D
330
75
100
AcDbEntity
  8
HALLE_0_1_EG
  6
Continuous
100
AcDbLine
 10
-5.325948592411258
 20
-25.84372093023462
 30
0.0
 11
-5.325948592411258
 21
-25.54372093023462
 31
0.0
  0
LINE
  5
26E
330
75
100
AcDbEntity
  8
HALLE_0_1_EG
  6
Continuous
100
AcDbLine
 10
-5.325948592411258
 20
-25.24372093023461
 30
0.0
 11
-3.825948592411257
 21
-25.24372093023461
 31
0.0
  0
LINE
  5
26F
330
75
100
AcDbEntity
  8
HALLE_0_1_EG
  6
Continuous
100
AcDbLine
 10
-3.825948592411257
 20
-25.24372093023461
 30
0.0
 11
-3.825948592411257
 21
-25.54372093023462
 31
0.0
  0
LINE
  5
270
330
75
100
AcDbEntity
  8
HALLE_0_1_EG
  6
Continuous
100
AcDbLine
 10
-3.825948592411257
 20
-25.54372093023462
 30
0.0
 11
-5.325948592411258
 21
-25.54372093023462
 31
0.0
  0
LINE
  5
271
330
75
100
AcDbEntity
  8
HALLE_0_1_EG
  6
Continuous
100
AcDbLine
 10
-5.325948592411258
 20
-25.54372093023462
 30
0.0
 11
-5.325948592411258
 21
-25.24372093023461
 31
0.0
  0
LINE
  5
272
330
75
100
AcDbEntity
  8
HALLE_0_1_EG
  6
Continuous
100
AcDbLine
 10
-5.325948592411258
 20
-24.94372093023463
 30
0.0
 11
-3.825948592411257
 21
-24.94372093023463
 31
0.0
  0
LINE
  5
273
330
75
100
AcDbEntity
  8
HALLE_0_1_EG
  6
Continuous
100
AcDbLine
 10
-3.825948592411257
 20
-24.94372093023463
 30
0.0
 11
-3.825948592411257
 21
-25.24372093023461
 31
0.0
  0
LINE
  5
274
330
75
100
AcDbEntity
  8
HALLE_0_1_EG
  6
Continuous
100
AcDbLine
 10
-3.825948592411257
 20
-25.24372093023461
 30
0.0
 11
-5.325948592411258
 21
-25.24372093023461
 31
0.0
  0
LINE
  5
275
330
75
100
AcDbEntity
  8
HALLE_0_1_EG
  6
Continuous
100
AcDbLine
 10
-5.325948592411258
 20
-25.24372093023461
 30
0.0
 11
-5.325948592411258
 21
-24.94372093023463
 31
0.0
  0
LINE
  5
276
330
75
100
AcDbEntity
  8
HALLE_0_1_EG
  6
Continuous
100
AcDbLine
 10
44.22405140759403
 20
-12.68383434710383
 30
0.0
 11
44.48405140759404
 21
-12.68383434710383
 31
0.0
  0
LINE
  5
277
330
75
100
AcDbEntity
  8
HALLE_0_1_EG
  6
Continuous
100
AcDbLine
 10
44.48405140759404
 20
-12.68383434710383
 30
0.0
 11
44.48405140759404
 21
-14.18383434710383
 31
0.0
  0
LINE
  5
278
330
75
100
AcDbEntity
  8
HALLE_0_1_EG
  6
Continuous
100
AcDbLine
 10
44.48405140759404
 20
-14.18383434710383
 30
0.0
 11
44.22405140759403
 21
-14.18383434710383
 31
0.0
  0
LINE
  5
279
330
75
100
AcDbEntity
  8
HALLE_0_1_EG
  6
Continuous
100
AcDbLine
 10
44.22405140759403
 20
-14.18383434710383
 30
0.0
 11
44.22405140759403
 21
-12.68383434710383
 31
0.0
  0
LINE
  5
27A
330
75
100
AcDbEntity
  8
HALLE_0_1_EG
  6
Continuous
100
AcDbLine
 10
44.48405140759404
 20
-12.68383434710383
 30
0.0
 11
44.74405140759404
 21
-12.68383434710383
 31
0.0
  0
LINE
  5
27B
330
75
100
AcDbEntity
  8
HALLE_0_1_EG
  6
Continuous
100
AcDbLine
 10
44.74405140759404
 20
-12.68383434710383
 30
0.0
 11
44.74405140759404
 21
-14.18383434710383
 31
0.0
  0
LINE
  5
27C
330
75
100
AcDbEntity
  8
HALLE_0_1_EG
  6
Continuous
100
AcDbLine
 10
44.74405140759404
 20
-14.18383434710383
 30
0.0
 11
44.48405140759404
 21
-14.18383434710383
 31
0.0
  0
LINE
  5
27D
330
75
100
AcDbEntity
  8
HALLE_0_1_EG
  6
Continuous
100
AcDbLine
 10
44.48405140759404
 20
-14.18383434710383
 30
0.0
 11
44.48405140759404
 21
-12.68383434710383
 31
0.0
  0
LINE
  5
27E
330
75
100
AcDbEntity
  8
HALLE_0_1_EG
  6
Continuous
100
AcDbLine
 10
44.74405140759404
 20
-12.68383434710383
 30
0.0
 11
45.00405140759403
 21
-12.68383434710383
 31
0.0
  0
LINE
  5
27F
330
75
100
AcDbEntity
  8
HALLE_0_1_EG
  6
Continuous
100
AcDbLine
 10
45.00405140759403
 20
-12.68383434710383
 30
0.0
 11
45.00405140759403
 21
-14.18383434710383
 31
0.0
  0
LINE
  5
280
330
75
100
AcDbEntity
  8
HALLE_0_1_EG
  6
Continuous
100
AcDbLine
 10
45.00405140759403
 20
-14.18383434710383
 30
0.0
 11
44.74405140759404
 21
-14.18383434710383
 31
0.0
  0
LINE
  5
281
330
75
100
AcDbEntity
  8
HALLE_0_1_EG
  6
Continuous
100
AcDbLine
 10
44.74405140759404
 20
-14.18383434710383
 30
0.0
 11
44.74405140759404
 21
-12.68383434710383
 31
0.0
  0
LINE
  5
282
330
75
100
AcDbEntity
  8
HALLE_0_1_EG
  6
Continuous
100
AcDbLine
 10
45.00405140759403
 20
-12.68383434710383
 30
0.0
 11
45.26405140759403
 21
-12.68383434710383
 31
0.0
  0
LINE
  5
283
330
75
100
AcDbEntity
  8
HALLE_0_1_EG
  6
Continuous
100
AcDbLine
 10
45.26405140759403
 20
-12.68383434710383
 30
0.0
 11
45.26405140759403
 21
-14.18383434710383
 31
0.0
  0
LINE
  5
284
330
75
100
AcDbEntity
  8
HALLE_0_1_EG
  6
Continuous
100
AcDbLine
 10
45.26405140759403
 20
-14.18383434710383
 30
0.0
 11
45.00405140759403
 21
-14.18383434710383
 31
0.0
  0
LINE
  5
285
330
75
100
AcDbEntity
  8
HALLE_0_1_EG
  6
Continuous
100
AcDbLine
 10
45.00405140759403
 20
-14.18383434710383
 30
0.0
 11
45.00405140759403
 21
-12.68383434710383
 31
0.0
  0
LINE
  5
286
330
75
100
AcDbEntity
  8
HALLE_0_1_EG
  6
Continuous
100
AcDbLine
 10
45.26405140759403
 20
-12.68383434710383
 30
0.0
 11
45.52405140759403
 21
-12.68383434710383
 31
0.0
  0
LINE
  5
287
330
75
100
AcDbEntity
  8
HALLE_0_1_EG
  6
Continuous
100
AcDbLine
 10
45.52405140759403
 20
-12.68383434710383
 30
0.0
 11
45.52405140759403
 21
-14.18383434710383
 31
0.0
  0
LINE
  5
288
330
75
100
AcDbEntity
  8
HALLE_0_1_EG
  6
Continuous
100
AcDbLine
 10
45.52405140759403
 20
-14.18383434710383
 30
0.0
 11
45.26405140759403
 21
-14.18383434710383
 31
0.0
  0
LINE
  5
289
330
75
100
AcDbEntity
  8
HALLE_0_1_EG
  6
Continuous
100
AcDbLine
 10
45.26405140759403
 20
-14.18383434710383
 30
0.0
 11
45.26405140759403
 21
-12.68383434710383
 31
0.0
  0
LINE
  5
28A
330
75
100
AcDbEntity
  8
HALLE_0_1_EG
  6
Continuous
100
AcDbLine
 10
45.52405140759403
 20
-12.68383434710383
 30
0.0
 11
45.78405140759403
 21
-12.68383434710383
 31
0.0
  0
LINE
  5
28B
330
75
100
AcDbEntity
  8
HALLE_0_1_EG
  6
Continuous
100
AcDbLine
 10
45.78405140759403
 20
-12.68383434710383
 30
0.0
 11
45.78405140759403
 21
-14.18383434710383
 31
0.0
  0
LINE
  5
28C
330
75
100
AcDbEntity
  8
HALLE_0_1_EG
  6
Continuous
100
AcDbLine
 10
45.78405140759403
 20
-14.18383434710383
 30
0.0
 11
45.52405140759403
 21
-14.18383434710383
 31
0.0
  0
LINE
  5
28D
330
75
100
AcDbEntity
  8
HALLE_0_1_EG
  6
Continuous
100
AcDbLine
 10
45.52405140759403
 20
-14.18383434710383
 30
0.0
 11
45.52405140759403
 21
-12.68383434710383
 31
0.0
  0
LINE
  5
28E
330
75
100
AcDbEntity
  8
HALLE_0_1_EG
  6
Continuous
100
AcDbLine
 10
45.78405140759403
 20
-12.68383434710383
 30
0.0
 11
46.04405140759403
 21
-12.68383434710383
 31
0.0
  0
LINE
  5
28F
330
75
100
AcDbEntity
  8
HALLE_0_1_EG
  6
Continuous
100
AcDbLine
 10
46.04405140759403
 20
-12.68383434710383
 30
0.0
 11
46.04405140759403
 21
-14.18383434710383
 31
0.0
  0
LINE
  5
290
330
75
100
AcDbEntity
  8
HALLE_0_1_EG
  6
Continuous
100
AcDbLine
 10
46.04405140759403
 20
-14.18383434710383
 30
0.0
 11
45.78405140759403
 21
-14.18383434710383
 31
0.0
  0
LINE
  5
291
330
75
100
AcDbEntity
  8
HALLE_0_1_EG
  6
Continuous
100
AcDbLine
 10
45.78405140759403
 20
-14.18383434710383
 30
0.0
 11
45.78405140759403
 21
-12.68383434710383
 31
0.0
  0
LINE
  5
292
330
75
100
AcDbEntity
  8
HALLE_0_1_EG
  6
Continuous
100
AcDbLine
 10
42.57405140759404
 20
-10.95372093024186
 30
0.0
 11
44.07405140759403
 21
-10.95372093024186
 31
0.0
  0
LINE
  5
293
330
75
100
AcDbEntity
  8
HALLE_0_1_EG
  6
Continuous
100
AcDbLine
 10
44.07405140759403
 20
-10.95372093024186
 30
0.0
 11
44.07405140759403
 21
-11.21372093024186
 31
0.0
  0
LINE
  5
294
330
75
100
AcDbEntity
  8
HALLE_0_1_EG
  6
Continuous
100
AcDbLine
 10
44.07405140759403
 20
-11.21372093024186
 30
0.0
 11
42.57405140759404
 21
-11.21372093024186
 31
0.0
  0
LINE
  5
295
330
75
100
AcDbEntity
  8
HALLE_0_1_EG
  6
Continuous
100
AcDbLine
 10
42.57405140759404
 20
-11.21372093024186
 30
0.0
 11
42.57405140759404
 21
-10.95372093024186
 31
0.0
  0
LINE
  5
296
330
75
100
AcDbEntity
  8
HALLE_0_1_EG
  6
Continuous
100
AcDbLine
 10
42.57405140759404
 20
-11.21372093024186
 30
0.0
 11
44.07405140759403
 21
-11.21372093024186
 31
0.0
  0
LINE
  5
297
330
75
100
AcDbEntity
  8
HALLE_0_1_EG
  6
Continuous
100
AcDbLine
 10
44.07405140759403
 20
-11.21372093024186
 30
0.0
 11
44.07405140759403
 21
-11.47372093024186
 31
0.0
  0
LINE
  5
298
330
75
100
AcDbEntity
  8
HALLE_0_1_EG
  6
Continuous
100
AcDbLine
 10
44.07405140759403
 20
-11.47372093024186
 30
0.0
 11
42.57405140759404
 21
-11.47372093024186
 31
0.0
  0
LINE
  5
299
330
75
100
AcDbEntity
  8
HALLE_0_1_EG
  6
Continuous
100
AcDbLine
 10
42.57405140759404
 20
-11.47372093024186
 30
0.0
 11
42.57405140759404
 21
-11.21372093024186
 31
0.0
  0
LINE
  5
29A
330
75
100
AcDbEntity
  8
HALLE_0_1_EG
  6
Continuous
100
AcDbLine
 10
42.57405140759404
 20
-11.47372093024186
 30
0.0
 11
44.07405140759403
 21
-11.47372093024186
 31
0.0
  0
LINE
  5
29B
330
75
100
AcDbEntity
  8
HALLE_0_1_EG
  6
Continuous
100
AcDbLine
 10
44.07405140759403
 20
-11.47372093024186
 30
0.0
 11
44.07405140759403
 21
-11.73372093024187
 31
0.0
  0
LINE
  5
29C
330
75
100
AcDbEntity
  8
HALLE_0_1_EG
  6
Continuous
100
AcDbLine
 10
44.07405140759403
 20
-11.73372093024187
 30
0.0
 11
42.57405140759404
 21
-11.73372093024187
 31
0.0
  0
LINE
  5
29D
330
75
100
AcDbEntity
  8
HALLE_0_1_EG
  6
Continuous
100
AcDbLine
 10
42.57405140759404
 20
-11.73372093024187
 30
0.0
 11
42.57405140759404
 21
-11.47372093024186
 31
0.0
  0
LINE
  5
29E
330
75
100
AcDbEntity
  8
HALLE_0_1_EG
  6
Continuous
100
AcDbLine
 10
42.57405140759404
 20
-11.73372093024187
 30
0.0
 11
44.07405140759403
 21
-11.73372093024187
 31
0.0
  0
LINE
  5
29F
330
75
100
AcDbEntity
  8
HALLE_0_1_EG
  6
Continuous
100
AcDbLine
 10
44.07405140759403
 20
-11.73372093024187
 30
0.0
 11
44.07405140759403
 21
-11.99372093024186
 31
0.0
  0
LINE
  5
2A0
330
75
100
AcDbEntity
  8
HALLE_0_1_EG
  6
Continuous
100
AcDbLine
 10
44.07405140759403
 20
-11.99372093024186
 30
0.0
 11
42.57405140759404
 21
-11.99372093024186
 31
0.0
  0
LINE
  5
2A1
330
75
100
AcDbEntity
  8
HALLE_0_1_EG
  6
Continuous
100
AcDbLine
 10
42.57405140759404
 20
-11.99372093024186
 30
0.0
 11
42.57405140759404
 21
-11.73372093024187
 31
0.0
  0
LINE
  5
2A2
330
75
100
AcDbEntity
  8
HALLE_0_1_EG
  6
Continuous
100
AcDbLine
 10
42.57405140759404
 20
-11.99372093024186
 30
0.0
 11
44.07405140759403
 21
-11.99372093024186
 31
0.0
  0
LINE
  5
2A3
330
75
100
AcDbEntity
  8
HALLE_0_1_EG
  6
Continuous
100
AcDbLine
 10
44.07405140759403
 20
-11.99372093024186
 30
0.0
 11
44.07405140759403
 21
-12.25372093024186
 31
0.0
  0
LINE
  5
2A4
330
75
100
AcDbEntity
  8
HALLE_0_1_EG
  6
Continuous
100
AcDbLine
 10
44.07405140759403
 20
-12.25372093024186
 30
0.0
 11
42.57405140759404
 21
-12.25372093024186
 31
0.0
  0
LINE
  5
2A5
330
75
100
AcDbEntity
  8
HALLE_0_1_EG
  6
Continuous
100
AcDbLine
 10
42.57405140759404
 20
-12.25372093024186
 30
0.0
 11
42.57405140759404
 21
-11.99372093024186
 31
0.0
  0
LINE
  5
2A6
330
75
100
AcDbEntity
  8
HALLE_0_1_EG
  6
Continuous
100
AcDbLine
 10
42.57405140759404
 20
-12.25372093024186
 30
0.0
 11
44.07405140759403
 21
-12.25372093024186
 31
0.0
  0
LINE
  5
2A7
330
75
100
AcDbEntity
  8
HALLE_0_1_EG
  6
Continuous
100
AcDbLine
 10
44.07405140759403
 20
-12.25372093024186
 30
0.0
 11
44.07405140759403
 21
-12.51372093024187
 31
0.0
  0
LINE
  5
2A8
330
75
100
AcDbEntity
  8
HALLE_0_1_EG
  6
Continuous
100
AcDbLine
 10
44.07405140759403
 20
-12.51372093024187
 30
0.0
 11
42.57405140759404
 21
-12.51372093024187
 31
0.0
  0
LINE
  5
2A9
330
75
100
AcDbEntity
  8
HALLE_0_1_EG
  6
Continuous
100
AcDbLine
 10
42.57405140759404
 20
-12.51372093024187
 30
0.0
 11
42.57405140759404
 21
-12.25372093024186
 31
0.0
  0
TEXT
  5
2AB
330
75
100
AcDbEntity
  8
HALLE_0_1_EG
  6
Continuous
100
AcDbText
 10
38.69637233425584
 20
-41.98930396167576
 30
0.0
 40
0.375
  1
Veranstalter
  7
ARIAL
100
AcDbText
  0
TEXT
  5
2AD
330
75
100
AcDbEntity
  8
HALLE_0_1_EG
  6
Continuous
100
AcDbText
 10
38.70211257569831
 20
-42.7630918528371
 30
0.0
 40
0.375
  1
Projekt
  7
ARIAL
100
AcDbText
  0
TEXT
  5
2AE
330
75
100
AcDbEntity
  8
HALLE_0_1_EG
  6
Continuous
100
AcDbText
 10
38.69637233425584
 20
-43.51556513006642
 30
0.0
 40
0.375
  1
Zeit/Datum
  7
ARIAL
100
AcDbText
  0
TEXT
  5
2AF
330
75
100
AcDbEntity
  8
HALLE_0_1_EG
  6
Continuous
100
AcDbText
 10
38.69637233425584
 20
-45.94562486317459
 30
0.0
 40
0.375
  1
Massstab 1:250
  7
ARIAL
100
AcDbText
  0
TEXT
  5
2B0
330
75
100
AcDbEntity
  8
HALLE_0_1_EG
  6
Continuous
100
AcDbText
 10
43.85652166702647
 20
-45.97461095129877
 30
0.0
 40
0.375
  1
Thun,
  7
ARIAL
100
AcDbText
  0
TEXT
  5
2B1
330
75
100
AcDbEntity
  8
HALLE_0_1_EG
  6
Continuous
100
AcDbText
 10
38.69637233425584
 20
-44.84424311411937
 30
0.0
 40
0.7500000000000001
  1
Grundriss EG Halle 0
  7
ARIAL
100
AcDbText
  0
LWPOLYLINE
  5
2B2
330
75
100
AcDbEntity
  8
HALLE_0_1_EG
  6
Continuous
100
AcDbPolyline
 90
        4
 70
     1
 43
0.0
 10
38.23504973456998
 20
-41.22393388439787
 10
54.52756720033128
 20
-41.22393388439787
 10
54.52756720033128
 20
-46.26894402086164
 10
38.23504973456998
 20
-46.26894402086164
  0
LINE
  5
2B3
330
75
100
AcDbEntity
  8
HALLE_0_1_EG
  6
Continuous
100
AcDbLine
 10
48.539244966121
 20
-41.23013666677304
 30
0.0
 11
48.539244966121
 21
-46.27514680323682
 31
0.0
  0
LINE
  5
2B4
330
75
100
AcDbEntity
  8
HALLE_0_1_EG
  6
Continuous
100
AcDbLine
 10
38.23504973456998
 20
-43.82542504075392
 30
0.0
 11
48.539244966121
 21
-43.82542504075392
 31
0.0
  0
LINE
  5
2B5
330
75
100
AcDbEntity
  8
HALLE_0_1_EG
  6
Continuous
100
AcDbLine
 10
38.23504973456998
 20
-45.22186644536917
 30
0.0
 11
48.539244966121
 21
-45.22186644536917
 31
0.0
  0
LINE
  5
2B6
330
75
100
AcDbEntity
  8
HALLE_0_1_EG
  6
Continuous
100
AcDbLine
 10
43.44344207909078
 20
-45.23409557109304
 30
0.0
 11
43.44344207909078
 21
-46.25883126088822
 31
0.0
  0
TEXT
  5
2B7
330
75
100
AcDbEntity
  8
HALLE_0_1_EG
  6
Continuous
100
AcDbText
 10
49.00820520935011
 20
-41.98066481150283
 30
0.0
 40
0.375
  1
Thun-Expo
  7
ARIAL
100
AcDbText
  0
TEXT
  5
2B8
330
75
100
AcDbEntity
  8
HALLE_0_1_EG
  6
Continuous
100
AcDbText
 10
49.00820520935011
 20
-42.54316481150284
 30
0.0
 40
0.375
  1
Mittlere Strasse 27
  7
ARIAL
100
AcDbText
  0
TEXT
  5
2B9
330
75
100
AcDbEntity
  8
HALLE_0_1_EG
  6
Continuous
100
AcDbText
 10
49.00820520935011
 20
-43.10566481150284
 30
0.0
 40
0.375
  1
Postfach 879
  7
ARIAL
100
AcDbText
  0
TEXT
  5
2BA
330
75
100
AcDbEntity
  8
HALLE_0_1_EG
  6
Continuous
100
AcDbText
 10
49.00820520935011
 20
-43.66816481150284
 30
0.0
 40
0.375
  1
3607 Thun
  7
ARIAL
100
AcDbText
  0
TEXT
  5
2BB
330
75
100
AcDbEntity
  8
HALLE_0_1_EG
  6
Continuous
100
AcDbText
 10
49.00439139080956
 20
-44.84605740544924
 30
0.0
 40
0.3750000000000001
  1
Fon  +41 33 225 11 20
  7
ARIAL
100
AcDbText
  0
TEXT
  5
2BC
330
75
100
AcDbEntity
  8
HALLE_0_1_EG
  6
Continuous
100
AcDbText
 10
49.00439139080956
 20
-45.40855740544925
 30
0.0
 40
0.3750000000000001
  1
Fax  +41 33 225 11 28
  7
ARIAL
100
AcDbText
  0
TEXT
  5
2BD
330
75
100
AcDbEntity
  8
HALLE_0_1_EG
  6
Continuous
100
AcDbText
 10
49.00439139080956
 20
-45.97105740544924
 30
0.0
 40
0.3750000000000001
  1
Mail  info@thun-expo.ch
  7
ARIAL
100
AcDbText
  0
LINE
  5
2BE
330
75
100
AcDbEntity
  8
HALLE_0_1_EG
  6
Continuous
100
AcDbLine
 10
49.26999999999999
 20
-8.234564735264319
 30
0.0
 11
49.26999999999999
 21
-8.533720930232558
 31
0.0
  0
LINE
  5
2BF
330
75
100
AcDbEntity
  8
HALLE_0_1_EG
  6
Continuous
100
AcDbLine
 10
49.27405140838869
 20
-10.53372092811855
 30
0.0
 11
49.27405140838869
 21
-10.79372092811855
 31
0.0
  0
LINE
  5
2C0
330
75
100
AcDbEntity
  8
HALLE_0_1_EG
  6
Continuous
100
AcDbLine
 10
49.05405140838869
 20
-10.53372092811855
 30
0.0
 11
49.05405140838869
 21
-10.79372092811855
 31
0.0
  0
LINE
  5
2C1
330
75
100
AcDbEntity
  8
HALLE_0_1_EG
  6
Continuous
100
AcDbLine
 10
49.05405140838869
 20
-10.53372092811855
 30
0.0
 11
49.27405140838869
 21
-10.53372092811855
 31
0.0
  0
LINE
  5
2C2
330
75
100
AcDbEntity
  8
HALLE_0_1_EG
  6
Continuous
100
AcDbLine
 10
49.27405140838869
 20
-8.533720928118539
 30
0.0
 11
42.32405140838871
 21
-8.533720928118537
 31
0.0
  0
LINE
  5
2C3
330
75
100
AcDbEntity
  8
HALLE_0_1_EG
  6
Continuous
100
AcDbLine
 10
47.89505140838868
 20
-28.21372092811857
 30
0.0
 11
48.95405140838868
 21
-28.21372092811857
 31
0.0
  0
LINE
  5
2C4
330
75
100
AcDbEntity
  8
HALLE_0_1_EG
  6
Continuous
100
AcDbLine
 10
47.89505140838868
 20
-28.53372092811856
 30
0.0
 11
49.27405140838867
 21
-28.53372092811856
 31
0.0
  0
LINE
  5
2C5
330
75
100
AcDbEntity
  8
HALLE_0_1_EG
  6
Continuous
100
AcDbLine
 10
47.89505140838868
 20
-28.53372092811856
 30
0.0
 11
47.89505140838868
 21
-28.21372092811857
 31
0.0
  0
LINE
  5
2C6
330
75
100
AcDbEntity
  8
HALLE_0_1_EG
  6
Continuous
100
AcDbLine
 10
49.27405140838869
 20
-21.53372092811859
 30
0.0
 11
48.95405140838869
 21
-21.53372092811859
 31
0.0
  0
LINE
  5
2C7
330
75
100
AcDbEntity
  8
HALLE_0_1_EG
  6
Continuous
100
AcDbLine
 10
48.95405140838868
 20
-28.21372092811857
 30
0.0
 11
48.95405140838869
 21
-21.53372092811859
 31
0.0
  0
LINE
  5
2C8
330
75
100
AcDbEntity
  8
HALLE_0_1_EG
  6
Continuous
100
AcDbLine
 10
49.27405140838867
 20
-28.53372092811856
 30
0.0
 11
49.27405140838869
 21
-21.53372092811859
 31
0.0
  0
LINE
  5
2C9
330
75
100
AcDbEntity
  8
HALLE_0_1_EG
  6
Continuous
100
AcDbLine
 10
48.95405140838869
 20
-14.18383434498984
 30
0.0
 11
48.95405140838869
 21
-10.79372092811855
 31
0.0
  0
LINE
  5
2CA
330
75
100
AcDbEntity
  8
HALLE_0_1_EG
  6
Continuous
100
AcDbLine
 10
49.27405140838869
 20
-17.53372092811855
 30
0.0
 11
49.27405140838869
 21
-10.79372092811855
 31
0.0
  0
LINE
  5
2CB
330
75
100
AcDbEntity
  8
HALLE_0_1_EG
  6
Continuous
100
AcDbLine
 10
48.95405140838869
 20
-17.53372092811855
 30
0.0
 11
48.95405140838869
 21
-14.33383434498982
 31
0.0
  0
LINE
  5
2CC
330
75
100
AcDbEntity
  8
HALLE_0_1_EG
  6
Continuous
100
AcDbLine
 10
49.27405140838869
 20
-17.53372092811855
 30
0.0
 11
48.95405140838869
 21
-17.53372092811855
 31
0.0
  0
LINE
  5
2CD
330
75
100
AcDbEntity
  8
HALLE_0_1_EG
  6
Continuous
100
AcDbLine
 10
45.78991042580061
 20
-28.21246407970797
 30
0.0
 11
47.89505140838868
 21
-28.21246407970797
 31
0.0
  0
LINE
  5
2CE
330
75
100
AcDbEntity
  8
HALLE_0_1_EG
  6
Continuous
100
AcDbLine
 10
48.95405140838867
 20
-17.53372092811855
 30
0.0
 11
48.95405140838867
 21
-21.53372092811859
 31
0.0
  0
LINE
  5
2CF
330
75
100
AcDbEntity
  8
HALLE_0_1_EG
  6
Continuous
100
AcDbLine
 10
49.05405140838869
 20
-8.533720928118539
 30
0.0
 11
49.05405140838869
 21
-10.53372092811855
 31
0.0
  0
LINE
  5
2D0
330
75
100
AcDbEntity
  8
HALLE_0_1_EG
  6
Continuous
100
AcDbLine
 10
42.42405140839399
 20
-14.33383434498981
 30
0.0
 11
42.42405140839401
 21
-10.79372092811854
 31
0.0
  0
LINE
  5
2D1
330
75
100
AcDbEntity
  8
HALLE_0_1_EG
  6
Continuous
100
AcDbLine
 10
42.57405140839399
 20
-14.18383434498983
 30
0.0
 11
42.574051408394
 21
-10.94372092811855
 31
0.0
  0
LINE
  5
2D2
330
75
100
AcDbEntity
  8
HALLE_0_1_EG
  6
Continuous
100
AcDbLine
 10
46.55705140838869
 20
-14.33383434498981
 30
0.0
 11
46.55705140838869
 21
-14.18383434498983
 31
0.0
  0
LINE
  5
2D3
330
75
100
AcDbEntity
  8
HALLE_0_1_EG
  6
Continuous
100
AcDbLine
 10
42.57405140839399
 20
-14.18383434498983
 30
0.0
 11
46.55705140838869
 21
-14.18383434498983
 31
0.0
  0
LINE
  5
2D4
330
75
100
AcDbEntity
  8
HALLE_0_1_EG
  6
Continuous
100
AcDbLine
 10
42.42405140839399
 20
-14.33383434498981
 30
0.0
 11
46.55705140838869
 21
-14.33383434498981
 31
0.0
  0
LINE
  5
2D5
330
75
100
AcDbEntity
  8
HALLE_0_1_EG
  6
Continuous
100
AcDbLine
 10
48.7570514083887
 20
-14.18383434498984
 30
0.0
 11
48.95405140838869
 21
-14.18383434498984
 31
0.0
  0
LINE
  5
2D6
330
75
100
AcDbEntity
  8
HALLE_0_1_EG
  6
Continuous
100
AcDbLine
 10
48.7570514083887
 20
-14.33383434498982
 30
0.0
 11
48.95405140838869
 21
-14.33383434498982
 31
0.0
  0
LINE
  5
2D7
330
75
100
AcDbEntity
  8
HALLE_0_1_EG
  6
Continuous
100
AcDbLine
 10
48.7570514083887
 20
-14.33383434498982
 30
0.0
 11
48.7570514083887
 21
-14.18383434498984
 31
0.0
  0
ARC
  5
2D8
330
75
100
AcDbEntity
  8
HALLE_0_1_EG
  6
Continuous
100
AcDbCircle
 10
42.32405140838871
 20
-8.533720928118537
 30
0.0
 40
1.499999999999999
100
AcDbArc
 50
270.0
 51
0.0
  0
LINE
  5
2D9
330
75
100
AcDbEntity
  8
HALLE_0_1_EG
  6
Continuous
100
AcDbLine
 10
42.32405140838871
 20
-8.533720928118537
 30
0.0
 11
42.32405140838871
 21
-10.03372092811854
 31
0.0
  0
LINE
  5
2DA
330
75
100
AcDbEntity
  8
HALLE_0_1_EG
  6
Continuous
100
AcDbLine
 10
48.95405140838869
 20
-10.79372092811855
 30
0.0
 11
49.05405140838869
 21
-10.79372092811855
 31
0.0
  0
LINE
  5
2DB
330
75
100
AcDbEntity
  8
HALLE_0_1_EG
  6
Continuous
100
AcDbLine
 10
46.19405140839399
 20
-10.94372092811855
 30
0.0
 11
42.574051408394
 21
-10.94372092811855
 31
0.0
  0
LINE
  5
2DC
330
75
100
AcDbEntity
  8
HALLE_0_1_EG
  6
Continuous
100
AcDbLine
 10
46.19405140839399
 20
-10.79372092811854
 30
0.0
 11
42.42405140839401
 21
-10.79372092811854
 31
0.0
  0
LINE
  5
2DD
330
75
100
AcDbEntity
  8
HALLE_0_1_EG
  6
Continuous
100
AcDbLine
 10
46.19405140839399
 20
-10.79372092811854
 30
0.0
 11
46.19405140839399
 21
-10.94372092811855
 31
0.0
  0
ARC
  5
2DE
330
75
100
AcDbEntity
  8
HALLE_0_1_EG
  6
Continuous
100
AcDbCircle
 10
43.9920514083887
 20
-10.69372092811855
 30
0.0
 40
1.039999999999999
100
AcDbArc
 50
0.0
 51
90.0
  0
LINE
  5
2DF
330
75
100
AcDbEntity
  8
HALLE_0_1_EG
  6
Continuous
100
AcDbLine
 10
45.03205140838871
 20
-10.69372092811855
 30
0.0
 11
43.9920514083887
 21
-10.69372092811855
 31
0.0
  0
ARC
  5
2E0
330
75
100
AcDbEntity
  8
HALLE_0_1_EG
  6
Continuous
100
AcDbCircle
 10
43.9920514083887
 20
-8.613720928118542
 30
0.0
 40
1.039999999999999
100
AcDbArc
 50
270.0
 51
0.0
  0
LINE
  5
2E1
330
75
100
AcDbEntity
  8
HALLE_0_1_EG
  6
Continuous
100
AcDbLine
 10
45.03205140838871
 20
-8.613720928118542
 30
0.0
 11
43.9920514083887
 21
-8.613720928118542
 31
0.0
  0
LINE
  5
2E2
330
75
100
AcDbEntity
  8
HALLE_0_1_EG
  6
Continuous
100
AcDbLine
 10
42.40205140838869
 20
-10.53372092811854
 30
0.0
 11
42.4220514083887
 21
-10.53372092811854
 31
0.0
  0
LINE
  5
2E3
330
75
100
AcDbEntity
  8
HALLE_0_1_EG
  6
Continuous
100
AcDbLine
 10
42.4220514083887
 20
-10.53372092811854
 30
0.0
 11
42.5420514083887
 21
-10.53372092811918
 31
0.0
  0
LINE
  5
2E4
330
75
100
AcDbEntity
  8
HALLE_0_1_EG
  6
Continuous
100
AcDbLine
 10
42.5420514083887
 20
-10.53372092811918
 30
0.0
 11
42.5420514083887
 21
-10.55372092811919
 31
0.0
  0
LINE
  5
2E5
330
75
100
AcDbEntity
  8
HALLE_0_1_EG
  6
Continuous
100
AcDbLine
 10
42.5420514083887
 20
-10.55372092811919
 30
0.0
 11
42.4220514083887
 21
-10.55372092811919
 31
0.0
  0
LINE
  5
2E6
330
75
100
AcDbEntity
  8
HALLE_0_1_EG
  6
Continuous
100
AcDbLine
 10
42.4220514083887
 20
-10.55372092811919
 30
0.0
 11
42.4220514083887
 21
-10.77372092811853
 31
0.0
  0
LINE
  5
2E7
330
75
100
AcDbEntity
  8
HALLE_0_1_EG
  6
Continuous
100
AcDbLine
 10
42.4220514083887
 20
-10.77372092811853
 30
0.0
 11
42.5420514083887
 21
-10.77372092811853
 31
0.0
  0
LINE
  5
2E8
330
75
100
AcDbEntity
  8
HALLE_0_1_EG
  6
Continuous
100
AcDbLine
 10
42.5420514083887
 20
-10.77372092811853
 30
0.0
 11
42.5420514083887
 21
-10.79372092811854
 31
0.0
  0
LINE
  5
2E9
330
75
100
AcDbEntity
  8
HALLE_0_1_EG
  6
Continuous
100
AcDbLine
 10
42.5420514083887
 20
-10.79372092811854
 30
0.0
 11
42.28205140838869
 21
-10.79372092811854
 31
0.0
  0
LINE
  5
2EA
330
75
100
AcDbEntity
  8
HALLE_0_1_EG
  6
Continuous
100
AcDbLine
 10
42.28205140838869
 20
-10.79372092811854
 30
0.0
 11
42.28205140838869
 21
-10.77372092811853
 31
0.0
  0
LINE
  5
2EB
330
75
100
AcDbEntity
  8
HALLE_0_1_EG
  6
Continuous
100
AcDbLine
 10
42.28205140838869
 20
-10.77372092811853
 30
0.0
 11
42.40205140838869
 21
-10.77372092811853
 31
0.0
  0
LINE
  5
2EC
330
75
100
AcDbEntity
  8
HALLE_0_1_EG
  6
Continuous
100
AcDbLine
 10
42.40205140838869
 20
-10.77372092811853
 30
0.0
 11
42.40205140838869
 21
-10.55372092811919
 31
0.0
  0
LINE
  5
2ED
330
75
100
AcDbEntity
  8
HALLE_0_1_EG
  6
Continuous
100
AcDbLine
 10
42.40205140838869
 20
-10.55372092811919
 30
0.0
 11
42.28205140838869
 21
-10.55372092811919
 31
0.0
  0
LINE
  5
2EE
330
75
100
AcDbEntity
  8
HALLE_0_1_EG
  6
Continuous
100
AcDbLine
 10
42.28205140838869
 20
-10.55372092811919
 30
0.0
 11
42.28205140838869
 21
-10.53372092811918
 31
0.0
  0
LINE
  5
2EF
330
75
100
AcDbEntity
  8
HALLE_0_1_EG
  6
Continuous
100
AcDbLine
 10
42.28205140838869
 20
-10.53372092811918
 30
0.0
 11
42.40205140838869
 21
-10.53372092811854
 31
0.0
  0
LINE
  5
2F0
330
75
100
AcDbEntity
  8
HALLE_0_1_EG
  6
Continuous
100
AcDbLine
 10
44.074051408394
 20
-10.94372092811855
 30
0.0
 11
44.11405140839399
 21
-10.94372092811855
 31
0.0
  0
LINE
  5
2F1
330
75
100
AcDbEntity
  8
HALLE_0_1_EG
  6
Continuous
100
AcDbLine
 10
44.11405140839399
 20
-10.94372092811855
 30
0.0
 11
44.11405140839399
 21
-12.68383434498983
 31
0.0
  0
LINE
  5
2F2
330
75
100
AcDbEntity
  8
HALLE_0_1_EG
  6
Continuous
100
AcDbLine
 10
44.11405140839399
 20
-12.68383434498983
 30
0.0
 11
44.07405140839398
 21
-12.68383434498983
 31
0.0
  0
LINE
  5
2F3
330
75
100
AcDbEntity
  8
HALLE_0_1_EG
  6
Continuous
100
AcDbLine
 10
44.07405140839398
 20
-12.68383434498983
 30
0.0
 11
44.074051408394
 21
-10.94372092811855
 31
0.0
  0
LINE
  5
2F4
330
75
100
AcDbEntity
  8
HALLE_0_1_EG
  6
Continuous
100
AcDbLine
 10
44.07405140839398
 20
-12.64383434498981
 30
0.0
 11
46.08405140839399
 21
-12.64383434498981
 31
0.0
  0
LINE
  5
2F5
330
75
100
AcDbEntity
  8
HALLE_0_1_EG
  6
Continuous
100
AcDbLine
 10
46.08405140839399
 20
-12.64383434498981
 30
0.0
 11
46.08405140839399
 21
-12.68383434498983
 31
0.0
  0
LINE
  5
2F6
330
75
100
AcDbEntity
  8
HALLE_0_1_EG
  6
Continuous
100
AcDbLine
 10
46.08405140839399
 20
-12.68383434498983
 30
0.0
 11
44.07405140839398
 21
-12.68383434498983
 31
0.0
  0
LINE
  5
2F7
330
75
100
AcDbEntity
  8
HALLE_0_1_EG
  6
Continuous
100
AcDbLine
 10
44.07405140839398
 20
-12.68383434498983
 30
0.0
 11
44.07405140839398
 21
-12.64383434498981
 31
0.0
  0
LINE
  5
2F8
330
75
100
AcDbEntity
  8
HALLE_0_1_EG
  6
Continuous
100
AcDbLine
 10
43.94205140838869
 20
-8.533720928118537
 30
0.0
 11
43.9920514083887
 21
-8.533720928118537
 31
0.0
  0
LINE
  5
2F9
330
75
100
AcDbEntity
  8
HALLE_0_1_EG
  6
Continuous
100
AcDbLine
 10
43.9920514083887
 20
-8.533720928118537
 30
0.0
 11
43.9920514083887
 21
-10.79372092811854
 31
0.0
  0
LINE
  5
2FA
330
75
100
AcDbEntity
  8
HALLE_0_1_EG
  6
Continuous
100
AcDbLine
 10
43.9920514083887
 20
-10.79372092811854
 30
0.0
 11
43.94205140838869
 21
-10.79372092811854
 31
0.0
  0
LINE
  5
2FB
330
75
100
AcDbEntity
  8
HALLE_0_1_EG
  6
Continuous
100
AcDbLine
 10
43.94205140838869
 20
-10.79372092811854
 30
0.0
 11
43.94205140838869
 21
-8.533720928118537
 31
0.0
  0
LINE
  5
2FC
330
75
100
AcDbEntity
  8
HALLE_0_1_EG
  6
Continuous
100
AcDbLine
 10
46.55705140838869
 20
-14.18383434498983
 30
0.0
 11
48.7570514083887
 21
-14.18383434498984
 31
0.0
  0
LINE
  5
2FD
330
75
100
AcDbEntity
  8
HALLE_0_1_EG
  6
Continuous
100
AcDbLine
 10
48.7570514083887
 20
-14.18383434498984
 30
0.0
 11
48.7570514083887
 21
-14.23383434498983
 31
0.0
  0
LINE
  5
2FE
330
75
100
AcDbEntity
  8
HALLE_0_1_EG
  6
Continuous
100
AcDbLine
 10
48.7570514083887
 20
-14.23383434498983
 30
0.0
 11
46.55705140838869
 21
-14.23383434498981
 31
0.0
  0
LINE
  5
2FF
330
75
100
AcDbEntity
  8
HALLE_0_1_EG
  6
Continuous
100
AcDbLine
 10
46.55705140838869
 20
-14.23383434498981
 30
0.0
 11
46.55705140838869
 21
-14.18383434498983
 31
0.0
  0
LINE
  5
300
330
75
100
AcDbEntity
  8
HALLE_0_1_EG
  6
Continuous
100
AcDbLine
 10
44.22405140839399
 20
-13.43383434499084
 30
0.0
 11
46.04405140839399
 21
-13.43383434498983
 31
0.0
  0
LINE
  5
301
330
75
100
AcDbEntity
  8
HALLE_0_1_EG
  6
Continuous
100
AcDbLine
 10
46.04405140839399
 20
-13.43383434498983
 30
0.0
 11
45.78405140839399
 21
-12.68383434498983
 31
0.0
  0
LINE
  5
302
330
75
100
AcDbEntity
  8
HALLE_0_1_EG
  6
Continuous
100
AcDbLine
 10
46.04405140839399
 20
-13.43383434498983
 30
0.0
 11
45.78405140839399
 21
-14.18383434498983
 31
0.0
  0
LINE
  5
303
330
75
100
AcDbEntity
  8
HALLE_0_1_EG
  6
Continuous
100
AcDbLine
 10
43.324051408394
 20
-10.95372092812785
 30
0.0
 11
43.324051408394
 21
-12.51372092812784
 31
0.0
  0
LINE
  5
304
330
75
100
AcDbEntity
  8
HALLE_0_1_EG
  6
Continuous
100
AcDbLine
 10
43.324051408394
 20
-12.51372092812784
 30
0.0
 11
44.074051408394
 21
-12.25372092812785
 31
0.0
  0
LINE
  5
305
330
75
100
AcDbEntity
  8
HALLE_0_1_EG
  6
Continuous
100
AcDbLine
 10
43.324051408394
 20
-12.51372092812784
 30
0.0
 11
42.574051408394
 21
-12.25372092812785
 31
0.0
  0
LINE
  5
306
330
75
100
AcDbEntity
  8
HALLE_0_1_EG
  6
Continuous
100
AcDbLine
 10
46.04405140839399
 20
-10.79372092811854
 30
0.0
 11
46.084051408394
 21
-10.79372092811854
 31
0.0
  0
LINE
  5
307
330
75
100
AcDbEntity
  8
HALLE_0_1_EG
  6
Continuous
100
AcDbLine
 10
46.084051408394
 20
-10.79372092811854
 30
0.0
 11
46.08405140839399
 21
-12.68383434498983
 31
0.0
  0
LINE
  5
308
330
75
100
AcDbEntity
  8
HALLE_0_1_EG
  6
Continuous
100
AcDbLine
 10
46.08405140839399
 20
-12.68383434498983
 30
0.0
 11
46.04405140839399
 21
-12.68383434498983
 31
0.0
  0
LINE
  5
309
330
75
100
AcDbEntity
  8
HALLE_0_1_EG
  6
Continuous
100
AcDbLine
 10
46.04405140839399
 20
-12.68383434498983
 30
0.0
 11
46.04405140839399
 21
-10.79372092811854
 31
0.0
  0
LINE
  5
30A
330
75
100
AcDbEntity
  8
HALLE_0_1_EG
  6
Continuous
100
AcDbLine
 10
44.22405140839399
 20
-12.68383434498983
 30
0.0
 11
44.48405140839399
 21
-12.68383434498983
 31
0.0
  0
LINE
  5
30B
330
75
100
AcDbEntity
  8
HALLE_0_1_EG
  6
Continuous
100
AcDbLine
 10
44.48405140839399
 20
-12.68383434498983
 30
0.0
 11
44.48405140839399
 21
-14.18383434498983
 31
0.0
  0
LINE
  5
30C
330
75
100
AcDbEntity
  8
HALLE_0_1_EG
  6
Continuous
100
AcDbLine
 10
44.48405140839399
 20
-14.18383434498983
 30
0.0
 11
44.22405140839399
 21
-14.18383434498983
 31
0.0
  0
LINE
  5
30D
330
75
100
AcDbEntity
  8
HALLE_0_1_EG
  6
Continuous
100
AcDbLine
 10
44.22405140839399
 20
-14.18383434498983
 30
0.0
 11
44.22405140839399
 21
-12.68383434498983
 31
0.0
  0
LINE
  5
30E
330
75
100
AcDbEntity
  8
HALLE_0_1_EG
  6
Continuous
100
AcDbLine
 10
44.48405140839399
 20
-12.68383434498983
 30
0.0
 11
44.74405140839399
 21
-12.68383434498983
 31
0.0
  0
LINE
  5
30F
330
75
100
AcDbEntity
  8
HALLE_0_1_EG
  6
Continuous
100
AcDbLine
 10
44.74405140839399
 20
-12.68383434498983
 30
0.0
 11
44.74405140839399
 21
-14.18383434498983
 31
0.0
  0
LINE
  5
310
330
75
100
AcDbEntity
  8
HALLE_0_1_EG
  6
Continuous
100
AcDbLine
 10
44.74405140839399
 20
-14.18383434498983
 30
0.0
 11
44.48405140839399
 21
-14.18383434498983
 31
0.0
  0
LINE
  5
311
330
75
100
AcDbEntity
  8
HALLE_0_1_EG
  6
Continuous
100
AcDbLine
 10
44.48405140839399
 20
-14.18383434498983
 30
0.0
 11
44.48405140839399
 21
-12.68383434498983
 31
0.0
  0
LINE
  5
312
330
75
100
AcDbEntity
  8
HALLE_0_1_EG
  6
Continuous
100
AcDbLine
 10
44.74405140839399
 20
-12.68383434498983
 30
0.0
 11
45.00405140839399
 21
-12.68383434498983
 31
0.0
  0
LINE
  5
313
330
75
100
AcDbEntity
  8
HALLE_0_1_EG
  6
Continuous
100
AcDbLine
 10
45.00405140839399
 20
-12.68383434498983
 30
0.0
 11
45.00405140839399
 21
-14.18383434498983
 31
0.0
  0
LINE
  5
314
330
75
100
AcDbEntity
  8
HALLE_0_1_EG
  6
Continuous
100
AcDbLine
 10
45.00405140839399
 20
-14.18383434498983
 30
0.0
 11
44.74405140839399
 21
-14.18383434498983
 31
0.0
  0
LINE
  5
315
330
75
100
AcDbEntity
  8
HALLE_0_1_EG
  6
Continuous
100
AcDbLine
 10
44.74405140839399
 20
-14.18383434498983
 30
0.0
 11
44.74405140839399
 21
-12.68383434498983
 31
0.0
  0
LINE
  5
316
330
75
100
AcDbEntity
  8
HALLE_0_1_EG
  6
Continuous
100
AcDbLine
 10
45.00405140839399
 20
-12.68383434498983
 30
0.0
 11
45.26405140839398
 21
-12.68383434498983
 31
0.0
  0
LINE
  5
317
330
75
100
AcDbEntity
  8
HALLE_0_1_EG
  6
Continuous
100
AcDbLine
 10
45.26405140839398
 20
-12.68383434498983
 30
0.0
 11
45.26405140839398
 21
-14.18383434498983
 31
0.0
  0
LINE
  5
318
330
75
100
AcDbEntity
  8
HALLE_0_1_EG
  6
Continuous
100
AcDbLine
 10
45.26405140839398
 20
-14.18383434498983
 30
0.0
 11
45.00405140839399
 21
-14.18383434498983
 31
0.0
  0
LINE
  5
319
330
75
100
AcDbEntity
  8
HALLE_0_1_EG
  6
Continuous
100
AcDbLine
 10
45.00405140839399
 20
-14.18383434498983
 30
0.0
 11
45.00405140839399
 21
-12.68383434498983
 31
0.0
  0
LINE
  5
31A
330
75
100
AcDbEntity
  8
HALLE_0_1_EG
  6
Continuous
100
AcDbLine
 10
45.26405140839398
 20
-12.68383434498983
 30
0.0
 11
45.52405140839399
 21
-12.68383434498983
 31
0.0
  0
LINE
  5
31B
330
75
100
AcDbEntity
  8
HALLE_0_1_EG
  6
Continuous
100
AcDbLine
 10
45.52405140839399
 20
-12.68383434498983
 30
0.0
 11
45.52405140839399
 21
-14.18383434498983
 31
0.0
  0
LINE
  5
31C
330
75
100
AcDbEntity
  8
HALLE_0_1_EG
  6
Continuous
100
AcDbLine
 10
45.52405140839399
 20
-14.18383434498983
 30
0.0
 11
45.26405140839398
 21
-14.18383434498983
 31
0.0
  0
LINE
  5
31D
330
75
100
AcDbEntity
  8
HALLE_0_1_EG
  6
Continuous
100
AcDbLine
 10
45.26405140839398
 20
-14.18383434498983
 30
0.0
 11
45.26405140839398
 21
-12.68383434498983
 31
0.0
  0
LINE
  5
31E
330
75
100
AcDbEntity
  8
HALLE_0_1_EG
  6
Continuous
100
AcDbLine
 10
45.52405140839399
 20
-12.68383434498983
 30
0.0
 11
45.78405140839399
 21
-12.68383434498983
 31
0.0
  0
LINE
  5
31F
330
75
100
AcDbEntity
  8
HALLE_0_1_EG
  6
Continuous
100
AcDbLine
 10
45.78405140839399
 20
-12.68383434498983
 30
0.0
 11
45.78405140839399
 21
-14.18383434498983
 31
0.0
  0
LINE
  5
320
330
75
100
AcDbEntity
  8
HALLE_0_1_EG
  6
Continuous
100
AcDbLine
 10
45.78405140839399
 20
-14.18383434498983
 30
0.0
 11
45.52405140839399
 21
-14.18383434498983
 31
0.0
  0
LINE
  5
321
330
75
100
AcDbEntity
  8
HALLE_0_1_EG
  6
Continuous
100
AcDbLine
 10
45.52405140839399
 20
-14.18383434498983
 30
0.0
 11
45.52405140839399
 21
-12.68383434498983
 31
0.0
  0
LINE
  5
322
330
75
100
AcDbEntity
  8
HALLE_0_1_EG
  6
Continuous
100
AcDbLine
 10
45.78405140839399
 20
-12.68383434498983
 30
0.0
 11
46.04405140839399
 21
-12.68383434498983
 31
0.0
  0
LINE
  5
323
330
75
100
AcDbEntity
  8
HALLE_0_1_EG
  6
Continuous
100
AcDbLine
 10
46.04405140839399
 20
-12.68383434498983
 30
0.0
 11
46.04405140839399
 21
-14.18383434498983
 31
0.0
  0
LINE
  5
324
330
75
100
AcDbEntity
  8
HALLE_0_1_EG
  6
Continuous
100
AcDbLine
 10
46.04405140839399
 20
-14.18383434498983
 30
0.0
 11
45.78405140839399
 21
-14.18383434498983
 31
0.0
  0
LINE
  5
325
330
75
100
AcDbEntity
  8
HALLE_0_1_EG
  6
Continuous
100
AcDbLine
 10
45.78405140839399
 20
-14.18383434498983
 30
0.0
 11
45.78405140839399
 21
-12.68383434498983
 31
0.0
  0
LINE
  5
326
330
75
100
AcDbEntity
  8
HALLE_0_1_EG
  6
Continuous
100
AcDbLine
 10
42.574051408394
 20
-10.95372092812785
 30
0.0
 11
44.074051408394
 21
-10.95372092812785
 31
0.0
  0
LINE
  5
327
330
75
100
AcDbEntity
  8
HALLE_0_1_EG
  6
Continuous
100
AcDbLine
 10
44.074051408394
 20
-10.95372092812785
 30
0.0
 11
44.074051408394
 21
-11.21372092812784
 31
0.0
  0
LINE
  5
328
330
75
100
AcDbEntity
  8
HALLE_0_1_EG
  6
Continuous
100
AcDbLine
 10
44.074051408394
 20
-11.21372092812784
 30
0.0
 11
42.574051408394
 21
-11.21372092812784
 31
0.0
  0
LINE
  5
329
330
75
100
AcDbEntity
  8
HALLE_0_1_EG
  6
Continuous
100
AcDbLine
 10
42.574051408394
 20
-11.21372092812784
 30
0.0
 11
42.574051408394
 21
-10.95372092812785
 31
0.0
  0
LINE
  5
32A
330
75
100
AcDbEntity
  8
HALLE_0_1_EG
  6
Continuous
100
AcDbLine
 10
42.574051408394
 20
-11.21372092812784
 30
0.0
 11
44.074051408394
 21
-11.21372092812784
 31
0.0
  0
LINE
  5
32B
330
75
100
AcDbEntity
  8
HALLE_0_1_EG
  6
Continuous
100
AcDbLine
 10
44.074051408394
 20
-11.21372092812784
 30
0.0
 11
44.074051408394
 21
-11.47372092812785
 31
0.0
  0
LINE
  5
32C
330
75
100
AcDbEntity
  8
HALLE_0_1_EG
  6
Continuous
100
AcDbLine
 10
44.074051408394
 20
-11.47372092812785
 30
0.0
 11
42.574051408394
 21
-11.47372092812785
 31
0.0
  0
LINE
  5
32D
330
75
100
AcDbEntity
  8
HALLE_0_1_EG
  6
Continuous
100
AcDbLine
 10
42.574051408394
 20
-11.47372092812785
 30
0.0
 11
42.574051408394
 21
-11.21372092812784
 31
0.0
  0
LINE
  5
32E
330
75
100
AcDbEntity
  8
HALLE_0_1_EG
  6
Continuous
100
AcDbLine
 10
42.574051408394
 20
-11.47372092812785
 30
0.0
 11
44.074051408394
 21
-11.47372092812785
 31
0.0
  0
LINE
  5
32F
330
75
100
AcDbEntity
  8
HALLE_0_1_EG
  6
Continuous
100
AcDbLine
 10
44.074051408394
 20
-11.47372092812785
 30
0.0
 11
44.074051408394
 21
-11.73372092812785
 31
0.0
  0
LINE
  5
330
330
75
100
AcDbEntity
  8
HALLE_0_1_EG
  6
Continuous
100
AcDbLine
 10
44.074051408394
 20
-11.73372092812785
 30
0.0
 11
42.574051408394
 21
-11.73372092812785
 31
0.0
  0
LINE
  5
331
330
75
100
AcDbEntity
  8
HALLE_0_1_EG
  6
Continuous
100
AcDbLine
 10
42.574051408394
 20
-11.73372092812785
 30
0.0
 11
42.574051408394
 21
-11.47372092812785
 31
0.0
  0
LINE
  5
332
330
75
100
AcDbEntity
  8
HALLE_0_1_EG
  6
Continuous
100
AcDbLine
 10
42.574051408394
 20
-11.73372092812785
 30
0.0
 11
44.074051408394
 21
-11.73372092812785
 31
0.0
  0
LINE
  5
333
330
75
100
AcDbEntity
  8
HALLE_0_1_EG
  6
Continuous
100
AcDbLine
 10
44.074051408394
 20
-11.73372092812785
 30
0.0
 11
44.074051408394
 21
-11.99372092812784
 31
0.0
  0
LINE
  5
334
330
75
100
AcDbEntity
  8
HALLE_0_1_EG
  6
Continuous
100
AcDbLine
 10
44.074051408394
 20
-11.99372092812784
 30
0.0
 11
42.574051408394
 21
-11.99372092812784
 31
0.0
  0
LINE
  5
335
330
75
100
AcDbEntity
  8
HALLE_0_1_EG
  6
Continuous
100
AcDbLine
 10
42.574051408394
 20
-11.99372092812784
 30
0.0
 11
42.574051408394
 21
-11.73372092812785
 31
0.0
  0
LINE
  5
336
330
75
100
AcDbEntity
  8
HALLE_0_1_EG
  6
Continuous
100
AcDbLine
 10
42.574051408394
 20
-11.99372092812784
 30
0.0
 11
44.074051408394
 21
-11.99372092812784
 31
0.0
  0
LINE
  5
337
330
75
100
AcDbEntity
  8
HALLE_0_1_EG
  6
Continuous
100
AcDbLine
 10
44.074051408394
 20
-11.99372092812784
 30
0.0
 11
44.074051408394
 21
-12.25372092812785
 31
0.0
  0
LINE
  5
338
330
75
100
AcDbEntity
  8
HALLE_0_1_EG
  6
Continuous
100
AcDbLine
 10
44.074051408394
 20
-12.25372092812785
 30
0.0
 11
42.574051408394
 21
-12.25372092812785
 31
0.0
  0
LINE
  5
339
330
75
100
AcDbEntity
  8
HALLE_0_1_EG
  6
Continuous
100
AcDbLine
 10
42.574051408394
 20
-12.25372092812785
 30
0.0
 11
42.574051408394
 21
-11.99372092812784
 31
0.0
  0
LINE
  5
33A
330
75
100
AcDbEntity
  8
HALLE_0_1_EG
  6
Continuous
100
AcDbLine
 10
42.574051408394
 20
-12.25372092812785
 30
0.0
 11
44.074051408394
 21
-12.25372092812785
 31
0.0
  0
LINE
  5
33B
330
75
100
AcDbEntity
  8
HALLE_0_1_EG
  6
Continuous
100
AcDbLine
 10
44.074051408394
 20
-12.25372092812785
 30
0.0
 11
44.074051408394
 21
-12.51372092812784
 31
0.0
  0
LINE
  5
33C
330
75
100
AcDbEntity
  8
HALLE_0_1_EG
  6
Continuous
100
AcDbLine
 10
44.074051408394
 20
-12.51372092812784
 30
0.0
 11
42.574051408394
 21
-12.51372092812784
 31
0.0
  0
LINE
  5
33D
330
75
100
AcDbEntity
  8
HALLE_0_1_EG
  6
Continuous
100
AcDbLine
 10
42.574051408394
 20
-12.51372092812784
 30
0.0
 11
42.574051408394
 21
-12.25372092812785
 31
0.0
  0
LINE
  5
33E
330
75
100
AcDbEntity
  8
HALLE_0_1_EG
  6
Continuous
100
AcDbLine
 10
49.14671691396121
 20
-8.533720928118539
 30
0.0
 11
49.14671691396121
 21
-10.53372092811855
 31
0.0
  0
ARC
  5
33F
330
75
100
AcDbEntity
  8
GRUNDRISS
  6
Continuous
100
AcDbCircle
 10
42.32405140593574
 20
-8.533720930896128
 30
0.0
 40
1.5
100
AcDbArc
 50
270.0
 51
0.0
  0
LINE
  5
340
330
75
100
AcDbEntity
  8
GRUNDRISS
  6
Continuous
100
AcDbLine
 10
49.27405140593604
 20
-8.533720930896132
 30
0.0
 11
42.32405140593574
 21
-8.533720930896128
 31
0.0
  0
LINE
  5
341
330
75
100
AcDbEntity
  8
GRUNDRISS
  6
Continuous
100
AcDbLine
 10
42.32405140593574
 20
-8.533720930896128
 30
0.0
 11
42.32405140593574
 21
-10.03372093089683
 31
0.0
  0
LINE
  5
342
330
75
100
AcDbEntity
  8
GRUNDRISS
  6
Continuous
100
AcDbLine
 10
43.94205140593449
 20
-8.533720930896128
 30
0.0
 11
43.99205140593451
 21
-8.533720930896128
 31
0.0
  0
LINE
  5
344
102
{ACAD_REACTORS
330
343
102
}
330
75
100
AcDbEntity
  8
GRUNDRISS
  6
Continuous
100
AcDbLine
 10
49.25857393393821
 20
-8.883228392424561
 30
0.0
 11
49.25857393393821
 21
-10.20156994289163
 31
0.0
  0
LINE
  5
345
102
{ACAD_REACTORS
330
343
102
}
330
75
100
AcDbEntity
  8
GRUNDRISS
  6
Continuous
100
AcDbLine
 10
49.25857393393821
 20
-10.20156994289163
 30
0.0
 11
49.2013587419419
 21
-10.10536664055941
 31
0.0
  0
LINE
  5
346
102
{ACAD_REACTORS
330
343
102
}
330
75
100
AcDbEntity
  8
GRUNDRISS
  6
Continuous
100
AcDbLine
 10
49.25857393393821
 20
-10.20156994289163
 30
0.0
 11
49.31578912593423
 21
-10.10536664055941
 31
0.0
  0
LINE
  5
347
102
{ACAD_REACTORS
330
343
102
}
330
75
100
AcDbEntity
  8
GRUNDRISS
  6
Continuous
100
AcDbLine
 10
49.31578912593423
 20
-10.10536664055941
 30
0.0
 11
49.2013587419419
 21
-10.10536664055941
 31
0.0
  0
LINE
  5
349
102
{ACAD_REACTORS
330
348
102
}
330
75
100
AcDbEntity
  8
GRUNDRISS
  6
Continuous
100
AcDbLine
 10
48.45588768919475
 20
-14.33383434498997
 30
0.0
 11
47.13754613872768
 21
-14.33383434498997
 31
0.0
  0
LINE
  5
34A
102
{ACAD_REACTORS
330
348
102
}
330
75
100
AcDbEntity
  8
GRUNDRISS
  6
Continuous
100
AcDbLine
 10
47.13754613872768
 20
-14.33383434498997
 30
0.0
 11
47.2337494410599
 21
-14.27661915299365
 31
0.0
  0
LINE
  5
34B
102
{ACAD_REACTORS
330
348
102
}
330
75
100
AcDbEntity
  8
GRUNDRISS
  6
Continuous
100
AcDbLine
 10
47.13754613872768
 20
-14.33383434498997
 30
0.0
 11
47.2337494410599
 21
-14.39104953698598
 31
0.0
  0
LINE
  5
34C
102
{ACAD_REACTORS
330
348
102
}
330
75
100
AcDbEntity
  8
GRUNDRISS
  6
Continuous
100
AcDbLine
 10
47.2337494410599
 20
-14.39104953698598
 30
0.0
 11
47.2337494410599
 21
-14.27661915299365
 31
0.0
  0
LINE
  5
34D
330
75
100
AcDbEntity
  8
HALLE_0_1_EG
  6
Continuous
100
AcDbLine
 10
49.08671691396121
 20
-17.53372092811855
 30
0.0
 11
49.08671691396121
 21
-21.53372092811859
 31
0.0
  0
LINE
  5
34F
102
{ACAD_REACTORS
330
34E
102
}
330
75
100
AcDbEntity
  8
GRUNDRISS
  6
Continuous
100
AcDbLine
 10
49.17332548083356
 20
-19.85111915326579
 30
0.0
 11
49.17332548083356
 21
-21.16946070373287
 31
0.0
  0
LINE
  5
350
102
{ACAD_REACTORS
330
34E
102
}
330
75
100
AcDbEntity
  8
GRUNDRISS
  6
Continuous
100
AcDbLine
 10
49.17332548083356
 20
-21.16946070373287
 30
0.0
 11
49.11611028883724
 21
-21.07325740140065
 31
0.0
  0
LINE
  5
351
102
{ACAD_REACTORS
330
34E
102
}
330
75
100
AcDbEntity
  8
GRUNDRISS
  6
Continuous
100
AcDbLine
 10
49.17332548083356
 20
-21.16946070373287
 30
0.0
 11
49.23054067282958
 21
-21.07325740140065
 31
0.0
  0
LINE
  5
352
102
{ACAD_REACTORS
330
34E
102
}
330
75
100
AcDbEntity
  8
GRUNDRISS
  6
Continuous
100
AcDbLine
 10
49.23054067282958
 20
-21.07325740140065
 30
0.0
 11
49.11611028883724
 21
-21.07325740140065
 31
0.0
  0
LINE
  5
354
102
{ACAD_REACTORS
330
353
102
}
330
75
100
AcDbEntity
  8
GRUNDRISS
  6
Continuous
100
AcDbLine
 10
49.17332548083327
 20
-19.23639001228361
 30
0.0
 11
49.17332548083327
 21
-17.91804846181653
 31
0.0
  0
LINE
  5
355
102
{ACAD_REACTORS
330
353
102
}
330
75
100
AcDbEntity
  8
GRUNDRISS
  6
Continuous
100
AcDbLine
 10
49.17332548083327
 20
-17.91804846181653
 30
0.0
 11
49.23054067282958
 21
-18.01425176414876
 31
0.0
  0
LINE
  5
356
102
{ACAD_REACTORS
330
353
102
}
330
75
100
AcDbEntity
  8
GRUNDRISS
  6
Continuous
100
AcDbLine
 10
49.17332548083327
 20
-17.91804846181653
 30
0.0
 11
49.11611028883726
 21
-18.01425176414876
 31
0.0
  0
LINE
  5
357
102
{ACAD_REACTORS
330
353
102
}
330
75
100
AcDbEntity
  8
GRUNDRISS
  6
Continuous
100
AcDbLine
 10
49.11611028883726
 20
-18.01425176414876
 30
0.0
 11
49.23054067282958
 21
-18.01425176414876
 31
0.0
  0
LINE
  5
358
330
75
100
AcDbEntity
  8
HALLE_0_1_EG
  6
Continuous
100
AcDbLine
 10
45.78361869094198
 20
-28.53372093023256
 30
0.0
 11
45.78361869094198
 21
-28.21372092811857
 31
0.0
  0
LINE
  5
359
330
75
100
AcDbEntity
  8
HALLE_0_1_EG
  6
Continuous
100
AcDbLine
 10
45.78991042580061
 20
-28.30000439348955
 30
0.0
 11
47.89505140838868
 21
-28.30000439348955
 31
0.0
  0
LINE
  5
35B
102
{ACAD_REACTORS
330
35A
102
}
330
75
100
AcDbEntity
  8
GRUNDRISS
  6
Continuous
100
AcDbLine
 10
47.47764849208363
 20
-28.40380249785694
 30
0.0
 11
46.15930694161655
 21
-28.40380249785694
 31
0.0
  0
LINE
  5
35C
102
{ACAD_REACTORS
330
35A
102
}
330
75
100
AcDbEntity
  8
GRUNDRISS
  6
Continuous
100
AcDbLine
 10
46.15930694161655
 20
-28.40380249785694
 30
0.0
 11
46.25551024394877
 21
-28.34658730586062
 31
0.0
  0
LINE
  5
35D
102
{ACAD_REACTORS
330
35A
102
}
330
75
100
AcDbEntity
  8
GRUNDRISS
  6
Continuous
100
AcDbLine
 10
46.15930694161655
 20
-28.40380249785694
 30
0.0
 11
46.25551024394877
 21
-28.46101768985295
 31
0.0
  0
LINE
  5
35E
102
{ACAD_REACTORS
330
35A
102
}
330
75
100
AcDbEntity
  8
GRUNDRISS
  6
Continuous
100
AcDbLine
 10
46.25551024394877
 20
-28.46101768985295
 30
0.0
 11
46.25551024394877
 21
-28.34658730586062
 31
0.0
  0
LINE
  5
360
102
{ACAD_REACTORS
330
35F
102
}
330
75
100
AcDbEntity
  8
BODENDURCHFÜHRUNGEN
  6
Continuous
100
AcDbLine
 10
29.32005140758874
 20
-10.5337209302332
 30
0.0
 11
29.32005140758874
 21
-10.55372093023319
 31
0.0
  0
LINE
  5
361
102
{ACAD_REACTORS
330
35F
102
}
330
75
100
AcDbEntity
  8
BODENDURCHFÜHRUNGEN
  6
Continuous
100
AcDbLine
 10
29.32005140758874
 20
-10.77372093023255
 30
0.0
 11
29.32005140758874
 21
-10.79372093023255
 31
0.0
  0
LINE
  5
362
102
{ACAD_REACTORS
330
35F
102
}
330
75
100
AcDbEntity
  8
BODENDURCHFÜHRUNGEN
  6
Continuous
100
AcDbLine
 10
3.076051407588742
 20
-27.70372093023327
 30
0.0
 11
3.356051407588742
 21
-27.70372093023327
 31
0.0
  0
LINE
  5
363
102
{ACAD_REACTORS
330
35F
102
}
330
75
100
AcDbEntity
  8
BODENDURCHFÜHRUNGEN
  6
Continuous
100
AcDbLine
 10
3.356051407588742
 20
-27.70372093023327
 30
0.0
 11
3.356051407588742
 21
-27.98372093023256
 31
0.0
  0
LINE
  5
364
102
{ACAD_REACTORS
330
35F
102
}
330
75
100
AcDbEntity
  8
BODENDURCHFÜHRUNGEN
  6
Continuous
100
AcDbLine
 10
3.356051407588742
 20
-27.98372093023256
 30
0.0
 11
3.076051407588742
 21
-27.98372093023256
 31
0.0
  0
LINE
  5
365
102
{ACAD_REACTORS
330
35F
102
}
330
75
100
AcDbEntity
  8
BODENDURCHFÜHRUNGEN
  6
Continuous
100
AcDbLine
 10
3.076051407588742
 20
-27.98372093023256
 30
0.0
 11
3.076051407588742
 21
-27.70372093023327
 31
0.0
  0
LINE
  5
366
102
{ACAD_REACTORS
330
35F
102
}
330
75
100
AcDbEntity
  8
BODENDURCHFÜHRUNGEN
  6
Continuous
100
AcDbLine
 10
3.076051407588742
 20
-23.78372093023327
 30
0.0
 11
3.356051407588742
 21
-23.78372093023327
 31
0.0
  0
LINE
  5
367
102
{ACAD_REACTORS
330
35F
102
}
330
75
100
AcDbEntity
  8
BODENDURCHFÜHRUNGEN
  6
Continuous
100
AcDbLine
 10
3.356051407588742
 20
-23.78372093023327
 30
0.0
 11
3.356051407588742
 21
-24.06372093023256
 31
0.0
  0
LINE
  5
368
102
{ACAD_REACTORS
330
35F
102
}
330
75
100
AcDbEntity
  8
BODENDURCHFÜHRUNGEN
  6
Continuous
100
AcDbLine
 10
3.356051407588742
 20
-24.06372093023256
 30
0.0
 11
3.076051407588742
 21
-24.06372093023256
 31
0.0
  0
LINE
  5
369
102
{ACAD_REACTORS
330
35F
102
}
330
75
100
AcDbEntity
  8
BODENDURCHFÜHRUNGEN
  6
Continuous
100
AcDbLine
 10
3.076051407588742
 20
-24.06372093023256
 30
0.0
 11
3.076051407588742
 21
-23.78372093023327
 31
0.0
  0
LINE
  5
36A
102
{ACAD_REACTORS
330
35F
102
}
330
75
100
AcDbEntity
  8
BODENDURCHFÜHRUNGEN
  6
Continuous
100
AcDbLine
 10
3.076051407588742
 20
-19.27372093023327
 30
0.0
 11
3.356051407588742
 21
-19.27372093023327
 31
0.0
  0
LINE
  5
36B
102
{ACAD_REACTORS
330
35F
102
}
330
75
100
AcDbEntity
  8
BODENDURCHFÜHRUNGEN
  6
Continuous
100
AcDbLine
 10
3.356051407588742
 20
-19.27372093023327
 30
0.0
 11
3.356051407588742
 21
-19.55372093023256
 31
0.0
  0
LINE
  5
36C
102
{ACAD_REACTORS
330
35F
102
}
330
75
100
AcDbEntity
  8
BODENDURCHFÜHRUNGEN
  6
Continuous
100
AcDbLine
 10
3.356051407588742
 20
-19.55372093023256
 30
0.0
 11
3.076051407588742
 21
-19.55372093023256
 31
0.0
  0
LINE
  5
36D
102
{ACAD_REACTORS
330
35F
102
}
330
75
100
AcDbEntity
  8
BODENDURCHFÜHRUNGEN
  6
Continuous
100
AcDbLine
 10
3.076051407588742
 20
-19.55372093023256
 30
0.0
 11
3.076051407588742
 21
-19.27372093023327
 31
0.0
  0
LINE
  5
36E
102
{ACAD_REACTORS
330
35F
102
}
330
75
100
AcDbEntity
  8
BODENDURCHFÜHRUNGEN
  6
Continuous
100
AcDbLine
 10
3.076051407588742
 20
-14.64372093023327
 30
0.0
 11
3.356051407588742
 21
-14.64372093023327
 31
0.0
  0
LINE
  5
36F
102
{ACAD_REACTORS
330
35F
102
}
330
75
100
AcDbEntity
  8
BODENDURCHFÜHRUNGEN
  6
Continuous
100
AcDbLine
 10
3.356051407588742
 20
-14.64372093023327
 30
0.0
 11
3.356051407588742
 21
-14.92372093023255
 31
0.0
  0
LINE
  5
370
102
{ACAD_REACTORS
330
35F
102
}
330
75
100
AcDbEntity
  8
BODENDURCHFÜHRUNGEN
  6
Continuous
100
AcDbLine
 10
3.356051407588742
 20
-14.92372093023255
 30
0.0
 11
3.076051407588742
 21
-14.92372093023255
 31
0.0
  0
LINE
  5
371
102
{ACAD_REACTORS
330
35F
102
}
330
75
100
AcDbEntity
  8
BODENDURCHFÜHRUNGEN
  6
Continuous
100
AcDbLine
 10
3.076051407588742
 20
-14.92372093023255
 30
0.0
 11
3.076051407588742
 21
-14.64372093023327
 31
0.0
  0
LINE
  5
372
102
{ACAD_REACTORS
330
35F
102
}
330
75
100
AcDbEntity
  8
BODENDURCHFÜHRUNGEN
  6
Continuous
100
AcDbLine
 10
3.076051407588742
 20
-10.53872093023326
 30
0.0
 11
3.356051407588742
 21
-10.53872093023326
 31
0.0
  0
LINE
  5
373
102
{ACAD_REACTORS
330
35F
102
}
330
75
100
AcDbEntity
  8
BODENDURCHFÜHRUNGEN
  6
Continuous
100
AcDbLine
 10
3.356051407588742
 20
-10.53872093023326
 30
0.0
 11
3.356051407588742
 21
-10.81872093023256
 31
0.0
  0
LINE
  5
374
102
{ACAD_REACTORS
330
35F
102
}
330
75
100
AcDbEntity
  8
BODENDURCHFÜHRUNGEN
  6
Continuous
100
AcDbLine
 10
3.356051407588742
 20
-10.81872093023256
 30
0.0
 11
3.076051407588742
 21
-10.81872093023256
 31
0.0
  0
LINE
  5
375
102
{ACAD_REACTORS
330
35F
102
}
330
75
100
AcDbEntity
  8
BODENDURCHFÜHRUNGEN
  6
Continuous
100
AcDbLine
 10
3.076051407588742
 20
-10.81872093023256
 30
0.0
 11
3.076051407588742
 21
-10.53872093023326
 31
0.0
  0
LINE
  5
376
102
{ACAD_REACTORS
330
35F
102
}
330
75
100
AcDbEntity
  8
BODENDURCHFÜHRUNGEN
  6
Continuous
100
AcDbLine
 10
9.687051407588739
 20
-27.70372093023327
 30
0.0
 11
9.967051407588742
 21
-27.70372093023327
 31
0.0
  0
LINE
  5
377
102
{ACAD_REACTORS
330
35F
102
}
330
75
100
AcDbEntity
  8
BODENDURCHFÜHRUNGEN
  6
Continuous
100
AcDbLine
 10
9.967051407588742
 20
-27.70372093023327
 30
0.0
 11
9.967051407588742
 21
-27.98372093023256
 31
0.0
  0
LINE
  5
378
102
{ACAD_REACTORS
330
35F
102
}
330
75
100
AcDbEntity
  8
BODENDURCHFÜHRUNGEN
  6
Continuous
100
AcDbLine
 10
9.967051407588742
 20
-27.98372093023256
 30
0.0
 11
9.687051407588739
 21
-27.98372093023256
 31
0.0
  0
LINE
  5
379
102
{ACAD_REACTORS
330
35F
102
}
330
75
100
AcDbEntity
  8
BODENDURCHFÜHRUNGEN
  6
Continuous
100
AcDbLine
 10
9.687051407588739
 20
-27.98372093023256
 30
0.0
 11
9.687051407588739
 21
-27.70372093023327
 31
0.0
  0
LINE
  5
37A
102
{ACAD_REACTORS
330
35F
102
}
330
75
100
AcDbEntity
  8
BODENDURCHFÜHRUNGEN
  6
Continuous
100
AcDbLine
 10
9.687051407588739
 20
-23.78372093023327
 30
0.0
 11
9.967051407588742
 21
-23.78372093023327
 31
0.0
  0
LINE
  5
37B
102
{ACAD_REACTORS
330
35F
102
}
330
75
100
AcDbEntity
  8
BODENDURCHFÜHRUNGEN
  6
Continuous
100
AcDbLine
 10
9.967051407588742
 20
-23.78372093023327
 30
0.0
 11
9.967051407588742
 21
-24.06372093023256
 31
0.0
  0
LINE
  5
37C
102
{ACAD_REACTORS
330
35F
102
}
330
75
100
AcDbEntity
  8
BODENDURCHFÜHRUNGEN
  6
Continuous
100
AcDbLine
 10
9.967051407588742
 20
-24.06372093023256
 30
0.0
 11
9.687051407588739
 21
-24.06372093023256
 31
0.0
  0
LINE
  5
37D
102
{ACAD_REACTORS
330
35F
102
}
330
75
100
AcDbEntity
  8
BODENDURCHFÜHRUNGEN
  6
Continuous
100
AcDbLine
 10
9.687051407588739
 20
-24.06372093023256
 30
0.0
 11
9.687051407588739
 21
-23.78372093023327
 31
0.0
  0
LINE
  5
37E
102
{ACAD_REACTORS
330
35F
102
}
330
75
100
AcDbEntity
  8
BODENDURCHFÜHRUNGEN
  6
Continuous
100
AcDbLine
 10
9.687051407588739
 20
-19.27372093023327
 30
0.0
 11
9.967051407588742
 21
-19.27372093023327
 31
0.0
  0
LINE
  5
37F
102
{ACAD_REACTORS
330
35F
102
}
330
75
100
AcDbEntity
  8
BODENDURCHFÜHRUNGEN
  6
Continuous
100
AcDbLine
 10
9.967051407588742
 20
-19.27372093023327
 30
0.0
 11
9.967051407588742
 21
-19.55372093023256
 31
0.0
  0
LINE
  5
380
102
{ACAD_REACTORS
330
35F
102
}
330
75
100
AcDbEntity
  8
BODENDURCHFÜHRUNGEN
  6
Continuous
100
AcDbLine
 10
9.967051407588742
 20
-19.55372093023256
 30
0.0
 11
9.687051407588739
 21
-19.55372093023256
 31
0.0
  0
LINE
  5
381
102
{ACAD_REACTORS
330
35F
102
}
330
75
100
AcDbEntity
  8
BODENDURCHFÜHRUNGEN
  6
Continuous
100
AcDbLine
 10
9.687051407588739
 20
-19.55372093023256
 30
0.0
 11
9.687051407588739
 21
-19.27372093023327
 31
0.0
  0
LINE
  5
382
102
{ACAD_REACTORS
330
35F
102
}
330
75
100
AcDbEntity
  8
BODENDURCHFÜHRUNGEN
  6
Continuous
100
AcDbLine
 10
9.687051407588739
 20
-14.64372093023327
 30
0.0
 11
9.967051407588742
 21
-14.64372093023327
 31
0.0
  0
LINE
  5
383
102
{ACAD_REACTORS
330
35F
102
}
330
75
100
AcDbEntity
  8
BODENDURCHFÜHRUNGEN
  6
Continuous
100
AcDbLine
 10
9.967051407588742
 20
-14.64372093023327
 30
0.0
 11
9.967051407588742
 21
-14.92372093023255
 31
0.0
  0
LINE
  5
384
102
{ACAD_REACTORS
330
35F
102
}
330
75
100
AcDbEntity
  8
BODENDURCHFÜHRUNGEN
  6
Continuous
100
AcDbLine
 10
9.967051407588742
 20
-14.92372093023255
 30
0.0
 11
9.687051407588739
 21
-14.92372093023255
 31
0.0
  0
LINE
  5
385
102
{ACAD_REACTORS
330
35F
102
}
330
75
100
AcDbEntity
  8
BODENDURCHFÜHRUNGEN
  6
Continuous
100
AcDbLine
 10
9.687051407588739
 20
-14.92372093023255
 30
0.0
 11
9.687051407588739
 21
-14.64372093023327
 31
0.0
  0
LINE
  5
386
102
{ACAD_REACTORS
330
35F
102
}
330
75
100
AcDbEntity
  8
BODENDURCHFÜHRUNGEN
  6
Continuous
100
AcDbLine
 10
9.687051407588739
 20
-10.53872093023326
 30
0.0
 11
9.967051407588742
 21
-10.53872093023326
 31
0.0
  0
LINE
  5
387
102
{ACAD_REACTORS
330
35F
102
}
330
75
100
AcDbEntity
  8
BODENDURCHFÜHRUNGEN
  6
Continuous
100
AcDbLine
 10
9.967051407588742
 20
-10.53872093023326
 30
0.0
 11
9.967051407588742
 21
-10.81872093023256
 31
0.0
  0
LINE
  5
388
102
{ACAD_REACTORS
330
35F
102
}
330
75
100
AcDbEntity
  8
BODENDURCHFÜHRUNGEN
  6
Continuous
100
AcDbLine
 10
9.967051407588742
 20
-10.81872093023256
 30
0.0
 11
9.687051407588739
 21
-10.81872093023256
 31
0.0
  0
LINE
  5
389
102
{ACAD_REACTORS
330
35F
102
}
330
75
100
AcDbEntity
  8
BODENDURCHFÜHRUNGEN
  6
Continuous
100
AcDbLine
 10
9.687051407588739
 20
-10.81872093023256
 30
0.0
 11
9.687051407588739
 21
-10.53872093023326
 31
0.0
  0
LINE
  5
38A
102
{ACAD_REACTORS
330
35F
102
}
330
75
100
AcDbEntity
  8
BODENDURCHFÜHRUNGEN
  6
Continuous
100
AcDbLine
 10
16.29805140758874
 20
-27.70372093023327
 30
0.0
 11
16.57805140758874
 21
-27.70372093023327
 31
0.0
  0
LINE
  5
38B
102
{ACAD_REACTORS
330
35F
102
}
330
75
100
AcDbEntity
  8
BODENDURCHFÜHRUNGEN
  6
Continuous
100
AcDbLine
 10
16.57805140758874
 20
-27.70372093023327
 30
0.0
 11
16.57805140758874
 21
-27.98372093023256
 31
0.0
  0
LINE
  5
38C
102
{ACAD_REACTORS
330
35F
102
}
330
75
100
AcDbEntity
  8
BODENDURCHFÜHRUNGEN
  6
Continuous
100
AcDbLine
 10
16.57805140758874
 20
-27.98372093023256
 30
0.0
 11
16.29805140758874
 21
-27.98372093023256
 31
0.0
  0
LINE
  5
38D
102
{ACAD_REACTORS
330
35F
102
}
330
75
100
AcDbEntity
  8
BODENDURCHFÜHRUNGEN
  6
Continuous
100
AcDbLine
 10
16.29805140758874
 20
-27.98372093023256
 30
0.0
 11
16.29805140758874
 21
-27.70372093023327
 31
0.0
  0
LINE
  5
38E
102
{ACAD_REACTORS
330
35F
102
}
330
75
100
AcDbEntity
  8
BODENDURCHFÜHRUNGEN
  6
Continuous
100
AcDbLine
 10
16.29805140758874
 20
-23.78372093023327
 30
0.0
 11
16.57805140758874
 21
-23.78372093023327
 31
0.0
  0
LINE
  5
38F
102
{ACAD_REACTORS
330
35F
102
}
330
75
100
AcDbEntity
  8
BODENDURCHFÜHRUNGEN
  6
Continuous
100
AcDbLine
 10
16.57805140758874
 20
-23.78372093023327
 30
0.0
 11
16.57805140758874
 21
-24.06372093023256
 31
0.0
  0
LINE
  5
390
102
{ACAD_REACTORS
330
35F
102
}
330
75
100
AcDbEntity
  8
BODENDURCHFÜHRUNGEN
  6
Continuous
100
AcDbLine
 10
16.57805140758874
 20
-24.06372093023256
 30
0.0
 11
16.29805140758874
 21
-24.06372093023256
 31
0.0
  0
LINE
  5
391
102
{ACAD_REACTORS
330
35F
102
}
330
75
100
AcDbEntity
  8
BODENDURCHFÜHRUNGEN
  6
Continuous
100
AcDbLine
 10
16.29805140758874
 20
-24.06372093023256
 30
0.0
 11
16.29805140758874
 21
-23.78372093023327
 31
0.0
  0
LINE
  5
392
102
{ACAD_REACTORS
330
35F
102
}
330
75
100
AcDbEntity
  8
BODENDURCHFÜHRUNGEN
  6
Continuous
100
AcDbLine
 10
16.29805140758874
 20
-19.27372093023327
 30
0.0
 11
16.57805140758874
 21
-19.27372093023327
 31
0.0
  0
LINE
  5
393
102
{ACAD_REACTORS
330
35F
102
}
330
75
100
AcDbEntity
  8
BODENDURCHFÜHRUNGEN
  6
Continuous
100
AcDbLine
 10
16.57805140758874
 20
-19.27372093023327
 30
0.0
 11
16.57805140758874
 21
-19.55372093023256
 31
0.0
  0
LINE
  5
394
102
{ACAD_REACTORS
330
35F
102
}
330
75
100
AcDbEntity
  8
BODENDURCHFÜHRUNGEN
  6
Continuous
100
AcDbLine
 10
16.57805140758874
 20
-19.55372093023256
 30
0.0
 11
16.29805140758874
 21
-19.55372093023256
 31
0.0
  0
LINE
  5
395
102
{ACAD_REACTORS
330
35F
102
}
330
75
100
AcDbEntity
  8
BODENDURCHFÜHRUNGEN
  6
Continuous
100
AcDbLine
 10
16.29805140758874
 20
-19.55372093023256
 30
0.0
 11
16.29805140758874
 21
-19.27372093023327
 31
0.0
  0
LINE
  5
396
102
{ACAD_REACTORS
330
35F
102
}
330
75
100
AcDbEntity
  8
BODENDURCHFÜHRUNGEN
  6
Continuous
100
AcDbLine
 10
16.29805140758874
 20
-14.64372093023327
 30
0.0
 11
16.57805140758874
 21
-14.64372093023327
 31
0.0
  0
LINE
  5
397
102
{ACAD_REACTORS
330
35F
102
}
330
75
100
AcDbEntity
  8
BODENDURCHFÜHRUNGEN
  6
Continuous
100
AcDbLine
 10
16.57805140758874
 20
-14.64372093023327
 30
0.0
 11
16.57805140758874
 21
-14.92372093023255
 31
0.0
  0
LINE
  5
398
102
{ACAD_REACTORS
330
35F
102
}
330
75
100
AcDbEntity
  8
BODENDURCHFÜHRUNGEN
  6
Continuous
100
AcDbLine
 10
16.57805140758874
 20
-14.92372093023255
 30
0.0
 11
16.29805140758874
 21
-14.92372093023255
 31
0.0
  0
LINE
  5
399
102
{ACAD_REACTORS
330
35F
102
}
330
75
100
AcDbEntity
  8
BODENDURCHFÜHRUNGEN
  6
Continuous
100
AcDbLine
 10
16.29805140758874
 20
-14.92372093023255
 30
0.0
 11
16.29805140758874
 21
-14.64372093023327
 31
0.0
  0
LINE
  5
39A
102
{ACAD_REACTORS
330
35F
102
}
330
75
100
AcDbEntity
  8
BODENDURCHFÜHRUNGEN
  6
Continuous
100
AcDbLine
 10
16.29805140758874
 20
-10.53872093023326
 30
0.0
 11
16.57805140758874
 21
-10.53872093023326
 31
0.0
  0
LINE
  5
39B
102
{ACAD_REACTORS
330
35F
102
}
330
75
100
AcDbEntity
  8
BODENDURCHFÜHRUNGEN
  6
Continuous
100
AcDbLine
 10
16.57805140758874
 20
-10.53872093023326
 30
0.0
 11
16.57805140758874
 21
-10.81872093023256
 31
0.0
  0
LINE
  5
39C
102
{ACAD_REACTORS
330
35F
102
}
330
75
100
AcDbEntity
  8
BODENDURCHFÜHRUNGEN
  6
Continuous
100
AcDbLine
 10
16.57805140758874
 20
-10.81872093023256
 30
0.0
 11
16.29805140758874
 21
-10.81872093023256
 31
0.0
  0
LINE
  5
39D
102
{ACAD_REACTORS
330
35F
102
}
330
75
100
AcDbEntity
  8
BODENDURCHFÜHRUNGEN
  6
Continuous
100
AcDbLine
 10
16.29805140758874
 20
-10.81872093023256
 30
0.0
 11
16.29805140758874
 21
-10.53872093023326
 31
0.0
  0
LINE
  5
39E
102
{ACAD_REACTORS
330
35F
102
}
330
75
100
AcDbEntity
  8
BODENDURCHFÜHRUNGEN
  6
Continuous
100
AcDbLine
 10
22.90905140758874
 20
-27.70372093023327
 30
0.0
 11
23.18905140758874
 21
-27.70372093023327
 31
0.0
  0
LINE
  5
39F
102
{ACAD_REACTORS
330
35F
102
}
330
75
100
AcDbEntity
  8
BODENDURCHFÜHRUNGEN
  6
Continuous
100
AcDbLine
 10
23.18905140758874
 20
-27.70372093023327
 30
0.0
 11
23.18905140758874
 21
-27.98372093023256
 31
0.0
  0
LINE
  5
3A0
102
{ACAD_REACTORS
330
35F
102
}
330
75
100
AcDbEntity
  8
BODENDURCHFÜHRUNGEN
  6
Continuous
100
AcDbLine
 10
23.18905140758874
 20
-27.98372093023256
 30
0.0
 11
22.90905140758874
 21
-27.98372093023256
 31
0.0
  0
LINE
  5
3A1
102
{ACAD_REACTORS
330
35F
102
}
330
75
100
AcDbEntity
  8
BODENDURCHFÜHRUNGEN
  6
Continuous
100
AcDbLine
 10
22.90905140758874
 20
-27.98372093023256
 30
0.0
 11
22.90905140758874
 21
-27.70372093023327
 31
0.0
  0
LINE
  5
3A2
102
{ACAD_REACTORS
330
35F
102
}
330
75
100
AcDbEntity
  8
BODENDURCHFÜHRUNGEN
  6
Continuous
100
AcDbLine
 10
22.90905140758874
 20
-23.78372093023327
 30
0.0
 11
23.18905140758874
 21
-23.78372093023327
 31
0.0
  0
LINE
  5
3A3
102
{ACAD_REACTORS
330
35F
102
}
330
75
100
AcDbEntity
  8
BODENDURCHFÜHRUNGEN
  6
Continuous
100
AcDbLine
 10
23.18905140758874
 20
-23.78372093023327
 30
0.0
 11
23.18905140758874
 21
-24.06372093023256
 31
0.0
  0
LINE
  5
3A4
102
{ACAD_REACTORS
330
35F
102
}
330
75
100
AcDbEntity
  8
BODENDURCHFÜHRUNGEN
  6
Continuous
100
AcDbLine
 10
23.18905140758874
 20
-24.06372093023256
 30
0.0
 11
22.90905140758874
 21
-24.06372093023256
 31
0.0
  0
LINE
  5
3A5
102
{ACAD_REACTORS
330
35F
102
}
330
75
100
AcDbEntity
  8
BODENDURCHFÜHRUNGEN
  6
Continuous
100
AcDbLine
 10
22.90905140758874
 20
-24.06372093023256
 30
0.0
 11
22.90905140758874
 21
-23.78372093023327
 31
0.0
  0
LINE
  5
3A6
102
{ACAD_REACTORS
330
35F
102
}
330
75
100
AcDbEntity
  8
BODENDURCHFÜHRUNGEN
  6
Continuous
100
AcDbLine
 10
22.90905140758874
 20
-19.27372093023327
 30
0.0
 11
23.18905140758874
 21
-19.27372093023327
 31
0.0
  0
LINE
  5
3A7
102
{ACAD_REACTORS
330
35F
102
}
330
75
100
AcDbEntity
  8
BODENDURCHFÜHRUNGEN
  6
Continuous
100
AcDbLine
 10
23.18905140758874
 20
-19.27372093023327
 30
0.0
 11
23.18905140758874
 21
-19.55372093023256
 31
0.0
  0
LINE
  5
3A8
102
{ACAD_REACTORS
330
35F
102
}
330
75
100
AcDbEntity
  8
BODENDURCHFÜHRUNGEN
  6
Continuous
100
AcDbLine
 10
23.18905140758874
 20
-19.55372093023256
 30
0.0
 11
22.90905140758874
 21
-19.55372093023256
 31
0.0
  0
LINE
  5
3A9
102
{ACAD_REACTORS
330
35F
102
}
330
75
100
AcDbEntity
  8
BODENDURCHFÜHRUNGEN
  6
Continuous
100
AcDbLine
 10
22.90905140758874
 20
-19.55372093023256
 30
0.0
 11
22.90905140758874
 21
-19.27372093023327
 31
0.0
  0
LINE
  5
3AA
102
{ACAD_REACTORS
330
35F
102
}
330
75
100
AcDbEntity
  8
BODENDURCHFÜHRUNGEN
  6
Continuous
100
AcDbLine
 10
22.90905140758874
 20
-14.64372093023327
 30
0.0
 11
23.18905140758874
 21
-14.64372093023327
 31
0.0
  0
LINE
  5
3AB
102
{ACAD_REACTORS
330
35F
102
}
330
75
100
AcDbEntity
  8
BODENDURCHFÜHRUNGEN
  6
Continuous
100
AcDbLine
 10
23.18905140758874
 20
-14.64372093023327
 30
0.0
 11
23.18905140758874
 21
-14.92372093023255
 31
0.0
  0
LINE
  5
3AC
102
{ACAD_REACTORS
330
35F
102
}
330
75
100
AcDbEntity
  8
BODENDURCHFÜHRUNGEN
  6
Continuous
100
AcDbLine
 10
23.18905140758874
 20
-14.92372093023255
 30
0.0
 11
22.90905140758874
 21
-14.92372093023255
 31
0.0
  0
LINE
  5
3AD
102
{ACAD_REACTORS
330
35F
102
}
330
75
100
AcDbEntity
  8
BODENDURCHFÜHRUNGEN
  6
Continuous
100
AcDbLine
 10
22.90905140758874
 20
-14.92372093023255
 30
0.0
 11
22.90905140758874
 21
-14.64372093023327
 31
0.0
  0
LINE
  5
3AE
102
{ACAD_REACTORS
330
35F
102
}
330
75
100
AcDbEntity
  8
BODENDURCHFÜHRUNGEN
  6
Continuous
100
AcDbLine
 10
22.90905140758874
 20
-10.53872093023326
 30
0.0
 11
23.18905140758874
 21
-10.53872093023326
 31
0.0
  0
LINE
  5
3AF
102
{ACAD_REACTORS
330
35F
102
}
330
75
100
AcDbEntity
  8
BODENDURCHFÜHRUNGEN
  6
Continuous
100
AcDbLine
 10
23.18905140758874
 20
-10.53872093023326
 30
0.0
 11
23.18905140758874
 21
-10.81872093023256
 31
0.0
  0
LINE
  5
3B0
102
{ACAD_REACTORS
330
35F
102
}
330
75
100
AcDbEntity
  8
BODENDURCHFÜHRUNGEN
  6
Continuous
100
AcDbLine
 10
23.18905140758874
 20
-10.81872093023256
 30
0.0
 11
22.90905140758874
 21
-10.81872093023256
 31
0.0
  0
LINE
  5
3B1
102
{ACAD_REACTORS
330
35F
102
}
330
75
100
AcDbEntity
  8
BODENDURCHFÜHRUNGEN
  6
Continuous
100
AcDbLine
 10
22.90905140758874
 20
-10.81872093023256
 30
0.0
 11
22.90905140758874
 21
-10.53872093023326
 31
0.0
  0
LINE
  5
3B2
102
{ACAD_REACTORS
330
35F
102
}
330
75
100
AcDbEntity
  8
BODENDURCHFÜHRUNGEN
  6
Continuous
100
AcDbLine
 10
29.52005140758874
 20
-27.70372093023327
 30
0.0
 11
29.80005140758875
 21
-27.70372093023327
 31
0.0
  0
LINE
  5
3B3
102
{ACAD_REACTORS
330
35F
102
}
330
75
100
AcDbEntity
  8
BODENDURCHFÜHRUNGEN
  6
Continuous
100
AcDbLine
 10
29.80005140758875
 20
-27.70372093023327
 30
0.0
 11
29.80005140758875
 21
-27.98372093023256
 31
0.0
  0
LINE
  5
3B4
102
{ACAD_REACTORS
330
35F
102
}
330
75
100
AcDbEntity
  8
BODENDURCHFÜHRUNGEN
  6
Continuous
100
AcDbLine
 10
29.80005140758875
 20
-27.98372093023256
 30
0.0
 11
29.52005140758874
 21
-27.98372093023256
 31
0.0
  0
LINE
  5
3B5
102
{ACAD_REACTORS
330
35F
102
}
330
75
100
AcDbEntity
  8
BODENDURCHFÜHRUNGEN
  6
Continuous
100
AcDbLine
 10
29.52005140758874
 20
-27.98372093023256
 30
0.0
 11
29.52005140758874
 21
-27.70372093023327
 31
0.0
  0
LINE
  5
3B6
102
{ACAD_REACTORS
330
35F
102
}
330
75
100
AcDbEntity
  8
BODENDURCHFÜHRUNGEN
  6
Continuous
100
AcDbLine
 10
29.52005140758874
 20
-23.78372093023327
 30
0.0
 11
29.80005140758875
 21
-23.78372093023327
 31
0.0
  0
LINE
  5
3B7
102
{ACAD_REACTORS
330
35F
102
}
330
75
100
AcDbEntity
  8
BODENDURCHFÜHRUNGEN
  6
Continuous
100
AcDbLine
 10
29.80005140758875
 20
-23.78372093023327
 30
0.0
 11
29.80005140758875
 21
-24.06372093023256
 31
0.0
  0
LINE
  5
3B8
102
{ACAD_REACTORS
330
35F
102
}
330
75
100
AcDbEntity
  8
BODENDURCHFÜHRUNGEN
  6
Continuous
100
AcDbLine
 10
29.80005140758875
 20
-24.06372093023256
 30
0.0
 11
29.52005140758874
 21
-24.06372093023256
 31
0.0
  0
LINE
  5
3B9
102
{ACAD_REACTORS
330
35F
102
}
330
75
100
AcDbEntity
  8
BODENDURCHFÜHRUNGEN
  6
Continuous
100
AcDbLine
 10
29.52005140758874
 20
-24.06372093023256
 30
0.0
 11
29.52005140758874
 21
-23.78372093023327
 31
0.0
  0
LINE
  5
3BA
102
{ACAD_REACTORS
330
35F
102
}
330
75
100
AcDbEntity
  8
BODENDURCHFÜHRUNGEN
  6
Continuous
100
AcDbLine
 10
29.52005140758874
 20
-19.27372093023327
 30
0.0
 11
29.80005140758875
 21
-19.27372093023327
 31
0.0
  0
LINE
  5
3BB
102
{ACAD_REACTORS
330
35F
102
}
330
75
100
AcDbEntity
  8
BODENDURCHFÜHRUNGEN
  6
Continuous
100
AcDbLine
 10
29.80005140758875
 20
-19.27372093023327
 30
0.0
 11
29.80005140758875
 21
-19.55372093023256
 31
0.0
  0
LINE
  5
3BC
102
{ACAD_REACTORS
330
35F
102
}
330
75
100
AcDbEntity
  8
BODENDURCHFÜHRUNGEN
  6
Continuous
100
AcDbLine
 10
29.80005140758875
 20
-19.55372093023256
 30
0.0
 11
29.52005140758874
 21
-19.55372093023256
 31
0.0
  0
LINE
  5
3BD
102
{ACAD_REACTORS
330
35F
102
}
330
75
100
AcDbEntity
  8
BODENDURCHFÜHRUNGEN
  6
Continuous
100
AcDbLine
 10
29.52005140758874
 20
-19.55372093023256
 30
0.0
 11
29.52005140758874
 21
-19.27372093023327
 31
0.0
  0
LINE
  5
3BE
102
{ACAD_REACTORS
330
35F
102
}
330
75
100
AcDbEntity
  8
BODENDURCHFÜHRUNGEN
  6
Continuous
100
AcDbLine
 10
29.52005140758874
 20
-14.64372093023327
 30
0.0
 11
29.80005140758875
 21
-14.64372093023327
 31
0.0
  0
LINE
  5
3BF
102
{ACAD_REACTORS
330
35F
102
}
330
75
100
AcDbEntity
  8
BODENDURCHFÜHRUNGEN
  6
Continuous
100
AcDbLine
 10
29.80005140758875
 20
-14.64372093023327
 30
0.0
 11
29.80005140758875
 21
-14.92372093023255
 31
0.0
  0
LINE
  5
3C0
102
{ACAD_REACTORS
330
35F
102
}
330
75
100
AcDbEntity
  8
BODENDURCHFÜHRUNGEN
  6
Continuous
100
AcDbLine
 10
29.80005140758875
 20
-14.92372093023255
 30
0.0
 11
29.52005140758874
 21
-14.92372093023255
 31
0.0
  0
LINE
  5
3C1
102
{ACAD_REACTORS
330
35F
102
}
330
75
100
AcDbEntity
  8
BODENDURCHFÜHRUNGEN
  6
Continuous
100
AcDbLine
 10
29.52005140758874
 20
-14.92372093023255
 30
0.0
 11
29.52005140758874
 21
-14.64372093023327
 31
0.0
  0
LINE
  5
3C2
102
{ACAD_REACTORS
330
35F
102
}
330
75
100
AcDbEntity
  8
BODENDURCHFÜHRUNGEN
  6
Continuous
100
AcDbLine
 10
29.52005140758874
 20
-10.53872093023326
 30
0.0
 11
29.80005140758875
 21
-10.53872093023326
 31
0.0
  0
LINE
  5
3C3
102
{ACAD_REACTORS
330
35F
102
}
330
75
100
AcDbEntity
  8
BODENDURCHFÜHRUNGEN
  6
Continuous
100
AcDbLine
 10
29.80005140758875
 20
-10.53872093023326
 30
0.0
 11
29.80005140758875
 21
-10.81872093023256
 31
0.0
  0
LINE
  5
3C4
102
{ACAD_REACTORS
330
35F
102
}
330
75
100
AcDbEntity
  8
BODENDURCHFÜHRUNGEN
  6
Continuous
100
AcDbLine
 10
29.80005140758875
 20
-10.81872093023256
 30
0.0
 11
29.52005140758874
 21
-10.81872093023256
 31
0.0
  0
LINE
  5
3C5
102
{ACAD_REACTORS
330
35F
102
}
330
75
100
AcDbEntity
  8
BODENDURCHFÜHRUNGEN
  6
Continuous
100
AcDbLine
 10
29.52005140758874
 20
-10.81872093023256
 30
0.0
 11
29.52005140758874
 21
-10.53872093023326
 31
0.0
  0
LINE
  5
3C6
102
{ACAD_REACTORS
330
35F
102
}
330
75
100
AcDbEntity
  8
BODENDURCHFÜHRUNGEN
  6
Continuous
100
AcDbLine
 10
36.13105140758874
 20
-27.70372093023327
 30
0.0
 11
36.41105140758874
 21
-27.70372093023327
 31
0.0
  0
LINE
  5
3C7
102
{ACAD_REACTORS
330
35F
102
}
330
75
100
AcDbEntity
  8
BODENDURCHFÜHRUNGEN
  6
Continuous
100
AcDbLine
 10
36.41105140758874
 20
-27.70372093023327
 30
0.0
 11
36.41105140758874
 21
-27.98372093023256
 31
0.0
  0
LINE
  5
3C8
102
{ACAD_REACTORS
330
35F
102
}
330
75
100
AcDbEntity
  8
BODENDURCHFÜHRUNGEN
  6
Continuous
100
AcDbLine
 10
36.41105140758874
 20
-27.98372093023256
 30
0.0
 11
36.13105140758874
 21
-27.98372093023256
 31
0.0
  0
LINE
  5
3C9
102
{ACAD_REACTORS
330
35F
102
}
330
75
100
AcDbEntity
  8
BODENDURCHFÜHRUNGEN
  6
Continuous
100
AcDbLine
 10
36.13105140758874
 20
-27.98372093023256
 30
0.0
 11
36.13105140758874
 21
-27.70372093023327
 31
0.0
  0
LINE
  5
3CA
102
{ACAD_REACTORS
330
35F
102
}
330
75
100
AcDbEntity
  8
BODENDURCHFÜHRUNGEN
  6
Continuous
100
AcDbLine
 10
36.13105140758874
 20
-23.78372093023327
 30
0.0
 11
36.41105140758874
 21
-23.78372093023327
 31
0.0
  0
LINE
  5
3CB
102
{ACAD_REACTORS
330
35F
102
}
330
75
100
AcDbEntity
  8
BODENDURCHFÜHRUNGEN
  6
Continuous
100
AcDbLine
 10
36.41105140758874
 20
-23.78372093023327
 30
0.0
 11
36.41105140758874
 21
-24.06372093023256
 31
0.0
  0
LINE
  5
3CC
102
{ACAD_REACTORS
330
35F
102
}
330
75
100
AcDbEntity
  8
BODENDURCHFÜHRUNGEN
  6
Continuous
100
AcDbLine
 10
36.41105140758874
 20
-24.06372093023256
 30
0.0
 11
36.13105140758874
 21
-24.06372093023256
 31
0.0
  0
LINE
  5
3CD
102
{ACAD_REACTORS
330
35F
102
}
330
75
100
AcDbEntity
  8
BODENDURCHFÜHRUNGEN
  6
Continuous
100
AcDbLine
 10
36.13105140758874
 20
-24.06372093023256
 30
0.0
 11
36.13105140758874
 21
-23.78372093023327
 31
0.0
  0
LINE
  5
3CE
102
{ACAD_REACTORS
330
35F
102
}
330
75
100
AcDbEntity
  8
BODENDURCHFÜHRUNGEN
  6
Continuous
100
AcDbLine
 10
36.13105140758874
 20
-19.27372093023327
 30
0.0
 11
36.41105140758874
 21
-19.27372093023327
 31
0.0
  0
LINE
  5
3CF
102
{ACAD_REACTORS
330
35F
102
}
330
75
100
AcDbEntity
  8
BODENDURCHFÜHRUNGEN
  6
Continuous
100
AcDbLine
 10
36.41105140758874
 20
-19.27372093023327
 30
0.0
 11
36.41105140758874
 21
-19.55372093023256
 31
0.0
  0
LINE
  5
3D0
102
{ACAD_REACTORS
330
35F
102
}
330
75
100
AcDbEntity
  8
BODENDURCHFÜHRUNGEN
  6
Continuous
100
AcDbLine
 10
36.41105140758874
 20
-19.55372093023256
 30
0.0
 11
36.13105140758874
 21
-19.55372093023256
 31
0.0
  0
LINE
  5
3D1
102
{ACAD_REACTORS
330
35F
102
}
330
75
100
AcDbEntity
  8
BODENDURCHFÜHRUNGEN
  6
Continuous
100
AcDbLine
 10
36.13105140758874
 20
-19.55372093023256
 30
0.0
 11
36.13105140758874
 21
-19.27372093023327
 31
0.0
  0
LINE
  5
3D2
102
{ACAD_REACTORS
330
35F
102
}
330
75
100
AcDbEntity
  8
BODENDURCHFÜHRUNGEN
  6
Continuous
100
AcDbLine
 10
36.13105140758874
 20
-14.64372093023327
 30
0.0
 11
36.41105140758874
 21
-14.64372093023327
 31
0.0
  0
LINE
  5
3D3
102
{ACAD_REACTORS
330
35F
102
}
330
75
100
AcDbEntity
  8
BODENDURCHFÜHRUNGEN
  6
Continuous
100
AcDbLine
 10
36.41105140758874
 20
-14.64372093023327
 30
0.0
 11
36.41105140758874
 21
-14.92372093023255
 31
0.0
  0
LINE
  5
3D4
102
{ACAD_REACTORS
330
35F
102
}
330
75
100
AcDbEntity
  8
BODENDURCHFÜHRUNGEN
  6
Continuous
100
AcDbLine
 10
36.41105140758874
 20
-14.92372093023255
 30
0.0
 11
36.13105140758874
 21
-14.92372093023255
 31
0.0
  0
LINE
  5
3D5
102
{ACAD_REACTORS
330
35F
102
}
330
75
100
AcDbEntity
  8
BODENDURCHFÜHRUNGEN
  6
Continuous
100
AcDbLine
 10
36.13105140758874
 20
-14.92372093023255
 30
0.0
 11
36.13105140758874
 21
-14.64372093023327
 31
0.0
  0
LINE
  5
3D6
102
{ACAD_REACTORS
330
35F
102
}
330
75
100
AcDbEntity
  8
BODENDURCHFÜHRUNGEN
  6
Continuous
100
AcDbLine
 10
36.13105140758874
 20
-10.53872093023326
 30
0.0
 11
36.41105140758874
 21
-10.53872093023326
 31
0.0
  0
LINE
  5
3D7
102
{ACAD_REACTORS
330
35F
102
}
330
75
100
AcDbEntity
  8
BODENDURCHFÜHRUNGEN
  6
Continuous
100
AcDbLine
 10
36.41105140758874
 20
-10.53872093023326
 30
0.0
 11
36.41105140758874
 21
-10.81872093023256
 31
0.0
  0
LINE
  5
3D8
102
{ACAD_REACTORS
330
35F
102
}
330
75
100
AcDbEntity
  8
BODENDURCHFÜHRUNGEN
  6
Continuous
100
AcDbLine
 10
36.41105140758874
 20
-10.81872093023256
 30
0.0
 11
36.13105140758874
 21
-10.81872093023256
 31
0.0
  0
LINE
  5
3D9
102
{ACAD_REACTORS
330
35F
102
}
330
75
100
AcDbEntity
  8
BODENDURCHFÜHRUNGEN
  6
Continuous
100
AcDbLine
 10
36.13105140758874
 20
-10.81872093023256
 30
0.0
 11
36.13105140758874
 21
-10.53872093023326
 31
0.0
  0
LINE
  5
3DA
102
{ACAD_REACTORS
330
35F
102
}
330
75
100
AcDbEntity
  8
BODENDURCHFÜHRUNGEN
  6
Continuous
100
AcDbLine
 10
42.74205140758875
 20
-27.70372093023327
 30
0.0
 11
43.02205140758874
 21
-27.70372093023327
 31
0.0
  0
LINE
  5
3DB
102
{ACAD_REACTORS
330
35F
102
}
330
75
100
AcDbEntity
  8
BODENDURCHFÜHRUNGEN
  6
Continuous
100
AcDbLine
 10
43.02205140758874
 20
-27.70372093023327
 30
0.0
 11
43.02205140758874
 21
-27.98372093023256
 31
0.0
  0
LINE
  5
3DC
102
{ACAD_REACTORS
330
35F
102
}
330
75
100
AcDbEntity
  8
BODENDURCHFÜHRUNGEN
  6
Continuous
100
AcDbLine
 10
43.02205140758874
 20
-27.98372093023256
 30
0.0
 11
42.74205140758875
 21
-27.98372093023256
 31
0.0
  0
LINE
  5
3DD
102
{ACAD_REACTORS
330
35F
102
}
330
75
100
AcDbEntity
  8
BODENDURCHFÜHRUNGEN
  6
Continuous
100
AcDbLine
 10
42.74205140758875
 20
-27.98372093023256
 30
0.0
 11
42.74205140758875
 21
-27.70372093023327
 31
0.0
  0
LINE
  5
3DE
102
{ACAD_REACTORS
330
35F
102
}
330
75
100
AcDbEntity
  8
BODENDURCHFÜHRUNGEN
  6
Continuous
100
AcDbLine
 10
42.74205140758875
 20
-23.78372093023327
 30
0.0
 11
43.02205140758874
 21
-23.78372093023327
 31
0.0
  0
LINE
  5
3DF
102
{ACAD_REACTORS
330
35F
102
}
330
75
100
AcDbEntity
  8
BODENDURCHFÜHRUNGEN
  6
Continuous
100
AcDbLine
 10
43.02205140758874
 20
-23.78372093023327
 30
0.0
 11
43.02205140758874
 21
-24.06372093023256
 31
0.0
  0
LINE
  5
3E0
102
{ACAD_REACTORS
330
35F
102
}
330
75
100
AcDbEntity
  8
BODENDURCHFÜHRUNGEN
  6
Continuous
100
AcDbLine
 10
43.02205140758874
 20
-24.06372093023256
 30
0.0
 11
42.74205140758875
 21
-24.06372093023256
 31
0.0
  0
LINE
  5
3E1
102
{ACAD_REACTORS
330
35F
102
}
330
75
100
AcDbEntity
  8
BODENDURCHFÜHRUNGEN
  6
Continuous
100
AcDbLine
 10
42.74205140758875
 20
-24.06372093023256
 30
0.0
 11
42.74205140758875
 21
-23.78372093023327
 31
0.0
  0
LINE
  5
3E2
102
{ACAD_REACTORS
330
35F
102
}
330
75
100
AcDbEntity
  8
BODENDURCHFÜHRUNGEN
  6
Continuous
100
AcDbLine
 10
42.74205140758875
 20
-19.27372093023327
 30
0.0
 11
43.02205140758874
 21
-19.27372093023327
 31
0.0
  0
LINE
  5
3E3
102
{ACAD_REACTORS
330
35F
102
}
330
75
100
AcDbEntity
  8
BODENDURCHFÜHRUNGEN
  6
Continuous
100
AcDbLine
 10
43.02205140758874
 20
-19.27372093023327
 30
0.0
 11
43.02205140758874
 21
-19.55372093023256
 31
0.0
  0
LINE
  5
3E4
102
{ACAD_REACTORS
330
35F
102
}
330
75
100
AcDbEntity
  8
BODENDURCHFÜHRUNGEN
  6
Continuous
100
AcDbLine
 10
43.02205140758874
 20
-19.55372093023256
 30
0.0
 11
42.74205140758875
 21
-19.55372093023256
 31
0.0
  0
LINE
  5
3E5
102
{ACAD_REACTORS
330
35F
102
}
330
75
100
AcDbEntity
  8
BODENDURCHFÜHRUNGEN
  6
Continuous
100
AcDbLine
 10
42.74205140758875
 20
-19.55372093023256
 30
0.0
 11
42.74205140758875
 21
-19.27372093023327
 31
0.0
  0
LINE
  5
3E6
102
{ACAD_REACTORS
330
35F
102
}
330
75
100
AcDbEntity
  8
BODENDURCHFÜHRUNGEN
  6
Continuous
100
AcDbLine
 10
48.24519799391179
 20
-27.70372093023327
 30
0.0
 11
48.52519799391179
 21
-27.70372093023327
 31
0.0
  0
LINE
  5
3E7
102
{ACAD_REACTORS
330
35F
102
}
330
75
100
AcDbEntity
  8
BODENDURCHFÜHRUNGEN
  6
Continuous
100
AcDbLine
 10
48.52519799391179
 20
-27.70372093023327
 30
0.0
 11
48.52519799391179
 21
-27.98372093023256
 31
0.0
  0
LINE
  5
3E8
102
{ACAD_REACTORS
330
35F
102
}
330
75
100
AcDbEntity
  8
BODENDURCHFÜHRUNGEN
  6
Continuous
100
AcDbLine
 10
48.52519799391179
 20
-27.98372093023256
 30
0.0
 11
48.24519799391179
 21
-27.98372093023256
 31
0.0
  0
LINE
  5
3E9
102
{ACAD_REACTORS
330
35F
102
}
330
75
100
AcDbEntity
  8
BODENDURCHFÜHRUNGEN
  6
Continuous
100
AcDbLine
 10
48.24519799391179
 20
-27.98372093023256
 30
0.0
 11
48.24519799391179
 21
-27.70372093023327
 31
0.0
  0
LINE
  5
3EA
102
{ACAD_REACTORS
330
35F
102
}
330
75
100
AcDbEntity
  8
BODENDURCHFÜHRUNGEN
  6
Continuous
100
AcDbLine
 10
-10.17379472453481
 20
-13.33793712898418
 30
0.0
 11
-9.893794724534808
 21
-13.33793712898418
 31
0.0
  0
LINE
  5
3EB
102
{ACAD_REACTORS
330
35F
102
}
330
75
100
AcDbEntity
  8
BODENDURCHFÜHRUNGEN
  6
Continuous
100
AcDbLine
 10
-9.893794724534808
 20
-13.33793712898418
 30
0.0
 11
-9.893794724534808
 21
-13.61793712898346
 31
0.0
  0
LINE
  5
3EC
102
{ACAD_REACTORS
330
35F
102
}
330
75
100
AcDbEntity
  8
BODENDURCHFÜHRUNGEN
  6
Continuous
100
AcDbLine
 10
-9.893794724534808
 20
-13.61793712898346
 30
0.0
 11
-10.17379472453481
 21
-13.61793712898346
 31
0.0
  0
LINE
  5
3ED
102
{ACAD_REACTORS
330
35F
102
}
330
75
100
AcDbEntity
  8
BODENDURCHFÜHRUNGEN
  6
Continuous
100
AcDbLine
 10
-10.17379472453481
 20
-13.61793712898346
 30
0.0
 11
-10.17379472453481
 21
-13.33793712898418
 31
0.0
  0
LINE
  5
3EE
102
{ACAD_REACTORS
330
35F
102
}
330
75
100
AcDbEntity
  8
BODENDURCHFÜHRUNGEN
  6
Continuous
100
AcDbLine
 10
-5.8524687186491
 20
-23.03674747118504
 30
0.0
 11
-5.5724687186491
 21
-23.03674747118504
 31
0.0
  0
LINE
  5
3EF
102
{ACAD_REACTORS
330
35F
102
}
330
75
100
AcDbEntity
  8
BODENDURCHFÜHRUNGEN
  6
Continuous
100
AcDbLine
 10
-5.5724687186491
 20
-23.03674747118504
 30
0.0
 11
-5.5724687186491
 21
-23.31674747118432
 31
0.0
  0
LINE
  5
3F0
102
{ACAD_REACTORS
330
35F
102
}
330
75
100
AcDbEntity
  8
BODENDURCHFÜHRUNGEN
  6
Continuous
100
AcDbLine
 10
-5.5724687186491
 20
-23.31674747118432
 30
0.0
 11
-5.8524687186491
 21
-23.31674747118432
 31
0.0
  0
LINE
  5
3F1
102
{ACAD_REACTORS
330
35F
102
}
330
75
100
AcDbEntity
  8
BODENDURCHFÜHRUNGEN
  6
Continuous
100
AcDbLine
 10
-5.8524687186491
 20
-23.31674747118432
 30
0.0
 11
-5.8524687186491
 21
-23.03674747118504
 31
0.0
  0
LINE
  5
3F2
102
{ACAD_REACTORS
330
35F
102
}
330
75
100
AcDbEntity
  8
BODENDURCHFÜHRUNGEN
  6
Continuous
100
AcDbLine
 10
48.62202434135301
 20
-16.58895771944831
 30
0.0
 11
48.90202434135301
 21
-16.58895771944831
 31
0.0
  0
LINE
  5
3F3
102
{ACAD_REACTORS
330
35F
102
}
330
75
100
AcDbEntity
  8
BODENDURCHFÜHRUNGEN
  6
Continuous
100
AcDbLine
 10
48.90202434135301
 20
-16.58895771944831
 30
0.0
 11
48.90202434135301
 21
-16.86895771944759
 31
0.0
  0
LINE
  5
3F4
102
{ACAD_REACTORS
330
35F
102
}
330
75
100
AcDbEntity
  8
BODENDURCHFÜHRUNGEN
  6
Continuous
100
AcDbLine
 10
48.90202434135301
 20
-16.86895771944759
 30
0.0
 11
48.62202434135301
 21
-16.86895771944759
 31
0.0
  0
LINE
  5
3F5
102
{ACAD_REACTORS
330
35F
102
}
330
75
100
AcDbEntity
  8
BODENDURCHFÜHRUNGEN
  6
Continuous
100
AcDbLine
 10
48.62202434135301
 20
-16.86895771944759
 30
0.0
 11
48.62202434135301
 21
-16.58895771944831
 31
0.0
  0
LINE
  5
3F6
102
{ACAD_REACTORS
330
35F
102
}
330
75
100
AcDbEntity
  8
BODENDURCHFÜHRUNGEN
  6
Continuous
100
AcDbLine
 10
-10.26294094976728
 20
-23.03674747118504
 30
0.0
 11
-9.982940949767282
 21
-23.03674747118504
 31
0.0
  0
LINE
  5
3F7
102
{ACAD_REACTORS
330
35F
102
}
330
75
100
AcDbEntity
  8
BODENDURCHFÜHRUNGEN
  6
Continuous
100
AcDbLine
 10
-9.982940949767282
 20
-23.03674747118504
 30
0.0
 11
-9.982940949767282
 21
-23.31674747118432
 31
0.0
  0
LINE
  5
3F8
102
{ACAD_REACTORS
330
35F
102
}
330
75
100
AcDbEntity
  8
BODENDURCHFÜHRUNGEN
  6
Continuous
100
AcDbLine
 10
-9.982940949767282
 20
-23.31674747118432
 30
0.0
 11
-10.26294094976728
 21
-23.31674747118432
 31
0.0
  0
LINE
  5
3F9
102
{ACAD_REACTORS
330
35F
102
}
330
75
100
AcDbEntity
  8
BODENDURCHFÜHRUNGEN
  6
Continuous
100
AcDbLine
 10
-10.26294094976728
 20
-23.31674747118432
 30
0.0
 11
-10.26294094976728
 21
-23.03674747118504
 31
0.0
  0
LINE
  5
3FA
102
{ACAD_REACTORS
330
35F
102
}
330
75
100
AcDbEntity
  8
BODENDURCHFÜHRUNGEN
  6
Continuous
100
AcDbLine
 10
-5.8524687186491
 20
-13.3527853840912
 30
0.0
 11
-5.5724687186491
 21
-13.3527853840912
 31
0.0
  0
LINE
  5
3FB
102
{ACAD_REACTORS
330
35F
102
}
330
75
100
AcDbEntity
  8
BODENDURCHFÜHRUNGEN
  6
Continuous
100
AcDbLine
 10
-5.5724687186491
 20
-13.3527853840912
 30
0.0
 11
-5.5724687186491
 21
-13.63278538409049
 31
0.0
  0
LINE
  5
3FC
102
{ACAD_REACTORS
330
35F
102
}
330
75
100
AcDbEntity
  8
BODENDURCHFÜHRUNGEN
  6
Continuous
100
AcDbLine
 10
-5.5724687186491
 20
-13.63278538409049
 30
0.0
 11
-5.8524687186491
 21
-13.63278538409049
 31
0.0
  0
LINE
  5
3FD
102
{ACAD_REACTORS
330
35F
102
}
330
75
100
AcDbEntity
  8
BODENDURCHFÜHRUNGEN
  6
Continuous
100
AcDbLine
 10
-5.8524687186491
 20
-13.63278538409049
 30
0.0
 11
-5.8524687186491
 21
-13.3527853840912
 31
0.0
  0
LINE
  5
3FE
102
{ACAD_REACTORS
330
35F
102
}
330
75
100
AcDbEntity
  8
BODENDURCHFÜHRUNGEN
  6
Continuous
100
AcDbLine
 10
-10.6262456474902
 20
-30.89714284606682
 30
0.0
 11
-10.3462456474902
 21
-30.89714284606682
 31
0.0
  0
LINE
  5
3FF
102
{ACAD_REACTORS
330
35F
102
}
330
75
100
AcDbEntity
  8
BODENDURCHFÜHRUNGEN
  6
Continuous
100
AcDbLine
 10
-10.3462456474902
 20
-30.89714284606682
 30
0.0
 11
-10.3462456474902
 21
-31.17714284606611
 31
0.0
  0
LINE
  5
400
102
{ACAD_REACTORS
330
35F
102
}
330
75
100
AcDbEntity
  8
BODENDURCHFÜHRUNGEN
  6
Continuous
100
AcDbLine
 10
-10.3462456474902
 20
-31.17714284606611
 30
0.0
 11
-10.6262456474902
 21
-31.17714284606611
 31
0.0
  0
LINE
  5
401
102
{ACAD_REACTORS
330
35F
102
}
330
75
100
AcDbEntity
  8
BODENDURCHFÜHRUNGEN
  6
Continuous
100
AcDbLine
 10
-10.6262456474902
 20
-31.17714284606611
 30
0.0
 11
-10.6262456474902
 21
-30.89714284606682
 31
0.0
  0
TEXT
  5
402
102
{ACAD_REACTORS
330
35F
102
}
330
75
100
AcDbEntity
  8
BODENDURCHFÜHRUNGEN
  6
Continuous
100
AcDbText
 10
-9.825493668598381
 20
-31.23714284606642
 30
0.0
 40
0.440501319261206
  1
Bodendurchführung
  7
ARIAL
100
AcDbText
  0
LINE
  5
403
330
75
100
AcDbEntity
  8
UMRISS10
 62
     7
100
AcDbLine
 10
0.3584515522057919
 20
-26.5611565217393
 30
0.0
 11
0.358451552205814
 21
-28.21372093023255
 31
0.0
  0
LINE
  5
404
330
75
100
AcDbEntity
  8
UMRISS10
 62
     7
100
AcDbLine
 10
0.2084515522058028
 20
-26.7251885633538
 30
0.0
 11
0.2084515522058139
 21
-28.21372093023255
 31
0.0
  0
LINE
  5
405
330
75
100
AcDbEntity
  8
UMRISS10
 62
     7
100
AcDbLine
 10
0.2084515522058028
 20
-26.7251885633538
 30
0.0
 11
-3.756008855441718
 21
-26.72518856335381
 31
0.0
  0
LINE
  5
406
330
75
100
AcDbEntity
  8
UMRISS10
 62
     7
100
AcDbLine
 10
0.0667364993402512
 20
-26.5611565217393
 30
0.0
 11
0.0667364993402512
 21
-26.7251885633538
 31
0.0
  0
LINE
  5
407
330
75
100
AcDbEntity
  8
MOEBEL
 62
     7
100
AcDbLine
 10
0.0167364993402511
 20
-26.73209248785321
 30
0.0
 11
0.0167364993402511
 21
-27.72707992495983
 31
0.0
  0
ARC
  5
408
330
75
100
AcDbEntity
  8
MOEBEL
 62
     7
100
AcDbCircle
 10
-0.0832635006597494
 20
-26.73209248785321
 30
0.0
 40
0.9999999999999998
100
AcDbArc
 50
180.0
 51
275.7391704772668
  0
LINE
  5
409
330
75
100
AcDbEntity
  8
UMRISS10
 62
     7
100
AcDbLine
 10
-1.133263500659754
 20
-26.5611565217393
 30
0.0
 11
-1.133263500659754
 21
-26.7251885633538
 31
0.0
  0
LINE
  5
40A
330
75
100
AcDbEntity
  8
UMRISS10
 62
     7
100
AcDbLine
 10
0.3584515522057919
 20
-26.5611565217393
 30
0.0
 11
-3.606008855441717
 21
-26.5611565217393
 31
0.0
  0
LINE
  5
40B
330
75
100
AcDbEntity
  8
UMRISS10
 62
     7
100
AcDbLine
 10
-3.60600885544174
 20
-24.2240259848253
 30
0.0
 11
-3.606008855441717
 21
-26.5611565217393
 31
0.0
  0
LINE
  5
40C
330
75
100
AcDbEntity
  8
UMRISS10
 62
     7
100
AcDbLine
 10
-3.756008855441741
 20
-24.3880580264398
 30
0.0
 11
-3.756008855441718
 21
-26.72518856335381
 31
0.0
  0
LINE
  5
40D
330
75
100
AcDbEntity
  8
UMRISS10
 62
     7
100
AcDbLine
 10
-3.756008855441741
 20
-24.3880580264398
 30
0.0
 11
-5.345948592411256
 21
-24.38805802643981
 31
0.0
  0
LINE
  5
40E
330
75
100
AcDbEntity
  8
UMRISS10
 62
     7
100
AcDbLine
 10
-3.60600885544174
 20
-24.2240259848253
 30
0.0
 11
-6.022006045109546
 21
-24.2240259848253
 31
0.0
  0
LINE
  5
40F
330
75
100
AcDbEntity
  8
HALLE_0_1_EG
  6
Continuous
100
AcDbLine
 10
0.0405514075887414
 20
-28.21372093023255
 30
0.0
 11
0.2084515522058139
 21
-28.21372093023255
 31
0.0
  0
LINE
  5
410
330
75
100
AcDbEntity
  8
HALLE_0_1_EG
  6
Continuous
100
AcDbLine
 10
0.358451552205814
 20
-28.21372093023255
 30
0.0
 11
23.88455140758874
 21
-28.21372093023255
 31
0.0
  0
ENDSEC
  0
SECTION
  2
OBJECTS
  0
DICTIONARY
  5
C
330
0
100
AcDbDictionary
281
     1
  3
ACAD_COLOR
350
6B
  3
ACAD_GROUP
350
D
  3
ACAD_LAYOUT
350
6A
  3
ACAD_MATERIAL
350
10
  3
ACAD_MLEADERSTYLE
350
6E
  3
ACAD_MLINESTYLE
350
67
  3
ACAD_PLOTSETTINGS
350
69
  3
ACAD_PLOTSTYLENAME
350
E
  3
ACAD_SCALELIST
350
3A
  3
ACAD_TABLESTYLE
350
6C
  3
ACAD_VISUALSTYLE
350
29
  3
ACDB_RECOMPOSE_DATA
350
417
  3
AcDbVariableDictionary
350
411
  0
DICTIONARY
  5
6B
102
{ACAD_REACTORS
330
C
102
}
330
C
100
AcDbDictionary
281
     1
  0
DICTIONARY
  5
D
102
{ACAD_REACTORS
330
C
102
}
330
C
100
AcDbDictionary
281
     1
  3
*A1
350
343
  3
*A2
350
348
  3
*A3
350
34E
  3
*A4
350
353
  3
*A5
350
35A
  3
*A6
350
35F
  0
DICTIONARY
  5
6A
102
{ACAD_REACTORS
330
C
102
}
330
C
100
AcDbDictionary
281
     1
  3
Layout1
350
74
  3
Layout2
350
7C
  3
Model
350
78
  0
DICTIONARY
  5
10
102
{ACAD_REACTORS
330
C
102
}
330
C
100
AcDbDictionary
281
     1
  3
ByBlock
350
19
  3
ByLayer
350
11
  3
Global
350
21
  0
DICTIONARY
  5
6E
102
{ACAD_REACTORS
330
C
102
}
330
C
100
AcDbDictionary
281
     1
  3
Standard
350
6F
  0
DICTIONARY
  5
67
102
{ACAD_REACTORS
330
C
102
}
330
C
100
AcDbDictionary
281
     1
  3
Standard
350
68
  0
DICTIONARY
  5
69
102
{ACAD_REACTORS
330
C
102
}
330
C
100
AcDbDictionary
281
     1
  0
ACDBDICTIONARYWDFLT
  5
E
102
{ACAD_REACTORS
330
C
102
}
330
C
100
AcDbDictionary
281
     1
  3
Normal
350
F
100
AcDbDictionaryWithDefault
340
F
  0
DICTIONARY
  5
3A
102
{ACAD_REACTORS
330
C
102
}
330
C
100
AcDbDictionary
281
     1
  3
A0
350
3B
  3
A1
350
3C
  3
A2
350
3D
  3
A3
350
3E
  3
A4
350
3F
  3
A5
350
40
  3
A6
350
41
  3
A7
350
42
  3
A8
350
43
  3
A9
350
44
  3
B0
350
45
  3
B1
350
46
  3
B2
350
47
  3
B3
350
48
  3
B4
350
49
  3
B5
350
4A
  3
B6
350
4B
  3
B7
350
4C
  3
B8
350
4D
  3
B9
350
4E
  3
C0
350
4F
  3
C1
350
50
  3
C2
350
51
  3
C3
350
52
  3
C4
350
53
  3
C5
350
54
  3
C6
350
55
  3
C7
350
56
  3
C8
350
57
  3
C9
350
58
  3
D0
350
59
  3
D1
350
5A
  3
D2
350
5B
  0
DICTIONARY
  5
6C
102
{ACAD_REACTORS
330
C
102
}
330
C
100
AcDbDictionary
281
     1
  3
Standard
350
6D
  0
DICTIONARY
  5
29
102
{ACAD_REACTORS
330
C
102
}
330
C
100
AcDbDictionary
281
     1
  3
2dWireframe
350
2F
  3
3D Hidden
350
31
  3
3dWireframe
350
30
  3
Basic
350
2E
  3
Brighten
350
35
  3
ColorChange
350
39
  3
Conceptual
350
32
  3
Dim
350
34
  3
Facepattern
350
38
  3
Flat
350
2A
  3
FlatWithEdges
350
2B
  3
Gouraud
350
2C
  3
GouraudWithEdges
350
2D
  3
Linepattern
350
37
  3
Realistic
350
33
  3
Thicken
350
36
  0
XRECORD
  5
417
102
{ACAD_REACTORS
330
C
102
}
330
C
100
AcDbXrecord
280
     1
 90
        1
330
6D
  0
DICTIONARY
  5
411
102
{ACAD_REACTORS
330
C
102
}
330
C
100
AcDbDictionary
281
     1
  3
CANNOSCALE
350
414
  3
CMLEADERSTYLE
350
413
  3
CTABLESTYLE
350
412
  0
GROUP
  5
343
102
{ACAD_REACTORS
330
D
102
}
330
D
100
AcDbGroup
300

 70
     0
 71
     1
340
344
340
345
340
346
340
347
  0
GROUP
  5
348
102
{ACAD_REACTORS
330
D
102
}
330
D
100
AcDbGroup
300

 70
     0
 71
     1
340
349
340
34A
340
34B
340
34C
  0
GROUP
  5
34E
102
{ACAD_REACTORS
330
D
102
}
330
D
100
AcDbGroup
300

 70
     0
 71
     1
340
34F
340
350
340
351
340
352
  0
GROUP
  5
353
102
{ACAD_REACTORS
330
D
102
}
330
D
100
AcDbGroup
300

 70
     0
 71
     1
340
354
340
355
340
356
340
357
  0
GROUP
  5
35A
102
{ACAD_REACTORS
330
D
102
}
330
D
100
AcDbGroup
300

 70
     0
 71
     1
340
35B
340
35C
340
35D
340
35E
  0
GROUP
  5
35F
102
{ACAD_REACTORS
330
D
102
}
330
D
100
AcDbGroup
300

 70
     0
 71
     1
340
360
340
361
340
362
340
363
340
364
340
365
340
366
340
367
340
368
340
369
340
36A
340
36B
340
36C
340
36D
340
36E
340
36F
340
370
340
371
340
372
340
373
340
374
340
375
340
376
340
377
340
378
340
379
340
37A
340
37B
340
37C
340
37D
340
37E
340
37F
340
380
340
381
340
382
340
383
340
384
340
385
340
386
340
387
340
388
340
389
340
38A
340
38B
340
38C
340
38D
340
38E
340
38F
340
390
340
391
340
392
340
393
340
394
340
395
340
396
340
397
340
398
340
399
340
39A
340
39B
340
39C
340
39D
340
39E
340
39F
340
3A0
340
3A1
340
3A2
340
3A3
340
3A4
340
3A5
340
3A6
340
3A7
340
3A8
340
3A9
340
3AA
340
3AB
340
3AC
340
3AD
340
3AE
340
3AF
340
3B0
340
3B1
340
3B2
340
3B3
340
3B4
340
3B5
340
3B6
340
3B7
340
3B8
340
3B9
340
3BA
340
3BB
340
3BC
340
3BD
340
3BE
340
3BF
340
3C0
340
3C1
340
3C2
340
3C3
340
3C4
340
3C5
340
3C6
340
3C7
340
3C8
340
3C9
340
3CA
340
3CB
340
3CC
340
3CD
340
3CE
340
3CF
340
3D0
340
3D1
340
3D2
340
3D3
340
3D4
340
3D5
340
3D6
340
3D7
340
3D8
340
3D9
340
3DA
340
3DB
340
3DC
340
3DD
340
3DE
340
3DF
340
3E0
340
3E1
340
3E2
340
3E3
340
3E4
340
3E5
340
3E6
340
3E7
340
3E8
340
3E9
340
3EA
340
3EB
340
3EC
340
3ED
340
3EE
340
3EF
340
3F0
340
3F1
340
3F2
340
3F3
340
3F4
340
3F5
340
3F6
340
3F7
340
3F8
340
3F9
340
3FA
340
3FB
340
3FC
340
3FD
340
3FE
340
3FF
340
400
340
401
340
402
  0
LAYOUT
  5
74
102
{ACAD_REACTORS
330
6A
102
}
330
6A
100
AcDbPlotSettings
  1

  2

  4

  6

 40
0.0
 41
0.0
 42
0.0
 43
0.0
 44
0.0
 45
0.0
 46
0.0
 47
0.0
 48
0.0
 49
0.0
140
0.0
141
0.0
142
1.0
143
1.0
 70
   688
 72
     0
 73
     0
 74
     5
  7

 75
    16
147
1.0
 76
     0
 77
     2
 78
   300
148
0.0
149
0.0
100
AcDbLayout
  1
Layout1
 70
     1
 71
     1
 10
0.0
 20
0.0
 11
12.0
 21
9.0
 12
0.0
 22
0.0
 32
0.0
 14
0.0
 24
0.0
 34
0.0
 15
0.0
 25
0.0
 35
0.0
146
0.0
 13
0.0
 23
0.0
 33
0.0
 16
1.0
 26
0.0
 36
0.0
 17
0.0
 27
1.0
 37
0.0
 76
     0
330
71
  0
LAYOUT
  5
7C
102
{ACAD_REACTORS
330
6A
102
}
330
6A
100
AcDbPlotSettings
  1

  2

  4

  6

 40
0.0
 41
0.0
 42
0.0
 43
0.0
 44
0.0
 45
0.0
 46
0.0
 47
0.0
 48
0.0
 49
0.0
140
0.0
141
0.0
142
1.0
143
1.0
 70
   688
 72
     0
 73
     0
 74
     5
  7

 75
    16
147
1.0
 76
     0
 77
     2
 78
   300
148
0.0
149
0.0
100
AcDbLayout
  1
Layout2
 70
     1
 71
     2
 10
0.0
 20
0.0
 11
12.0
 21
9.0
 12
0.0
 22
0.0
 32
0.0
 14
0.0
 24
0.0
 34
0.0
 15
0.0
 25
0.0
 35
0.0
146
0.0
 13
0.0
 23
0.0
 33
0.0
 16
1.0
 26
0.0
 36
0.0
 17
0.0
 27
1.0
 37
0.0
 76
     0
330
79
  0
LAYOUT
  5
78
102
{ACAD_REACTORS
330
6A
102
}
330
6A
100
AcDbPlotSettings
  1

  2

  4

  6

 40
0.0
 41
0.0
 42
0.0
 43
0.0
 44
0.0
 45
0.0
 46
0.0
 47
0.0
 48
0.0
 49
0.0
140
0.0
141
0.0
142
1.0
143
1.0
 70
  1712
 72
     0
 73
     0
 74
     0
  7

 75
     0
147
1.0
 76
     0
 77
     2
 78
   300
148
0.0
149
0.0
100
AcDbLayout
  1
Model
 70
     1
 71
     0
 10
0.0
 20
0.0
 11
12.0
 21
9.0
 12
0.0
 22
0.0
 32
0.0
 14
0.0
 24
0.0
 34
0.0
 15
0.0
 25
0.0
 35
0.0
146
0.0
 13
0.0
 23
0.0
 33
0.0
 16
1.0
 26
0.0
 36
0.0
 17
0.0
 27
1.0
 37
0.0
 76
     0
330
75
  0
MATERIAL
  5
19
102
{ACAD_XDICTIONARY
360
1A
102
}
102
{ACAD_REACTORS
330
10
102
}
330
10
100
AcDbMaterial
  1
ByBlock
 72
     0
 43
0.0208333333333333
 43
0.0
 43
0.0
 43
0.0
 43
0.0
 43
0.0208333333333333
 43
0.0
 43
0.0
 43
0.0
 43
0.0
 43
1.0
 43
0.0
 43
0.0
 43
0.0
 43
0.0
 43
1.0
 77
     0
 47
0.0208333333333333
 47
0.0
 47
0.0
 47
0.0
 47
0.0
 47
0.0208333333333333
 47
0.0
 47
0.0
 47
0.0
 47
0.0
 47
1.0
 47
0.0
 47
0.0
 47
0.0
 47
0.0
 47
1.0
171
     0
 49
0.0208333333333333
 49
0.0
 49
0.0
 49
0.0
 49
0.0
 49
0.0208333333333333
 49
0.0
 49
0.0
 49
0.0
 49
0.0
 49
1.0
 49
0.0
 49
0.0
 49
0.0
 49
0.0
 49
1.0
175
     0
142
0.0208333333333333
142
0.0
142
0.0
142
0.0
142
0.0
142
0.0208333333333333
142
0.0
142
0.0
142
0.0
142
0.0
142
1.0
142
0.0
142
0.0
142
0.0
142
0.0
142
1.0
179
     0
144
0.0208333333333333
144
0.0
144
0.0
144
0.0
144
0.0
144
0.0208333333333333
144
0.0
144
0.0
144
0.0
144
0.0
144
1.0
144
0.0
144
0.0
144
0.0
144
0.0
144
1.0
147
0.0208333333333333
147
0.0
147
0.0
147
0.0
147
0.0
147
0.0208333333333333
147
0.0
147
0.0
147
0.0
147
0.0
147
1.0
147
0.0
147
0.0
147
0.0
147
0.0
147
1.0
  0
MATERIAL
  5
11
102
{ACAD_XDICTIONARY
360
12
102
}
102
{ACAD_REACTORS
330
10
102
}
330
10
100
AcDbMaterial
  1
ByLayer
 72
     0
 43
0.0208333333333333
 43
0.0
 43
0.0
 43
0.0
 43
0.0
 43
0.0208333333333333
 43
0.0
 43
0.0
 43
0.0
 43
0.0
 43
1.0
 43
0.0
 43
0.0
 43
0.0
 43
0.0
 43
1.0
 77
     0
 47
0.0208333333333333
 47
0.0
 47
0.0
 47
0.0
 47
0.0
 47
0.0208333333333333
 47
0.0
 47
0.0
 47
0.0
 47
0.0
 47
1.0
 47
0.0
 47
0.0
 47
0.0
 47
0.0
 47
1.0
171
     0
 49
0.0208333333333333
 49
0.0
 49
0.0
 49
0.0
 49
0.0
 49
0.0208333333333333
 49
0.0
 49
0.0
 49
0.0
 49
0.0
 49
1.0
 49
0.0
 49
0.0
 49
0.0
 49
0.0
 49
1.0
175
     0
142
0.0208333333333333
142
0.0
142
0.0
142
0.0
142
0.0
142
0.0208333333333333
142
0.0
142
0.0
142
0.0
142
0.0
142
1.0
142
0.0
142
0.0
142
0.0
142
0.0
142
1.0
179
     0
144
0.0208333333333333
144
0.0
144
0.0
144
0.0
144
0.0
144
0.0208333333333333
144
0.0
144
0.0
144
0.0
144
0.0
144
1.0
144
0.0
144
0.0
144
0.0
144
0.0
144
1.0
147
0.0208333333333333
147
0.0
147
0.0
147
0.0
147
0.0
147
0.0208333333333333
147
0.0
147
0.0
147
0.0
147
0.0
147
1.0
147
0.0
147
0.0
147
0.0
147
0.0
147
1.0
  0
MATERIAL
  5
21
102
{ACAD_XDICTIONARY
360
22
102
}
102
{ACAD_REACTORS
330
10
102
}
330
10
100
AcDbMaterial
  1
Global
 72
     0
 43
0.0208333333333333
 43
0.0
 43
0.0
 43
0.0
 43
0.0
 43
0.0208333333333333
 43
0.0
 43
0.0
 43
0.0
 43
0.0
 43
1.0
 43
0.0
 43
0.0
 43
0.0
 43
0.0
 43
1.0
 77
     0
 47
0.0208333333333333
 47
0.0
 47
0.0
 47
0.0
 47
0.0
 47
0.0208333333333333
 47
0.0
 47
0.0
 47
0.0
 47
0.0
 47
1.0
 47
0.0
 47
0.0
 47
0.0
 47
0.0
 47
1.0
171
     0
 49
0.0208333333333333
 49
0.0
 49
0.0
 49
0.0
 49
0.0
 49
0.0208333333333333
 49
0.0
 49
0.0
 49
0.0
 49
0.0
 49
1.0
 49
0.0
 49
0.0
 49
0.0
 49
0.0
 49
1.0
175
     0
142
0.0208333333333333
142
0.0
142
0.0
142
0.0
142
0.0
142
0.0208333333333333
142
0.0
142
0.0
142
0.0
142
0.0
142
1.0
142
0.0
142
0.0
142
0.0
142
0.0
142
1.0
179
     0
144
0.0208333333333333
144
0.0
144
0.0
144
0.0
144
0.0
144
0.0208333333333333
144
0.0
144
0.0
144
0.0
144
0.0
144
1.0
144
0.0
144
0.0
144
0.0
144
0.0
144
1.0
147
0.0208333333333333
147
0.0
147
0.0
147
0.0
147
0.0
147
0.0208333333333333
147
0.0
147
0.0
147
0.0
147
0.0
147
1.0
147
0.0
147
0.0
147
0.0
147
0.0
147
1.0
  0
MLEADERSTYLE
  5
6F
102
{ACAD_REACTORS
330
6E
102
}
330
6E
100
AcDbMLeaderStyle
170
     2
171
     1
172
     0
 90
        2
 40
0.0
 41
0.0
173
     1
 91
-1056964608
340
63
 92
       -2
290
     1
 42
0.09
291
     1
 43
0.36
  3
Standard
 44
0.18
300

342
5D
174
     1
178
     6
175
     1
176
     0
 93
-1056964608
 45
0.18
292
     0
297
     0
 46
0.18
 94
-1056964608
 47
1.0
 49
1.0
140
1.0
293
     1
141
0.0
294
     1
177
     0
142
1.0
295
     1
296
     0
143
0.125
1001
ACAD_MLEADERVER
1070
     2
  0
MLINESTYLE
  5
68
102
{ACAD_REACTORS
330
67
102
}
330
67
100
AcDbMlineStyle
  2
STANDARD
 70
     0
  3

 62
   256
 51
90.0
 52
90.0
 71
     2
 49
0.5
 62
   256
  6
BYLAYER
 49
-0.5
 62
   256
  6
BYLAYER
  0
ACDBPLACEHOLDER
  5
F
102
{ACAD_REACTORS
330
E
102
}
330
E
  0
SCALE
  5
3B
102
{ACAD_REACTORS
330
3A
102
}
330
3A
100
AcDbScale
 70
     0
300
1:1
140
1.0
141
1.0
290
     1
  0
SCALE
  5
3C
102
{ACAD_REACTORS
330
3A
102
}
330
3A
100
AcDbScale
 70
     0
300
1:2
140
1.0
141
2.0
290
     0
  0
SCALE
  5
3D
102
{ACAD_REACTORS
330
3A
102
}
330
3A
100
AcDbScale
 70
     0
300
1:4
140
1.0
141
4.0
290
     0
  0
SCALE
  5
3E
102
{ACAD_REACTORS
330
3A
102
}
330
3A
100
AcDbScale
 70
     0
300
1:5
140
1.0
141
5.0
290
     0
  0
SCALE
  5
3F
102
{ACAD_REACTORS
330
3A
102
}
330
3A
100
AcDbScale
 70
     0
300
1:8
140
1.0
141
8.0
290
     0
  0
SCALE
  5
40
102
{ACAD_REACTORS
330
3A
102
}
330
3A
100
AcDbScale
 70
     0
300
1:10
140
1.0
141
10.0
290
     0
  0
SCALE
  5
41
102
{ACAD_REACTORS
330
3A
102
}
330
3A
100
AcDbScale
 70
     0
300
1:16
140
1.0
141
16.0
290
     0
  0
SCALE
  5
42
102
{ACAD_REACTORS
330
3A
102
}
330
3A
100
AcDbScale
 70
     0
300
1:20
140
1.0
141
20.0
290
     0
  0
SCALE
  5
43
102
{ACAD_REACTORS
330
3A
102
}
330
3A
100
AcDbScale
 70
     0
300
1:30
140
1.0
141
30.0
290
     0
  0
SCALE
  5
44
102
{ACAD_REACTORS
330
3A
102
}
330
3A
100
AcDbScale
 70
     0
300
1:40
140
1.0
141
40.0
290
     0
  0
SCALE
  5
45
102
{ACAD_REACTORS
330
3A
102
}
330
3A
100
AcDbScale
 70
     0
300
1:50
140
1.0
141
50.0
290
     0
  0
SCALE
  5
46
102
{ACAD_REACTORS
330
3A
102
}
330
3A
100
AcDbScale
 70
     0
300
1:100
140
1.0
141
100.0
290
     0
  0
SCALE
  5
47
102
{ACAD_REACTORS
330
3A
102
}
330
3A
100
AcDbScale
 70
     0
300
2:1
140
2.0
141
1.0
290
     0
  0
SCALE
  5
48
102
{ACAD_REACTORS
330
3A
102
}
330
3A
100
AcDbScale
 70
     0
300
4:1
140
4.0
141
1.0
290
     0
  0
SCALE
  5
49
102
{ACAD_REACTORS
330
3A
102
}
330
3A
100
AcDbScale
 70
     0
300
8:1
140
8.0
141
1.0
290
     0
  0
SCALE
  5
4A
102
{ACAD_REACTORS
330
3A
102
}
330
3A
100
AcDbScale
 70
     0
300
10:1
140
10.0
141
1.0
290
     0
  0
SCALE
  5
4B
102
{ACAD_REACTORS
330
3A
102
}
330
3A
100
AcDbScale
 70
     0
300
100:1
140
100.0
141
1.0
290
     0
  0
SCALE
  5
4C
102
{ACAD_REACTORS
330
3A
102
}
330
3A
100
AcDbScale
 70
     0
300
1/128" = 1'-0"
140
0.0078125
141
12.0
290
     0
  0
SCALE
  5
4D
102
{ACAD_REACTORS
330
3A
102
}
330
3A
100
AcDbScale
 70
     0
300
1/64" = 1'-0"
140
0.015625
141
12.0
290
     0
  0
SCALE
  5
4E
102
{ACAD_REACTORS
330
3A
102
}
330
3A
100
AcDbScale
 70
     0
300
1/32" = 1'-0"
140
0.03125
141
12.0
290
     0
  0
SCALE
  5
4F
102
{ACAD_REACTORS
330
3A
102
}
330
3A
100
AcDbScale
 70
     0
300
1/16" = 1'-0"
140
0.0625
141
12.0
290
     0
  0
SCALE
  5
50
102
{ACAD_REACTORS
330
3A
102
}
330
3A
100
AcDbScale
 70
     0
300
3/32" = 1'-0"
140
0.09375
141
12.0
290
     0
  0
SCALE
  5
51
102
{ACAD_REACTORS
330
3A
102
}
330
3A
100
AcDbScale
 70
     0
300
1/8" = 1'-0"
140
0.125
141
12.0
290
     0
  0
SCALE
  5
52
102
{ACAD_REACTORS
330
3A
102
}
330
3A
100
AcDbScale
 70
     0
300
3/16" = 1'-0"
140
0.1875
141
12.0
290
     0
  0
SCALE
  5
53
102
{ACAD_REACTORS
330
3A
102
}
330
3A
100
AcDbScale
 70
     0
300
1/4" = 1'-0"
140
0.25
141
12.0
290
     0
  0
SCALE
  5
54
102
{ACAD_REACTORS
330
3A
102
}
330
3A
100
AcDbScale
 70
     0
300
3/8" = 1'-0"
140
0.375
141
12.0
290
     0
  0
SCALE
  5
55
102
{ACAD_REACTORS
330
3A
102
}
330
3A
100
AcDbScale
 70
     0
300
1/2" = 1'-0"
140
0.5
141
12.0
290
     0
  0
SCALE
  5
56
102
{ACAD_REACTORS
330
3A
102
}
330
3A
100
AcDbScale
 70
     0
300
3/4" = 1'-0"
140
0.75
141
12.0
290
     0
  0
SCALE
  5
57
102
{ACAD_REACTORS
330
3A
102
}
330
3A
100
AcDbScale
 70
     0
300
1" = 1'-0"
140
1.0
141
12.0
290
     0
  0
SCALE
  5
58
102
{ACAD_REACTORS
330
3A
102
}
330
3A
100
AcDbScale
 70
     0
300
1-1/2" = 1'-0"
140
1.5
141
12.0
290
     0
  0
SCALE
  5
59
102
{ACAD_REACTORS
330
3A
102
}
330
3A
100
AcDbScale
 70
     0
300
3" = 1'-0"
140
3.0
141
12.0
290
     0
  0
SCALE
  5
5A
102
{ACAD_REACTORS
330
3A
102
}
330
3A
100
AcDbScale
 70
     0
300
6" = 1'-0"
140
6.0
141
12.0
290
     0
  0
SCALE
  5
5B
102
{ACAD_REACTORS
330
3A
102
}
330
3A
100
AcDbScale
 70
     0
300
1'-0" = 1'-0"
140
12.0
141
12.0
290
     0
  0
TABLESTYLE
  5
6D
102
{ACAD_XDICTIONARY
360
415
102
}
102
{ACAD_REACTORS
330
6C
102
}
330
6C
100
AcDbTableStyle
  3
Standard
 70
     0
 71
     0
 40
0.06
 41
0.06
280
     0
281
     0
  7
Standard
140
0.18
170
     2
 62
     0
 63
     7
283
     0
 90
      512
 91
        0
  1

274
    -2
284
     1
 64
     0
275
    -2
285
     1
 65
     0
276
    -2
286
     1
 66
     0
277
    -2
287
     1
 67
     0
278
    -2
288
     1
 68
     0
279
    -2
289
     1
 69
     0
  7
Standard
140
0.25
170
     5
 62
     0
 63
     7
283
     0
 90
      512
 91
        0
  1

274
    -2
284
     1
 64
     0
275
    -2
285
     1
 65
     0
276
    -2
286
     1
 66
     0
277
    -2
287
     1
 67
     0
278
    -2
288
     1
 68
     0
279
    -2
289
     1
 69
     0
  7
Standard
140
0.18
170
     5
 62
     0
 63
     7
283
     0
 90
      512
 91
        0
  1

274
    -2
284
     1
 64
     0
275
    -2
285
     1
 65
     0
276
    -2
286
     1
 66
     0
277
    -2
287
     1
 67
     0
278
    -2
288
     1
 68
     0
279
    -2
289
     1
 69
     0
  0
VISUALSTYLE
  5
2F
102
{ACAD_REACTORS
330
29
102
}
330
29
100
AcDbVisualStyle
  2
2dWireframe
 70
     4
 71
     0
 72
     2
 73
     0
 90
        0
 40
-0.6
 41
-30.0
 62
     5
 63
     7
421
 16777215
 74
     1
 91
        4
 64
     7
 65
   257
 75
     1
175
     1
 42
1.0
 92
        0
 66
   257
 43
1.0
 76
     1
 77
     6
 78
     2
 67
     7
 79
     5
170
     0
171
     0
290
     0
174
     0
 93
        1
 44
0.0
173
     0
291
     0
 45
0.0
  0
VISUALSTYLE
  5
31
102
{ACAD_REACTORS
330
29
102
}
330
29
100
AcDbVisualStyle
  2
3D Hidden
 70
     6
 71
     1
 72
     2
 73
     2
 90
        0
 40
-0.6
 41
-30.0
 62
     5
 63
     7
421
 16777215
 74
     2
 91
        2
 64
     7
 65
   257
 75
     2
175
     1
 42
40.0
 92
        0
 66
   257
 43
1.0
 76
     1
 77
     6
 78
     2
 67
     7
 79
     3
170
     0
171
     0
290
     0
174
     0
 93
        1
 44
0.0
173
     0
291
     0
 45
0.0
  0
VISUALSTYLE
  5
30
102
{ACAD_REACTORS
330
29
102
}
330
29
100
AcDbVisualStyle
  2
3dWireframe
 70
     5
 71
     0
 72
     2
 73
     0
 90
        0
 40
-0.6
 41
-30.0
 62
     5
 63
     7
421
 16777215
 74
     1
 91
        4
 64
     7
 65
   257
 75
     1
175
     1
 42
1.0
 92
        0
 66
   257
 43
1.0
 76
     1
 77
     6
 78
     2
 67
     7
 79
     5
170
     0
171
     0
290
     0
174
     0
 93
        1
 44
0.0
173
     0
291
     0
 45
0.0
  0
VISUALSTYLE
  5
2E
102
{ACAD_REACTORS
330
29
102
}
330
29
100
AcDbVisualStyle
  2
Basic
 70
     7
 71
     1
 72
     0
 73
     1
 90
        0
 40
-0.6
 41
-30.0
 62
     5
 63
     7
421
 16777215
 74
     0
 91
        4
 64
     7
 65
   257
 75
     1
175
     1
 42
1.0
 92
        8
 66
     7
 43
1.0
 76
     1
 77
     6
 78
     2
 67
     7
 79
     5
170
     0
171
     0
290
     0
174
     0
 93
        1
 44
0.0
173
     0
291
     1
 45
0.0
  0
VISUALSTYLE
  5
35
102
{ACAD_REACTORS
330
29
102
}
330
29
100
AcDbVisualStyle
  2
Brighten
 70
    12
 71
     2
 72
     2
 73
     0
 90
        0
 40
-0.6
 41
-30.0
 62
     5
 63
     7
421
 16777215
 74
     1
 91
        4
 64
     7
 65
   257
 75
     1
175
     1
 42
1.0
 92
        8
 66
     7
 43
1.0
 76
     1
 77
     6
 78
     2
 67
     7
 79
     5
170
     0
171
     0
290
     0
174
     0
 93
        1
 44
50.0
173
     0
291
     1
 45
0.0
  0
VISUALSTYLE
  5
39
102
{ACAD_REACTORS
330
29
102
}
330
29
100
AcDbVisualStyle
  2
ColorChange
 70
    16
 71
     2
 72
     2
 73
     3
 90
        0
 40
-0.6
 41
-30.0
 62
     5
 63
     8
421
  8421504
 74
     1
 91
        4
 64
     7
 65
   257
 75
     1
175
     1
 42
1.0
 92
        8
 66
     8
424
  8421504
 43
1.0
 76
     1
 77
     6
 78
     2
 67
     7
 79
     5
170
     0
171
     0
290
     0
174
     0
 93
        1
 44
0.0
173
     0
291
     1
 45
0.0
  0
VISUALSTYLE
  5
32
102
{ACAD_REACTORS
330
29
102
}
330
29
100
AcDbVisualStyle
  2
Conceptual
 70
     9
 71
     3
 72
     2
 73
     0
 90
        0
 40
-0.6
 41
-30.0
 62
     5
 63
     7
421
 16777215
 74
     2
 91
        2
 64
     7
 65
   257
 75
     1
175
     1
 42
40.0
 92
        8
 66
     7
 43
1.0
 76
     1
 77
     6
 78
     2
 67
     7
 79
     3
170
     0
171
     0
290
     0
174
     0
 93
        1
 44
0.0
173
     0
291
     0
 45
0.0
  0
VISUALSTYLE
  5
34
102
{ACAD_REACTORS
330
29
102
}
330
29
100
AcDbVisualStyle
  2
Dim
 70
    11
 71
     2
 72
     2
 73
     0
 90
        0
 40
-0.6
 41
-30.0
 62
     5
 63
     7
421
 16777215
 74
     1
 91
        4
 64
     7
 65
   257
 75
     1
175
     1
 42
1.0
 92
        8
 66
     7
 43
1.0
 76
     1
 77
     6
 78
     2
 67
     7
 79
     5
170
     0
171
     0
290
     0
174
     0
 93
        1
 44
-50.0
173
     0
291
     1
 45
0.0
  0
VISUALSTYLE
  5
38
102
{ACAD_REACTORS
330
29
102
}
330
29
100
AcDbVisualStyle
  2
Facepattern
 70
    15
 71
     2
 72
     2
 73
     0
 90
        0
 40
-0.6
 41
-30.0
 62
     5
 63
     7
421
 16777215
 74
     1
 91
        4
 64
     7
 65
   257
 75
     1
175
     1
 42
1.0
 92
        8
 66
     7
 43
1.0
 76
     1
 77
     6
 78
     2
 67
     7
 79
     5
170
     0
171
     0
290
     0
174
     0
 93
        1
 44
0.0
173
     0
291
     1
 45
0.0
  0
VISUALSTYLE
  5
2A
102
{ACAD_REACTORS
330
29
102
}
330
29
100
AcDbVisualStyle
  2
Flat
 70
     0
 71
     2
 72
     1
 73
     1
 90
        2
 40
-0.6
 41
30.0
 62
     5
 63
     7
421
 16777215
 74
     0
 91
        4
 64
     7
 65
   257
 75
     1
175
     1
 42
1.0
 92
        8
 66
     7
 43
1.0
 76
     1
 77
     6
 78
     2
 67
     7
 79
     5
170
     0
171
     0
290
     0
174
     0
 93
       13
 44
0.0
173
     0
291
     1
 45
0.0
  0
VISUALSTYLE
  5
2B
102
{ACAD_REACTORS
330
29
102
}
330
29
100
AcDbVisualStyle
  2
FlatWithEdges
 70
     1
 71
     2
 72
     1
 73
     1
 90
        2
 40
-0.6
 41
30.0
 62
     5
 63
     7
421
 16777215
 74
     1
 91
        4
 64
     7
 65
   257
 75
     1
175
     1
 42
1.0
 92
        0
 66
   257
 43
1.0
 76
     1
 77
     6
 78
     2
 67
     7
 79
     5
170
     0
171
     0
290
     0
174
     0
 93
       13
 44
0.0
173
     0
291
     1
 45
0.0
  0
VISUALSTYLE
  5
2C
102
{ACAD_REACTORS
330
29
102
}
330
29
100
AcDbVisualStyle
  2
Gouraud
 70
     2
 71
     2
 72
     2
 73
     1
 90
        2
 40
-0.6
 41
30.0
 62
     5
 63
     7
421
 16777215
 74
     0
 91
        4
 64
     7
 65
   257
 75
     1
175
     1
 42
1.0
 92
        0
 66
     7
 43
1.0
 76
     1
 77
     6
 78
     2
 67
     7
 79
     5
170
     0
171
     0
290
     0
174
     0
 93
       13
 44
0.0
173
     0
291
     1
 45
0.0
  0
VISUALSTYLE
  5
2D
102
{ACAD_REACTORS
330
29
102
}
330
29
100
AcDbVisualStyle
  2
GouraudWithEdges
 70
     3
 71
     2
 72
     2
 73
     1
 90
        2
 40
-0.6
 41
30.0
 62
     5
 63
     7
421
 16777215
 74
     1
 91
        4
 64
     7
 65
   257
 75
     1
175
     1
 42
1.0
 92
        0
 66
   257
 43
1.0
 76
     1
 77
     6
 78
     2
 67
     7
 79
     5
170
     0
171
     0
290
     0
174
     0
 93
       13
 44
0.0
173
     0
291
     1
 45
0.0
  0
VISUALSTYLE
  5
37
102
{ACAD_REACTORS
330
29
102
}
330
29
100
AcDbVisualStyle
  2
Linepattern
 70
    14
 71
     2
 72
     2
 73
     0
 90
        0
 40
-0.6
 41
-30.0
 62
     5
 63
     7
421
 16777215
 74
     1
 91
        4
 64
     7
 65
   257
 75
     7
175
     7
 42
1.0
 92
        8
 66
     7
 43
1.0
 76
     1
 77
     6
 78
     2
 67
     7
 79
     5
170
     0
171
     0
290
     0
174
     0
 93
        1
 44
0.0
173
     0
291
     1
 45
0.0
  0
VISUALSTYLE
  5
33
102
{ACAD_REACTORS
330
29
102
}
330
29
100
AcDbVisualStyle
  2
Realistic
 70
     8
 71
     2
 72
     2
 73
     0
 90
        0
 40
-0.6
 41
-30.0
 62
     5
 63
     7
421
 16777215
 74
     1
 91
        0
 64
     7
 65
   257
 75
     1
175
     1
 42
1.0
 92
        8
 66
     8
424
  7895160
 43
1.0
 76
     1
 77
     6
 78
     2
 67
     7
 79
     5
170
     0
171
     0
290
     0
174
     0
 93
       13
 44
0.0
173
     0
291
     0
 45
0.0
  0
VISUALSTYLE
  5
36
102
{ACAD_REACTORS
330
29
102
}
330
29
100
AcDbVisualStyle
  2
Thicken
 70
    13
 71
     2
 72
     2
 73
     0
 90
        0
 40
-0.6
 41
-30.0
 62
     5
 63
     7
421
 16777215
 74
     1
 91
        4
 64
     7
 65
   257
 75
     1
175
     1
 42
1.0
 92
       12
 66
     7
 43
1.0
 76
     1
 77
     6
 78
     2
 67
     7
 79
     5
170
     0
171
     0
290
     0
174
     0
 93
        1
 44
0.0
173
     0
291
     1
 45
0.0
  0
DICTIONARYVAR
  5
414
102
{ACAD_REACTORS
330
411
102
}
330
411
100
DictionaryVariables
280
     0
  1
1:1
  0
DICTIONARYVAR
  5
413
102
{ACAD_REACTORS
330
411
102
}
330
411
100
DictionaryVariables
280
     0
  1
STANDARD
  0
DICTIONARYVAR
  5
412
102
{ACAD_REACTORS
330
411
102
}
330
411
100
DictionaryVariables
280
     0
  1
STANDARD
  0
DICTIONARY
  5
1A
330
19
100
AcDbDictionary
280
     1
281
     1
  3
BUMPTILE
360
1C
  3
DIFFUSETILE
360
1B
  3
OPACITYTILE
360
1F
  3
REFLECTIONTILE
360
1E
  3
REFRACTIONTILE
360
20
  3
SPECULARTILE
360
1D
  0
DICTIONARY
  5
12
330
11
100
AcDbDictionary
280
     1
281
     1
  3
BUMPTILE
360
14
  3
DIFFUSETILE
360
13
  3
OPACITYTILE
360
17
  3
REFLECTIONTILE
360
16
  3
REFRACTIONTILE
360
18
  3
SPECULARTILE
360
15
  0
DICTIONARY
  5
22
330
21
100
AcDbDictionary
280
     1
281
     1
  3
BUMPTILE
360
24
  3
DIFFUSETILE
360
23
  3
OPACITYTILE
360
27
  3
REFLECTIONTILE
360
26
  3
REFRACTIONTILE
360
28
  3
SPECULARTILE
360
25
  0
DICTIONARY
  5
415
330
6D
100
AcDbDictionary
280
     1
281
     1
  3
ACAD_ROUNDTRIP_2008_TABLESTYLE_CELLSTYLEMAP
360
416
  0
XRECORD
  5
1C
102
{ACAD_REACTORS
330
1A
102
}
330
1A
100
AcDbXrecord
280
     1
270
     1
271
     1
  0
XRECORD
  5
1B
102
{ACAD_REACTORS
330
1A
102
}
330
1A
100
AcDbXrecord
280
     1
270
     1
271
     1
  0
XRECORD
  5
1F
102
{ACAD_REACTORS
330
1A
102
}
330
1A
100
AcDbXrecord
280
     1
270
     1
271
     1
  0
XRECORD
  5
1E
102
{ACAD_REACTORS
330
1A
102
}
330
1A
100
AcDbXrecord
280
     1
270
     1
271
     1
  0
XRECORD
  5
20
102
{ACAD_REACTORS
330
1A
102
}
330
1A
100
AcDbXrecord
280
     1
270
     1
271
     1
  0
XRECORD
  5
1D
102
{ACAD_REACTORS
330
1A
102
}
330
1A
100
AcDbXrecord
280
     1
270
     1
271
     1
  0
XRECORD
  5
14
102
{ACAD_REACTORS
330
12
102
}
330
12
100
AcDbXrecord
280
     1
270
     1
271
     1
  0
XRECORD
  5
13
102
{ACAD_REACTORS
330
12
102
}
330
12
100
AcDbXrecord
280
     1
270
     1
271
     1
  0
XRECORD
  5
17
102
{ACAD_REACTORS
330
12
102
}
330
12
100
AcDbXrecord
280
     1
270
     1
271
     1
  0
XRECORD
  5
16
102
{ACAD_REACTORS
330
12
102
}
330
12
100
AcDbXrecord
280
     1
270
     1
271
     1
  0
XRECORD
  5
18
102
{ACAD_REACTORS
330
12
102
}
330
12
100
AcDbXrecord
280
     1
270
     1
271
     1
  0
XRECORD
  5
15
102
{ACAD_REACTORS
330
12
102
}
330
12
100
AcDbXrecord
280
     1
270
     1
271
     1
  0
XRECORD
  5
24
102
{ACAD_REACTORS
330
22
102
}
330
22
100
AcDbXrecord
280
     1
270
     1
271
     1
  0
XRECORD
  5
23
102
{ACAD_REACTORS
330
22
102
}
330
22
100
AcDbXrecord
280
     1
270
     1
271
     1
  0
XRECORD
  5
27
102
{ACAD_REACTORS
330
22
102
}
330
22
100
AcDbXrecord
280
     1
270
     1
271
     1
  0
XRECORD
  5
26
102
{ACAD_REACTORS
330
22
102
}
330
22
100
AcDbXrecord
280
     1
270
     1
271
     1
  0
XRECORD
  5
28
102
{ACAD_REACTORS
330
22
102
}
330
22
100
AcDbXrecord
280
     1
270
     1
271
     1
  0
XRECORD
  5
25
102
{ACAD_REACTORS
330
22
102
}
330
22
100
AcDbXrecord
280
     1
270
     1
271
     1
  0
CELLSTYLEMAP
  5
416
102
{ACAD_REACTORS
330
415
102
}
330
415
100
AcDbCellStyleMap
 90
        3
300
CELLSTYLE
  1
TABLEFORMAT_BEGIN
 90
        5
170
     1
 91
        0
 92
    32768
 62
   257
 93
        1
300
CONTENTFORMAT
  1
CONTENTFORMAT_BEGIN
 90
        0
 91
        0
 92
      512
 93
        0
300

 40
0.0
140
1.0
 94
        5
 62
     0
340
5D
144
0.25
309
CONTENTFORMAT_END
171
     0
 94
        0
309
TABLEFORMAT_END
  1
CELLSTYLE_BEGIN
 90
        1
 91
        1
300
_TITLE
309
CELLSTYLE_END
300
CELLSTYLE
  1
TABLEFORMAT_BEGIN
 90
        5
170
     1
 91
        0
 92
        0
 62
   257
 93
        1
300
CONTENTFORMAT
  1
CONTENTFORMAT_BEGIN
 90
        0
 91
        0
 92
      512
 93
        0
300

 40
0.0
140
1.0
 94
        5
 62
     0
340
5D
144
0.18
309
CONTENTFORMAT_END
171
     0
 94
        0
309
TABLEFORMAT_END
  1
CELLSTYLE_BEGIN
 90
        2
 91
        1
300
_HEADER
309
CELLSTYLE_END
300
CELLSTYLE
  1
TABLEFORMAT_BEGIN
 90
        5
170
     1
 91
        0
 92
        0
 62
   257
 93
        1
300
CONTENTFORMAT
  1
CONTENTFORMAT_BEGIN
 90
        0
 91
        0
 92
      512
 93
        0
300

 40
0.0
140
1.0
 94
        2
 62
     0
340
5D
144
0.18
309
CONTENTFORMAT_END
171
     0
 94
        0
309
TABLEFORMAT_END
  1
CELLSTYLE_BEGIN
 90
        3
 91
        2
300
_DATA
309
CELLSTYLE_END
  0
ENDSEC
  0
EOF
