  0
SECTION
  2
HEADER
  9
$ACADVER
  1
AC1021
  9
$ACADMAINTVER
 70
    50
  9
$DWGCODEPAGE
  3
ANSI_1252
  9
$INSBASE
 10
0.0
 20
0.0
 30
0.0
  9
$EXTMIN
 10
-19.60035429419971
 20
-63.50112746613579
 30
-0.00000001
  9
$EXTMAX
 10
47.23000000938715
 20
26.98954077388983
 30
0.000000010254
  9
$LIMMIN
 10
-899.9919059237598
 20
-2723.456671526969
  9
$LIMMAX
 10
1993.708881477814
 20
1369.063013512401
  9
$ORTHOMODE
 70
     0
  9
$REGENMODE
 70
     1
  9
$FILLMODE
 70
     1
  9
$QTEXTMODE
 70
     0
  9
$MIRRTEXT
 70
     0
  9
$LTSCALE
 40
0.254
  9
$ATTMODE
 70
     1
  9
$TEXTSIZE
 40
1.75
  9
$TRACEWID
 40
0.05
  9
$TEXTSTYLE
  7
Standard
  9
$CLAYER
  8
0
  9
$CELTYPE
  6
ByLayer
  9
$CECOLOR
 62
   256
  9
$CELTSCALE
 40
1.0
  9
$DISPSILH
 70
     0
  9
$DIMSCALE
 40
1.0
  9
$DIMASZ
 40
0.18
  9
$DIMEXO
 40
0.0625
  9
$DIMDLI
 40
0.38
  9
$DIMRND
 40
0.0
  9
$DIMDLE
 40
0.0
  9
$DIMEXE
 40
0.18
  9
$DIMTP
 40
0.0
  9
$DIMTM
 40
0.0
  9
$DIMTXT
 40
55.11811023622048
  9
$DIMCEN
 40
0.09
  9
$DIMTSZ
 40
0.0
  9
$DIMTOL
 70
     0
  9
$DIMLIM
 70
     0
  9
$DIMTIH
 70
     1
  9
$DIMTOH
 70
     1
  9
$DIMSE1
 70
     0
  9
$DIMSE2
 70
     0
  9
$DIMTAD
 70
     0
  9
$DIMZIN
 70
     0
  9
$DIMBLK
  1

  9
$DIMASO
 70
     1
  9
$DIMSHO
 70
     1
  9
$DIMPOST
  1

  9
$DIMAPOST
  1

  9
$DIMALT
 70
     0
  9
$DIMALTD
 70
     2
  9
$DIMALTF
 40
25.4
  9
$DIMLFAC
 40
1.0
  9
$DIMTOFL
 70
     0
  9
$DIMTVP
 40
0.0
  9
$DIMTIX
 70
     0
  9
$DIMSOXD
 70
     0
  9
$DIMSAH
 70
     0
  9
$DIMBLK1
  1

  9
$DIMBLK2
  1

  9
$DIMSTYLE
  2
Standard
  9
$DIMCLRD
 70
     0
  9
$DIMCLRE
 70
     0
  9
$DIMCLRT
 70
     0
  9
$DIMTFAC
 40
1.0
  9
$DIMGAP
 40
0.09
  9
$DIMJUST
 70
     0
  9
$DIMSD1
 70
     0
  9
$DIMSD2
 70
     0
  9
$DIMTOLJ
 70
     1
  9
$DIMTZIN
 70
     0
  9
$DIMALTZ
 70
     0
  9
$DIMALTTZ
 70
     0
  9
$DIMUPT
 70
     0
  9
$DIMDEC
 70
     2
  9
$DIMTDEC
 70
     4
  9
$DIMALTU
 70
     2
  9
$DIMALTTD
 70
     2
  9
$DIMTXSTY
  7
Standard
  9
$DIMAUNIT
 70
     1
  9
$DIMADEC
 70
     0
  9
$DIMALTRND
 40
0.0
  9
$DIMAZIN
 70
     0
  9
$DIMDSEP
 70
    46
  9
$DIMATFIT
 70
     3
  9
$DIMFRAC
 70
     0
  9
$DIMLDRBLK
  1

  9
$DIMLUNIT
 70
     4
  9
$DIMLWD
 70
    -2
  9
$DIMLWE
 70
    -2
  9
$DIMTMOVE
 70
     0
  9
$DIMFXL
 40
1.0
  9
$DIMFXLON
 70
     0
  9
$DIMJOGANG
 40
0.7853981633974483
  9
$DIMTFILL
 70
     0
  9
$DIMTFILLCLR
 70
     0
  9
$DIMARCSYM
 70
     0
  9
$DIMLTYPE
  6

  9
$DIMLTEX1
  6

  9
$DIMLTEX2
  6

  9
$LUNITS
 70
     2
  9
$LUPREC
 70
     2
  9
$SKETCHINC
 40
0.1
  9
$FILLETRAD
 40
0.005
  9
$AUNITS
 70
     0
  9
$AUPREC
 70
     0
  9
$MENU
  1
.
  9
$ELEVATION
 40
0.0
  9
$PELEVATION
 40
0.0
  9
$THICKNESS
 40
0.0
  9
$LIMCHECK
 70
     0
  9
$CHAMFERA
 40
0.005
  9
$CHAMFERB
 40
0.005
  9
$CHAMFERC
 40
0.0
  9
$CHAMFERD
 40
0.0
  9
$SKPOLY
 70
     0
  9
$TDCREATE
 40
2458886.829425255
  9
$TDUCREATE
 40
2458886.787758588
  9
$TDUPDATE
 40
2458886.829425255
  9
$TDUUPDATE
 40
2458886.787758588
  9
$TDINDWG
 40
0.0000181019
  9
$TDUSRTIMER
 40
0.0000181019
  9
$USRTIMER
 70
     1
  9
$ANGBASE
 50
0.0
  9
$ANGDIR
 70
     0
  9
$PDMODE
 70
     0
  9
$PDSIZE
 40
0.0
  9
$PLINEWID
 40
0.0
  9
$SPLFRAME
 70
     0
  9
$SPLINETYPE
 70
     6
  9
$SPLINESEGS
 70
     8
  9
$HANDSEED
  5
558
  9
$SURFTAB1
 70
     6
  9
$SURFTAB2
 70
     6
  9
$SURFTYPE
 70
     6
  9
$SURFU
 70
     6
  9
$SURFV
 70
     6
  9
$UCSBASE
  2

  9
$UCSNAME
  2

  9
$UCSORG
 10
0.0
 20
0.0
 30
0.0
  9
$UCSXDIR
 10
1.0
 20
0.0
 30
0.0
  9
$UCSYDIR
 10
0.0
 20
1.0
 30
0.0
  9
$UCSORTHOREF
  2

  9
$UCSORTHOVIEW
 70
     0
  9
$UCSORGTOP
 10
0.0
 20
0.0
 30
0.0
  9
$UCSORGBOTTOM
 10
0.0
 20
0.0
 30
0.0
  9
$UCSORGLEFT
 10
0.0
 20
0.0
 30
0.0
  9
$UCSORGRIGHT
 10
0.0
 20
0.0
 30
0.0
  9
$UCSORGFRONT
 10
0.0
 20
0.0
 30
0.0
  9
$UCSORGBACK
 10
0.0
 20
0.0
 30
0.0
  9
$PUCSBASE
  2

  9
$PUCSNAME
  2

  9
$PUCSORG
 10
0.0
 20
0.0
 30
0.0
  9
$PUCSXDIR
 10
1.0
 20
0.0
 30
0.0
  9
$PUCSYDIR
 10
0.0
 20
1.0
 30
0.0
  9
$PUCSORTHOREF
  2

  9
$PUCSORTHOVIEW
 70
     0
  9
$PUCSORGTOP
 10
0.0
 20
0.0
 30
0.0
  9
$PUCSORGBOTTOM
 10
0.0
 20
0.0
 30
0.0
  9
$PUCSORGLEFT
 10
0.0
 20
0.0
 30
0.0
  9
$PUCSORGRIGHT
 10
0.0
 20
0.0
 30
0.0
  9
$PUCSORGFRONT
 10
0.0
 20
0.0
 30
0.0
  9
$PUCSORGBACK
 10
0.0
 20
0.0
 30
0.0
  9
$USERI1
 70
     0
  9
$USERI2
 70
     0
  9
$USERI3
 70
     0
  9
$USERI4
 70
     0
  9
$USERI5
 70
     0
  9
$USERR1
 40
0.0
  9
$USERR2
 40
0.0
  9
$USERR3
 40
0.0
  9
$USERR4
 40
0.0
  9
$USERR5
 40
0.0
  9
$WORLDVIEW
 70
     1
  9
$SHADEDGE
 70
     3
  9
$SHADEDIF
 70
    70
  9
$TILEMODE
 70
     1
  9
$MAXACTVP
 70
    64
  9
$PINSBASE
 10
0.0
 20
0.0
 30
0.0
  9
$PLIMCHECK
 70
     0
  9
$PEXTMIN
 10
1.000000000000000E+20
 20
1.000000000000000E+20
 30
1.000000000000000E+20
  9
$PEXTMAX
 10
-1.000000000000000E+20
 20
-1.000000000000000E+20
 30
-1.000000000000000E+20
  9
$PLIMMIN
 10
0.0
 20
0.0
  9
$PLIMMAX
 10
12.0
 20
9.0
  9
$UNITMODE
 70
     0
  9
$VISRETAIN
 70
     1
  9
$PLINEGEN
 70
     0
  9
$PSLTSCALE
 70
     1
  9
$TREEDEPTH
 70
  3020
  9
$CMLSTYLE
  2
Standard
  9
$CMLJUST
 70
     0
  9
$CMLSCALE
 40
1.0
  9
$PROXYGRAPHICS
 70
     1
  9
$MEASUREMENT
 70
     1
  9
$CELWEIGHT
370
    -1
  9
$ENDCAPS
280
     0
  9
$JOINSTYLE
280
     0
  9
$LWDISPLAY
290
     0
  9
$INSUNITS
 70
     0
  9
$HYPERLINKBASE
  1

  9
$STYLESHEET
  1

  9
$XEDIT
290
     1
  9
$CEPSNTYPE
380
     0
  9
$PSTYLEMODE
290
     1
  9
$FINGERPRINTGUID
  2
{FA54CA5E-E882-407E-83A5-CA5B731A0028}
  9
$VERSIONGUID
  2
{95A0674C-0AB4-4BE7-8847-94FB4039EC97}
  9
$EXTNAMES
290
     1
  9
$PSVPSCALE
 40
0.0
  9
$OLESTARTUP
290
     0
  9
$SORTENTS
280
   127
  9
$INDEXCTL
280
     0
  9
$HIDETEXT
280
     1
  9
$XCLIPFRAME
290
     0
  9
$HALOGAP
280
     0
  9
$OBSCOLOR
 70
   257
  9
$OBSLTYPE
280
     0
  9
$INTERSECTIONDISPLAY
280
     0
  9
$INTERSECTIONCOLOR
 70
   257
  9
$DIMASSOC
280
     2
  9
$PROJECTNAME
  1

  9
$CAMERADISPLAY
290
     0
  9
$LENSLENGTH
 40
50.0
  9
$CAMERAHEIGHT
 40
0.0
  9
$STEPSPERSEC
 40
2.0
  9
$STEPSIZE
 40
6.0
  9
$3DDWFPREC
 40
2.0
  9
$PSOLWIDTH
 40
0.25
  9
$PSOLHEIGHT
 40
4.0
  9
$LOFTANG1
 40
1.570796326794896
  9
$LOFTANG2
 40
1.570796326794896
  9
$LOFTMAG1
 40
0.0
  9
$LOFTMAG2
 40
0.0
  9
$LOFTPARAM
 70
     7
  9
$LOFTNORMALS
280
     1
  9
$LATITUDE
 40
37.795
  9
$LONGITUDE
 40
-122.394
  9
$NORTHDIRECTION
 40
0.0
  9
$TIMEZONE
 70
 -8000
  9
$LIGHTGLYPHDISPLAY
280
     1
  9
$TILEMODELIGHTSYNCH
280
     1
  9
$CMATERIAL
347
11
  9
$SOLIDHIST
280
     1
  9
$SHOWHIST
280
     1
  9
$DWFFRAME
280
     2
  9
$DGNFRAME
280
     0
  9
$REALWORLDSCALE
290
     1
  9
$INTERFERECOLOR
 62
     1
  9
$INTERFEREOBJVS
345
33
  9
$INTERFEREVPVS
346
30
  9
$CSHADOW
280
     0
  9
$SHADOWPLANELOCATION
 40
0.0
  0
ENDSEC
  0
SECTION
  2
CLASSES
  0
CLASS
  1
ACDBDICTIONARYWDFLT
  2
AcDbDictionaryWithDefault
  3
ObjectDBX Classes
 90
        0
 91
        1
280
     0
281
     0
  0
CLASS
  1
MATERIAL
  2
AcDbMaterial
  3
ObjectDBX Classes
 90
     1153
 91
        3
280
     0
281
     0
  0
CLASS
  1
VISUALSTYLE
  2
AcDbVisualStyle
  3
ObjectDBX Classes
 90
     4095
 91
       16
280
     0
281
     0
  0
CLASS
  1
SCALE
  2
AcDbScale
  3
ObjectDBX Classes
 90
     1153
 91
       33
280
     0
281
     0
  0
CLASS
  1
TABLESTYLE
  2
AcDbTableStyle
  3
ObjectDBX Classes
 90
     4095
 91
        1
280
     0
281
     0
  0
CLASS
  1
MLEADERSTYLE
  2
AcDbMLeaderStyle
  3
ACDB_MLEADERSTYLE_CLASS
 90
     4095
 91
        1
280
     0
281
     0
  0
CLASS
  1
DICTIONARYVAR
  2
AcDbDictionaryVar
  3
ObjectDBX Classes
 90
        0
 91
        3
280
     0
281
     0
  0
CLASS
  1
CELLSTYLEMAP
  2
AcDbCellStyleMap
  3
ObjectDBX Classes
 90
     1152
 91
        1
280
     0
281
     0
  0
ENDSEC
  0
SECTION
  2
TABLES
  0
TABLE
  2
VPORT
  5
8
330
0
100
AcDbSymbolTable
 70
     1
  0
VPORT
  5
5F
330
8
100
AcDbSymbolTableRecord
100
AcDbViewportTableRecord
  2
*Active
 70
     0
 10
0.0
 20
0.0
 11
1.0
 21
1.0
 12
96.86253481514757
 22
-2038.925164770768
 13
0.0
 23
0.0
 14
1.0
 24
1.0
 15
0.0
 25
0.0
 16
0.0
 26
0.0
 36
1.0
 17
0.0
 27
0.0
 37
0.0
 40
1369.063013512401
 41
1.456257938312752
 42
50.0
 43
0.0
 44
0.0
 50
0.0
 51
0.0
 71
     0
 72
   100
 73
     1
 74
     1
 75
     0
 76
     0
 77
     0
 78
     0
281
     0
 65
     1
110
0.0
120
0.0
130
0.0
111
1.0
121
0.0
131
0.0
112
0.0
122
1.0
132
0.0
 79
     0
146
0.0
 60
     3
 61
     5
292
     1
282
     1
141
0.0
142
0.0
 63
   250
421
  3355443
  0
ENDTAB
  0
TABLE
  2
LTYPE
  5
5
330
0
100
AcDbSymbolTable
 70
    40
  0
LTYPE
  5
63
330
5
100
AcDbSymbolTableRecord
100
AcDbLinetypeTableRecord
  2
ByBlock
 70
     0
  3

 72
    65
 73
     0
 40
0.0
  0
LTYPE
  5
64
330
5
100
AcDbSymbolTableRecord
100
AcDbLinetypeTableRecord
  2
ByLayer
 70
     0
  3

 72
    65
 73
     0
 40
0.0
  0
LTYPE
  5
65
330
5
100
AcDbSymbolTableRecord
100
AcDbLinetypeTableRecord
  2
Continuous
 70
     0
  3
Solid line
 72
    65
 73
     0
 40
0.0
  0
LTYPE
  5
7D
330
5
100
AcDbSymbolTableRecord
100
AcDbLinetypeTableRecord
  2
HIDDEN
 70
     0
  3
_ _ _ _ _ _ _ _ _ _ _ _ _ _ 
 72
    65
 73
     2
 40
0.009525
 49
0.00635
 74
     0
 49
-0.003175
 74
     0
  0
LTYPE
  5
7E
330
5
100
AcDbSymbolTableRecord
100
AcDbLinetypeTableRecord
  2
DASHED
 70
     0
  3
__ __ __ __ __ __ __ __ __ 
 72
    65
 73
     2
 40
0.01905
 49
0.0127
 74
     0
 49
-0.00635
 74
     0
  0
LTYPE
  5
7F
330
5
100
AcDbSymbolTableRecord
100
AcDbLinetypeTableRecord
  2
CENTER
 70
     0
  3
____ _ ____ _ ____ _ ____ _ 
 72
    65
 73
     4
 40
0.0508
 49
0.03175
 74
     0
 49
-0.00635
 74
     0
 49
0.00635
 74
     0
 49
-0.00635
 74
     0
  0
LTYPE
  5
80
330
5
100
AcDbSymbolTableRecord
100
AcDbLinetypeTableRecord
  2
PHANTOM
 70
     0
  3
_____ _ _ _____ _ _ _____ _ _ 
 72
    65
 73
     6
 40
0.0635
 49
0.03175
 74
     0
 49
-0.00635
 74
     0
 49
0.00635
 74
     0
 49
-0.00635
 74
     0
 49
0.00635
 74
     0
 49
-0.00635
 74
     0
  0
LTYPE
  5
81
330
5
100
AcDbSymbolTableRecord
100
AcDbLinetypeTableRecord
  2
DOT
 70
     0
  3
...........................
 72
    65
 73
     2
 40
0.00635
 49
0.0
 74
     0
 49
-0.00635
 74
     0
  0
LTYPE
  5
82
330
5
100
AcDbSymbolTableRecord
100
AcDbLinetypeTableRecord
  2
DASHDOT
 70
     0
  3
__ . __ . __ . __ . __ . __ . 
 72
    65
 73
     4
 40
0.0254
 49
0.0127
 74
     0
 49
-0.00635
 74
     0
 49
0.0
 74
     0
 49
-0.00635
 74
     0
  0
LTYPE
  5
83
330
5
100
AcDbSymbolTableRecord
100
AcDbLinetypeTableRecord
  2
DIVIDE
 70
     0
  3
__ . . __ . . __ . . __ . . 
 72
    65
 73
     6
 40
0.03175
 49
0.0127
 74
     0
 49
-0.00635
 74
     0
 49
0.0
 74
     0
 49
-0.00635
 74
     0
 49
0.0
 74
     0
 49
-0.00635
 74
     0
  0
LTYPE
  5
84
330
5
100
AcDbSymbolTableRecord
100
AcDbLinetypeTableRecord
  2
BORDER
 70
     0
  3
__ __ . __ __ . __ __ . __ __ .
 72
    65
 73
     6
 40
0.04445
 49
0.0127
 74
     0
 49
-0.00635
 74
     0
 49
0.0127
 74
     0
 49
-0.00635
 74
     0
 49
0.0
 74
     0
 49
-0.00635
 74
     0
  0
LTYPE
  5
85
330
5
100
AcDbSymbolTableRecord
100
AcDbLinetypeTableRecord
  2
BORDER2
 70
     0
  3
Border (.5x) __.__.__.__.__.__.
 72
    65
 73
     6
 40
0.875
 49
0.25
 74
     0
 49
-0.125
 74
     0
 49
0.25
 74
     0
 49
-0.125
 74
     0
 49
0.0
 74
     0
 49
-0.125
 74
     0
  0
LTYPE
  5
86
330
5
100
AcDbSymbolTableRecord
100
AcDbLinetypeTableRecord
  2
BORDERX2
 70
     0
  3
Border (2x) ____  ____  .  ____
 72
    65
 73
     6
 40
3.5
 49
1.0
 74
     0
 49
-0.5
 74
     0
 49
1.0
 74
     0
 49
-0.5
 74
     0
 49
0.0
 74
     0
 49
-0.5
 74
     0
  0
LTYPE
  5
87
330
5
100
AcDbSymbolTableRecord
100
AcDbLinetypeTableRecord
  2
CENTER2
 70
     0
  3
Center (.5x) ___ _ ___ _ ___ _ 
 72
    65
 73
     4
 40
1.125
 49
0.7500000000000001
 74
     0
 49
-0.125
 74
     0
 49
0.125
 74
     0
 49
-0.125
 74
     0
  0
LTYPE
  5
88
330
5
100
AcDbSymbolTableRecord
100
AcDbLinetypeTableRecord
  2
CENTERX2
 70
     0
  3
Center (2x) ________  __  _____
 72
    65
 73
     4
 40
4.0
 49
2.5
 74
     0
 49
-0.5
 74
     0
 49
0.5
 74
     0
 49
-0.5
 74
     0
  0
LTYPE
  5
89
330
5
100
AcDbSymbolTableRecord
100
AcDbLinetypeTableRecord
  2
DASHDOT2
 70
     0
  3
Dash dot (.5x) _._._._._._._._.
 72
    65
 73
     4
 40
0.5
 49
0.25
 74
     0
 49
-0.125
 74
     0
 49
0.0
 74
     0
 49
-0.125
 74
     0
  0
LTYPE
  5
8A
330
5
100
AcDbSymbolTableRecord
100
AcDbLinetypeTableRecord
  2
DASHDOTX2
 70
     0
  3
Dash dot (2x) ____  .  ____  . 
 72
    65
 73
     4
 40
2.0
 49
1.0
 74
     0
 49
-0.5
 74
     0
 49
0.0
 74
     0
 49
-0.5
 74
     0
  0
LTYPE
  5
8B
330
5
100
AcDbSymbolTableRecord
100
AcDbLinetypeTableRecord
  2
DASHED2
 70
     0
  3
Dashed (.5x) _ _ _ _ _ _ _ _ _ 
 72
    65
 73
     2
 40
0.375
 49
0.25
 74
     0
 49
-0.125
 74
     0
  0
LTYPE
  5
8C
330
5
100
AcDbSymbolTableRecord
100
AcDbLinetypeTableRecord
  2
DASHEDX2
 70
     0
  3
Dashed (2x) ____  ____  ____  _
 72
    65
 73
     2
 40
1.5
 49
1.0
 74
     0
 49
-0.5
 74
     0
  0
LTYPE
  5
8D
330
5
100
AcDbSymbolTableRecord
100
AcDbLinetypeTableRecord
  2
DIVIDE2
 70
     0
  3
Divide (.5x) __..__..__..__..__
 72
    65
 73
     6
 40
0.625
 49
0.25
 74
     0
 49
-0.125
 74
     0
 49
0.0
 74
     0
 49
-0.125
 74
     0
 49
0.0
 74
     0
 49
-0.125
 74
     0
  0
LTYPE
  5
8E
330
5
100
AcDbSymbolTableRecord
100
AcDbLinetypeTableRecord
  2
DIVIDEX2
 70
     0
  3
Divide (2x) ________  .  .  ___
 72
    65
 73
     6
 40
2.5
 49
1.0
 74
     0
 49
-0.5
 74
     0
 49
0.0
 74
     0
 49
-0.5
 74
     0
 49
0.0
 74
     0
 49
-0.5
 74
     0
  0
LTYPE
  5
8F
330
5
100
AcDbSymbolTableRecord
100
AcDbLinetypeTableRecord
  2
DOT2
 70
     0
  3
Dot (.5x) .....................
 72
    65
 73
     2
 40
0.125
 49
0.0
 74
     0
 49
-0.125
 74
     0
  0
LTYPE
  5
90
330
5
100
AcDbSymbolTableRecord
100
AcDbLinetypeTableRecord
  2
DOTX2
 70
     0
  3
Dot (2x) .  .  .  .  .  .  .  .
 72
    65
 73
     2
 40
0.5
 49
0.0
 74
     0
 49
-0.5
 74
     0
  0
LTYPE
  5
91
330
5
100
AcDbSymbolTableRecord
100
AcDbLinetypeTableRecord
  2
HIDDEN2
 70
     0
  3
Hidden (.5x) _ _ _ _ _ _ _ _ _ 
 72
    65
 73
     2
 40
0.1875
 49
0.125
 74
     0
 49
-0.0625
 74
     0
  0
LTYPE
  5
92
330
5
100
AcDbSymbolTableRecord
100
AcDbLinetypeTableRecord
  2
HIDDENX2
 70
     0
  3
Hidden (2x) ____ ____ ____ ____
 72
    65
 73
     2
 40
0.75
 49
0.5
 74
     0
 49
-0.25
 74
     0
  0
LTYPE
  5
93
330
5
100
AcDbSymbolTableRecord
100
AcDbLinetypeTableRecord
  2
PHANTOM2
 70
     0
  3
Phantom (.5x) ___ _ _ ___ _ _ _
 72
    65
 73
     6
 40
1.25
 49
0.6250000000000001
 74
     0
 49
-0.125
 74
     0
 49
0.125
 74
     0
 49
-0.125
 74
     0
 49
0.125
 74
     0
 49
-0.125
 74
     0
  0
LTYPE
  5
94
330
5
100
AcDbSymbolTableRecord
100
AcDbLinetypeTableRecord
  2
PHANTOMX2
 70
     0
  3
Phantom (2x) ____________    __
 72
    65
 73
     6
 40
5.0
 49
2.5
 74
     0
 49
-0.5
 74
     0
 49
0.5
 74
     0
 49
-0.5
 74
     0
 49
0.5
 74
     0
 49
-0.5
 74
     0
  0
LTYPE
  5
95
330
5
100
AcDbSymbolTableRecord
100
AcDbLinetypeTableRecord
  2
DOTS
 70
     0
  3
Dots - - - - - - - - - - - - - 
 72
    65
 73
     2
 40
0.1
 49
0.05
 74
     0
 49
-0.05
 74
     0
  0
LTYPE
  5
96
330
5
100
AcDbSymbolTableRecord
100
AcDbLinetypeTableRecord
  2
ACAD_ISO02W100
 70
     0
  3
__ __ __ __ __ __ __ __ __ __ _
 72
    65
 73
     2
 40
15.0
 49
12.0
 74
     0
 49
-3.0
 74
     0
  0
LTYPE
  5
97
330
5
100
AcDbSymbolTableRecord
100
AcDbLinetypeTableRecord
  2
ACAD_ISO03W100
 70
     0
  3
__    __    __    __    __    _
 72
    65
 73
     2
 40
30.0
 49
12.0
 74
     0
 49
-18.0
 74
     0
  0
LTYPE
  5
98
330
5
100
AcDbSymbolTableRecord
100
AcDbLinetypeTableRecord
  2
ACAD_ISO04W100
 70
     0
  3
____ . ____ . ____ . ____ . ___
 72
    65
 73
     4
 40
30.5
 49
24.0
 74
     0
 49
-3.0
 74
     0
 49
0.5
 74
     0
 49
-3.0
 74
     0
  0
LTYPE
  5
99
330
5
100
AcDbSymbolTableRecord
100
AcDbLinetypeTableRecord
  2
ACAD_ISO05W100
 70
     0
  3
____ .. ____ .. ____ .. ____ ..
 72
    65
 73
     6
 40
34.0
 49
24.0
 74
     0
 49
-3.0
 74
     0
 49
0.5
 74
     0
 49
-3.0
 74
     0
 49
0.5
 74
     0
 49
-3.0
 74
     0
  0
LTYPE
  5
9A
330
5
100
AcDbSymbolTableRecord
100
AcDbLinetypeTableRecord
  2
ACAD_ISO06W100
 70
     0
  3
____ ... ____ ... ____ ... ____
 72
    65
 73
     6
 40
34.0
 49
24.0
 74
     0
 49
-3.0
 74
     0
 49
0.5
 74
     0
 49
-3.0
 74
     0
 49
0.5
 74
     0
 49
-3.0
 74
     0
  0
LTYPE
  5
9B
330
5
100
AcDbSymbolTableRecord
100
AcDbLinetypeTableRecord
  2
ACAD_ISO07W100
 70
     0
  3
. . . . . . . . . . . . . . . .
 72
    65
 73
     2
 40
3.5
 49
0.5
 74
     0
 49
-3.0
 74
     0
  0
LTYPE
  5
9C
330
5
100
AcDbSymbolTableRecord
100
AcDbLinetypeTableRecord
  2
ACAD_ISO08W100
 70
     0
  3
____ __ ____ __ ____ __ ____ __
 72
    65
 73
     4
 40
36.0
 49
24.0
 74
     0
 49
-3.0
 74
     0
 49
6.0
 74
     0
 49
-3.0
 74
     0
  0
LTYPE
  5
9D
330
5
100
AcDbSymbolTableRecord
100
AcDbLinetypeTableRecord
  2
ACAD_ISO09W100
 70
     0
  3
____ __ __ ____ __ __ ____ __ _
 72
    65
 73
     6
 40
45.0
 49
24.0
 74
     0
 49
-3.0
 74
     0
 49
6.0
 74
     0
 49
-3.0
 74
     0
 49
6.0
 74
     0
 49
-3.0
 74
     0
  0
LTYPE
  5
9E
330
5
100
AcDbSymbolTableRecord
100
AcDbLinetypeTableRecord
  2
ACAD_ISO10W100
 70
     0
  3
__ . __ . __ . __ . __ . __ . _
 72
    65
 73
     4
 40
18.5
 49
12.0
 74
     0
 49
-3.0
 74
     0
 49
0.5
 74
     0
 49
-3.0
 74
     0
  0
LTYPE
  5
9F
330
5
100
AcDbSymbolTableRecord
100
AcDbLinetypeTableRecord
  2
ACAD_ISO11W100
 70
     0
  3
__ __ . __ __ . __ __ . __ __ .
 72
    65
 73
     6
 40
33.5
 49
12.0
 74
     0
 49
-3.0
 74
     0
 49
12.0
 74
     0
 49
-3.0
 74
     0
 49
0.5
 74
     0
 49
-3.0
 74
     0
  0
LTYPE
  5
A0
330
5
100
AcDbSymbolTableRecord
100
AcDbLinetypeTableRecord
  2
ACAD_ISO12W100
 70
     0
  3
__ . . __ . . __ . . __ . . __ 
 72
    65
 73
     6
 40
22.0
 49
12.0
 74
     0
 49
-3.0
 74
     0
 49
0.5
 74
     0
 49
-3.0
 74
     0
 49
0.5
 74
     0
 49
-3.0
 74
     0
  0
LTYPE
  5
A1
330
5
100
AcDbSymbolTableRecord
100
AcDbLinetypeTableRecord
  2
ACAD_ISO13W100
 70
     0
  3
__ __ . . __ __ . . __ __ . . _
 72
    65
 73
     6
 40
33.5
 49
12.0
 74
     0
 49
-3.0
 74
     0
 49
12.0
 74
     0
 49
-3.0
 74
     0
 49
0.5
 74
     0
 49
-3.0
 74
     0
  0
LTYPE
  5
A2
330
5
100
AcDbSymbolTableRecord
100
AcDbLinetypeTableRecord
  2
ACAD_ISO14W100
 70
     0
  3
__ . . . __ . . . __ . . . __ .
 72
    65
 73
     6
 40
22.0
 49
12.0
 74
     0
 49
-3.0
 74
     0
 49
0.5
 74
     0
 49
-3.0
 74
     0
 49
0.5
 74
     0
 49
-3.0
 74
     0
  0
LTYPE
  5
A3
330
5
100
AcDbSymbolTableRecord
100
AcDbLinetypeTableRecord
  2
ACAD_ISO15W100
 70
     0
  3
__ __ . . . __ __ . . . __ __ .
 72
    65
 73
     6
 40
33.5
 49
12.0
 74
     0
 49
-3.0
 74
     0
 49
12.0
 74
     0
 49
-3.0
 74
     0
 49
0.5
 74
     0
 49
-3.0
 74
     0
  0
ENDTAB
  0
TABLE
  2
LAYER
  5
2
330
0
100
AcDbSymbolTable
 70
     6
  0
LAYER
  5
5C
330
2
100
AcDbSymbolTableRecord
100
AcDbLayerTableRecord
  2
0
 70
     0
 62
     7
  6
Continuous
370
    -3
390
F
347
21
  0
LAYER
  5
A4
330
2
100
AcDbSymbolTableRecord
100
AcDbLayerTableRecord
  2
GRUNDRISS
 70
     0
 62
     7
  6
Continuous
370
    -3
390
F
347
21
  0
LAYER
  5
A5
330
2
100
AcDbSymbolTableRecord
100
AcDbLayerTableRecord
  2
HALLE_0_1_EG
 70
     0
 62
     7
  6
Continuous
370
    -3
390
F
347
21
  0
LAYER
  5
A6
330
2
100
AcDbSymbolTableRecord
100
AcDbLayerTableRecord
  2
MOEBEL
 70
     0
 62
     5
  6
Continuous
370
    -3
390
F
347
21
  0
LAYER
  5
A7
330
2
100
AcDbSymbolTableRecord
100
AcDbLayerTableRecord
  2
SW_HALLENWAND
 70
     1
 62
    30
  6
Continuous
370
    -3
390
F
347
21
  0
LAYER
  5
A8
330
2
100
AcDbSymbolTableRecord
100
AcDbLayerTableRecord
  2
UMRISS10
 70
     0
 62
     4
  6
Continuous
370
    -3
390
F
347
21
  0
ENDTAB
  0
TABLE
  2
STYLE
  5
3
330
0
100
AcDbSymbolTable
 70
     7
  0
STYLE
  5
5D
330
3
100
AcDbSymbolTableRecord
100
AcDbTextStyleTableRecord
  2
Standard
 70
     0
 40
0.0
 41
1.0
 50
0.0
 71
     0
 42
1.75
  3
txt
  4

  0
STYLE
  5
62
330
3
100
AcDbSymbolTableRecord
100
AcDbTextStyleTableRecord
  2
Annotative
 70
     0
 40
0.0
 41
1.0
 50
0.0
 71
     0
 42
0.2
  3
txt
  4

1001
AcadAnnotative
1000
AnnotativeData
1002
{
1070
     1
1070
     1
1002
}
  0
STYLE
  5
A9
330
3
100
AcDbSymbolTableRecord
100
AcDbTextStyleTableRecord
  2
ITALIC
 70
     0
 40
0.0
 41
1.0
 50
0.0
 71
     0
 42
1.75
  3
ITALIC
  4

  0
STYLE
  5
AA
330
3
100
AcDbSymbolTableRecord
100
AcDbTextStyleTableRecord
  2
SIMPLEX
 70
     0
 40
0.0
 41
1.0
 50
0.0
 71
     0
 42
1.75
  3
SIMPLEX
  4

  0
STYLE
  5
AB
330
3
100
AcDbSymbolTableRecord
100
AcDbTextStyleTableRecord
  2
COMPLEX
 70
     0
 40
0.0
 41
1.0
 50
0.0
 71
     0
 42
1.75
  3
COMPLEX
  4

  0
STYLE
  5
AC
330
3
100
AcDbSymbolTableRecord
100
AcDbTextStyleTableRecord
  2
ARIAL
 70
     0
 40
0.0
 41
1.0
 50
0.0
 71
     0
 42
1.75
  3
arial.ttf
  4

1001
ACAD
1000
Arial
1071
        0
  0
STYLE
  5
16F
330
3
100
AcDbSymbolTableRecord
100
AcDbTextStyleTableRecord
  2
ARIALB
 70
     0
 40
0.0
 41
1.0
 50
0.0
 71
     0
 42
1.75
  3

  4

1001
ACAD
1000
Arial
1071
 33554432
  0
ENDTAB
  0
TABLE
  2
VIEW
  5
6
330
0
100
AcDbSymbolTable
 70
     0
  0
ENDTAB
  0
TABLE
  2
UCS
  5
7
330
0
100
AcDbSymbolTable
 70
     0
  0
ENDTAB
  0
TABLE
  2
APPID
  5
9
330
0
100
AcDbSymbolTable
 70
     3
  0
APPID
  5
5E
330
9
100
AcDbSymbolTableRecord
100
AcDbRegAppTableRecord
  2
ACAD
 70
     0
  0
APPID
  5
66
330
9
100
AcDbSymbolTableRecord
100
AcDbRegAppTableRecord
  2
AcadAnnotative
 70
     0
  0
APPID
  5
70
330
9
100
AcDbSymbolTableRecord
100
AcDbRegAppTableRecord
  2
ACAD_MLEADERVER
 70
     0
  0
ENDTAB
  0
TABLE
  2
DIMSTYLE
  5
A
330
0
100
AcDbSymbolTable
 70
     2
100
AcDbDimStyleTable
 71
     0
  0
DIMSTYLE
105
60
330
A
100
AcDbSymbolTableRecord
100
AcDbDimStyleTableRecord
  2
Standard
 70
     0
340
5D
  0
DIMSTYLE
105
61
330
A
100
AcDbSymbolTableRecord
100
AcDbDimStyleTableRecord
  2
Annotative
 70
     0
340
5D
1001
AcadAnnotative
1000
AnnotativeData
1002
{
1070
     1
1070
     1
1002
}
  0
ENDTAB
  0
TABLE
  2
BLOCK_RECORD
  5
1
330
0
100
AcDbSymbolTable
 70
     1
  0
BLOCK_RECORD
  5
75
330
1
100
AcDbSymbolTableRecord
100
AcDbBlockTableRecord
  2
*Model_Space
340
78
 70
     0
280
     1
281
     0
  0
BLOCK_RECORD
  5
71
330
1
100
AcDbSymbolTableRecord
100
AcDbBlockTableRecord
  2
*Paper_Space
340
74
 70
     0
280
     1
281
     0
  0
BLOCK_RECORD
  5
79
330
1
100
AcDbSymbolTableRecord
100
AcDbBlockTableRecord
  2
*Paper_Space0
340
7C
 70
     0
280
     1
281
     0
  0
ENDTAB
  0
ENDSEC
  0
SECTION
  2
BLOCKS
  0
BLOCK
  5
76
330
75
100
AcDbEntity
  8
0
100
AcDbBlockBegin
  2
*Model_Space
 70
     0
 10
0.0
 20
0.0
 30
0.0
  3
*Model_Space
  1

  0
ENDBLK
  5
77
330
75
100
AcDbEntity
  8
0
100
AcDbBlockEnd
  0
BLOCK
  5
72
330
71
100
AcDbEntity
 67
     1
  8
0
100
AcDbBlockBegin
  2
*Paper_Space
 70
     0
 10
0.0
 20
0.0
 30
0.0
  3
*Paper_Space
  1

  0
ENDBLK
  5
73
330
71
100
AcDbEntity
 67
     1
  8
0
100
AcDbBlockEnd
  0
BLOCK
  5
7A
330
79
100
AcDbEntity
 67
     1
  8
0
100
AcDbBlockBegin
  2
*Paper_Space0
 70
     0
 10
0.0
 20
0.0
 30
0.0
  3
*Paper_Space0
  1

  0
ENDBLK
  5
7B
330
79
100
AcDbEntity
 67
     1
  8
0
100
AcDbBlockEnd
  0
ENDSEC
  0
SECTION
  2
ENTITIES
  0
TEXT
  5
AD
330
75
100
AcDbEntity
  8
HALLE_0_1_EG
  6
Continuous
100
AcDbText
 10
23.36085947123156
 20
-59.66012293285494
 30
0.0
 40
0.531906848217127
  1
Datum
  7
ARIAL
100
AcDbText
  0
TEXT
  5
AF
330
75
100
AcDbEntity
  8
HALLE_0_1_EG
  6
Continuous
100
AcDbText
 10
23.36085947123156
 20
-58.57723750704394
 30
0.0
 40
0.531906848217127
  1
Anlass
  7
ARIAL
100
AcDbText
  0
TEXT
  5
B0
330
75
100
AcDbEntity
  8
HALLE_0_1_EG
  6
Continuous
100
AcDbText
 10
23.36085947123156
 20
-57.4110532023244
 30
0.0
 40
0.531906848217127
  1
Veranstalter
  7
ARIAL
100
AcDbText
  0
TEXT
  5
B1
330
75
100
AcDbEntity
  8
HALLE_0_1_EG
  6
Continuous
100
AcDbText
 10
37.9819419451877
 20
-61.47408096640857
 30
0.0
 40
0.531906848217127
  1
Fon  +41 33 225 11 20
  7
ARIAL
100
AcDbText
  0
TEXT
  5
B2
330
75
100
AcDbEntity
  8
HALLE_0_1_EG
  6
Continuous
100
AcDbText
 10
37.9819419451877
 20
-62.27194123873426
 30
0.0
 40
0.531906848217127
  1
Fax  +41 33 225 11 28
  7
ARIAL
100
AcDbText
  0
TEXT
  5
B3
330
75
100
AcDbEntity
  8
HALLE_0_1_EG
  6
Continuous
100
AcDbText
 10
37.9819419451877
 20
-63.06980151105996
 30
0.0
 40
0.531906848217127
  1
Mail  info@thun-expo.ch
  7
ARIAL
100
AcDbText
  0
TEXT
  5
B4
330
75
100
AcDbEntity
  8
HALLE_0_1_EG
  6
Continuous
100
AcDbText
 10
37.98735153505323
 20
-57.40975578360663
 30
0.0
 40
0.531906848217127
  1
Thun-Expo
  7
ARIAL
100
AcDbText
  0
TEXT
  5
B5
330
75
100
AcDbEntity
  8
HALLE_0_1_EG
  6
Continuous
100
AcDbText
 10
37.98735153505323
 20
-58.20761605593233
 30
0.0
 40
0.531906848217127
  1
Mittlere Strasse 27
  7
ARIAL
100
AcDbText
  0
TEXT
  5
B6
330
75
100
AcDbEntity
  8
HALLE_0_1_EG
  6
Continuous
100
AcDbText
 10
37.98735153505323
 20
-59.00547632825801
 30
0.0
 40
0.531906848217127
  1
Postfach 879
  7
ARIAL
100
AcDbText
  0
TEXT
  5
B7
330
75
100
AcDbEntity
  8
HALLE_0_1_EG
  6
Continuous
100
AcDbText
 10
37.98735153505323
 20
-59.80333660058371
 30
0.0
 40
0.531906848217127
  1
3607 Thun
  7
ARIAL
100
AcDbText
  0
LINE
  5
B8
330
75
100
AcDbEntity
  8
HALLE_0_1_EG
  6
Continuous
100
AcDbLine
 10
30.09418988787693
 20
-62.02448138687671
 30
0.0
 11
30.09418988787693
 21
-63.47798520291552
 31
0.0
  0
LINE
  5
B9
330
75
100
AcDbEntity
  8
HALLE_0_1_EG
  6
Continuous
100
AcDbLine
 10
22.70651107120427
 20
-62.00713537162275
 30
0.0
 11
37.3221697619462
 21
-62.00713537162275
 31
0.0
  0
LINE
  5
BA
330
75
100
AcDbEntity
  8
HALLE_0_1_EG
  6
Continuous
100
AcDbLine
 10
22.70651107120427
 20
-60.02639738162597
 30
0.0
 11
37.3221697619462
 21
-60.02639738162597
 31
0.0
  0
LINE
  5
BB
330
75
100
AcDbEntity
  8
HALLE_0_1_EG
  6
Continuous
100
AcDbLine
 10
37.3221697619462
 20
-56.34519295704272
 30
0.0
 11
37.3221697619462
 21
-63.50112746613579
 31
0.0
  0
LWPOLYLINE
  5
BC
330
75
100
AcDbEntity
  8
HALLE_0_1_EG
  6
Continuous
100
AcDbPolyline
 90
        4
 70
     1
 43
0.0
 10
22.70651107120427
 20
-56.3363948172471
 10
45.81611537716574
 20
-56.3363948172471
 10
45.81611537716574
 20
-63.49232932634017
 10
22.70651107120427
 20
-63.49232932634017
  0
TEXT
  5
BD
330
75
100
AcDbEntity
  8
HALLE_0_1_EG
  6
Continuous
100
AcDbText
 10
23.36085947123156
 20
-61.47150754245387
 30
0.0
 40
0.7747609612645937
  1
Grundriss EG Halle 0 + Halle 1
  7
ARIAL
100
AcDbText
  0
TEXT
  5
BE
330
75
100
AcDbEntity
  8
HALLE_0_1_EG
  6
Continuous
100
AcDbText
 10
30.68010951902814
 20
-63.07484192538746
 30
0.0
 40
0.531906848217127
  1
Thun, 
  7
ARIAL
100
AcDbText
  0
TEXT
  5
BF
330
75
100
AcDbEntity
  8
HALLE_0_1_EG
  6
Continuous
100
AcDbText
 10
23.36085947123156
 20
-63.03372752865074
 30
0.0
 40
0.531906848217127
  1
Massstab 1:350
  7
ARIAL
100
AcDbText
  0
LINE
  5
C0
330
75
100
AcDbEntity
  8
HALLE_0_1_EG
  6
Continuous
100
AcDbLine
 10
-14.77000000061303
 20
6.989540763889883
 30
0.0
 11
-14.77000000061303
 21
7.249540763889894
 31
0.0
  0
LINE
  5
C1
330
75
100
AcDbEntity
  8
HALLE_0_1_EG
  6
Continuous
100
AcDbLine
 10
-14.55000000061303
 20
6.989540763889883
 30
0.0
 11
-14.55000000061303
 21
7.249540763889894
 31
0.0
  0
LINE
  5
C2
330
75
100
AcDbEntity
  8
HALLE_0_1_EG
  6
Continuous
100
AcDbLine
 10
-14.55000000061303
 20
6.989540763889883
 30
0.0
 11
-14.77000000061303
 21
6.989540763889883
 31
0.0
  0
LINE
  5
C3
330
75
100
AcDbEntity
  8
HALLE_0_1_EG
  6
Continuous
100
AcDbLine
 10
45.00999999938713
 20
6.989540763889837
 30
0.0
 11
45.22999999938715
 21
6.989540763889837
 31
0.0
  0
LINE
  5
C4
330
75
100
AcDbEntity
  8
HALLE_0_1_EG
  6
Continuous
100
AcDbLine
 10
45.22999999938715
 20
7.249540763889836
 30
0.0
 11
45.22999999938715
 21
6.989540763889837
 31
0.0
  0
LINE
  5
C5
330
75
100
AcDbEntity
  8
HALLE_0_1_EG
  6
Continuous
100
AcDbLine
 10
45.00999999938713
 20
7.249540763889836
 30
0.0
 11
45.00999999938713
 21
6.989540763889837
 31
0.0
  0
LINE
  5
C6
330
75
100
AcDbEntity
  8
HALLE_0_1_EG
  6
Continuous
100
AcDbLine
 10
38.31899999938714
 20
7.239540763889838
 30
0.0
 11
38.31899999938714
 21
8.429540763889844
 31
0.0
  0
LINE
  5
C7
330
75
100
AcDbEntity
  8
HALLE_0_1_EG
  6
Continuous
100
AcDbLine
 10
38.46899999938714
 20
7.239540763889838
 30
0.0
 11
38.46899999938714
 21
8.579540763889845
 31
0.0
  0
LINE
  5
C8
330
75
100
AcDbEntity
  8
HALLE_0_1_EG
  6
Continuous
100
AcDbLine
 10
38.35899999938713
 20
7.009540763889833
 30
0.0
 11
31.74799999938714
 21
7.009540763889856
 31
0.0
  0
LINE
  5
C9
330
75
100
AcDbEntity
  8
HALLE_0_1_EG
  6
Continuous
100
AcDbLine
 10
33.90899999938714
 20
7.159540763889856
 30
0.0
 11
31.74799999938714
 21
7.159540763889856
 31
0.0
  0
LINE
  5
CA
330
75
100
AcDbEntity
  8
HALLE_0_1_EG
  6
Continuous
100
AcDbLine
 10
38.35899999938713
 20
7.159540763889833
 30
0.0
 11
34.05899999938715
 21
7.159540763889856
 31
0.0
  0
LINE
  5
CB
330
75
100
AcDbEntity
  8
HALLE_0_1_EG
  6
Continuous
100
AcDbLine
 10
42.10999999938709
 20
-34.71045923611016
 30
0.0
 11
42.10999999938709
 21
-35.01045923611016
 31
0.0
  0
LINE
  5
CC
330
75
100
AcDbEntity
  8
HALLE_0_1_EG
  6
Continuous
100
AcDbLine
 10
45.2299999993871
 20
-35.01045923611017
 30
0.0
 11
42.10999999938709
 21
-35.01045923611016
 31
0.0
  0
LINE
  5
CD
330
75
100
AcDbEntity
  8
HALLE_0_1_EG
  6
Continuous
100
AcDbLine
 10
44.9299999993871
 20
-34.71045923611016
 30
0.0
 11
42.10999999938709
 21
-34.71045923611016
 31
0.0
  0
LINE
  5
CE
330
75
100
AcDbEntity
  8
HALLE_0_1_EG
  6
Continuous
100
AcDbLine
 10
-3.520000000613034
 20
-34.71045923611012
 30
0.0
 11
-3.520000000613034
 21
-35.01045923611013
 31
0.0
  0
LINE
  5
CF
330
75
100
AcDbEntity
  8
HALLE_0_1_EG
  6
Continuous
100
AcDbLine
 10
39.1099999993871
 20
-35.01045923611015
 30
0.0
 11
-3.520000000613034
 21
-35.01045923611013
 31
0.0
  0
LINE
  5
D0
330
75
100
AcDbEntity
  8
HALLE_0_1_EG
  6
Continuous
100
AcDbLine
 10
39.1099999993871
 20
-34.71045923611015
 30
0.0
 11
-3.520000000613034
 21
-34.71045923611012
 31
0.0
  0
LINE
  5
D1
330
75
100
AcDbEntity
  8
HALLE_0_1_EG
  6
Continuous
100
AcDbLine
 10
39.1099999993871
 20
-34.71045923611015
 30
0.0
 11
39.1099999993871
 21
-35.01045923611015
 31
0.0
  0
LINE
  5
D2
330
75
100
AcDbEntity
  8
HALLE_0_1_EG
  6
Continuous
100
AcDbLine
 10
-6.52000000061308
 20
-35.01045923611013
 30
0.0
 11
-14.77000000061307
 21
-35.01045923611011
 31
0.0
  0
LINE
  5
D3
330
75
100
AcDbEntity
  8
HALLE_0_1_EG
  6
Continuous
100
AcDbLine
 10
-6.52000000061308
 20
-34.71045923611012
 30
0.0
 11
-14.47000000061307
 21
-34.7104592361101
 31
0.0
  0
LINE
  5
D4
330
75
100
AcDbEntity
  8
HALLE_0_1_EG
  6
Continuous
100
AcDbLine
 10
-6.52000000061308
 20
-34.71045923611012
 30
0.0
 11
-6.52000000061308
 21
-35.01045923611013
 31
0.0
  0
LINE
  5
D5
330
75
100
AcDbEntity
  8
HALLE_0_1_EG
  6
Continuous
100
AcDbLine
 10
-14.47000000061306
 20
-12.51045923611012
 30
0.0
 11
-14.47000000061303
 21
2.039540763889889
 31
0.0
  0
LINE
  5
D6
330
75
100
AcDbEntity
  8
HALLE_0_1_EG
  6
Continuous
100
AcDbLine
 10
-14.77000000061303
 20
3.309540763889877
 30
0.0
 11
-14.77000000061303
 21
4.989540763889876
 31
0.0
  0
LINE
  5
D7
330
75
100
AcDbEntity
  8
HALLE_0_1_EG
  6
Continuous
100
AcDbLine
 10
-14.47000000061303
 20
3.309540763889877
 30
0.0
 11
-14.47000000061303
 21
4.689540763889887
 31
0.0
  0
LINE
  5
D8
330
75
100
AcDbEntity
  8
HALLE_0_1_EG
  6
Continuous
100
AcDbLine
 10
-7.82000000061305
 20
4.689540763889875
 30
0.0
 11
-7.82000000061305
 21
4.989540763889876
 31
0.0
  0
LINE
  5
D9
330
75
100
AcDbEntity
  8
HALLE_0_1_EG
  6
Continuous
100
AcDbLine
 10
-14.77000000061303
 20
4.989540763889876
 30
0.0
 11
-7.82000000061305
 21
4.989540763889876
 31
0.0
  0
LINE
  5
DA
330
75
100
AcDbEntity
  8
HALLE_0_1_EG
  6
Continuous
100
AcDbLine
 10
-9.250000000613049
 20
4.689540763889875
 30
0.0
 11
-7.82000000061305
 21
4.689540763889875
 31
0.0
  0
LINE
  5
DB
330
75
100
AcDbEntity
  8
HALLE_0_1_EG
  6
Continuous
100
AcDbLine
 10
-14.47000000061303
 20
4.689540763889887
 30
0.0
 11
-9.400000000613037
 21
4.689540763889875
 31
0.0
  0
LINE
  5
DC
330
75
100
AcDbEntity
  8
HALLE_0_1_EG
  6
Continuous
100
AcDbLine
 10
39.22999999938715
 20
4.689540763889841
 30
0.0
 11
39.22999999938715
 21
4.98954076388983
 31
0.0
  0
LINE
  5
DD
330
75
100
AcDbEntity
  8
HALLE_0_1_EG
  6
Continuous
100
AcDbLine
 10
-4.820000000612993
 20
4.989540763889876
 30
0.0
 11
39.22999999938715
 21
4.98954076388983
 31
0.0
  0
LINE
  5
DE
330
75
100
AcDbEntity
  8
HALLE_0_1_EG
  6
Continuous
100
AcDbLine
 10
-4.820000000612993
 20
4.689540763889875
 30
0.0
 11
39.22999999938715
 21
4.689540763889841
 31
0.0
  0
LINE
  5
DF
330
75
100
AcDbEntity
  8
HALLE_0_1_EG
  6
Continuous
100
AcDbLine
 10
-4.820000000612993
 20
4.689540763889875
 30
0.0
 11
-4.820000000612993
 21
4.989540763889876
 31
0.0
  0
LINE
  5
E0
330
75
100
AcDbEntity
  8
HALLE_0_1_EG
  6
Continuous
100
AcDbLine
 10
42.22999999938713
 20
4.98954076388983
 30
0.0
 11
45.22999999938714
 21
4.98954076388983
 31
0.0
  0
LINE
  5
E1
330
75
100
AcDbEntity
  8
HALLE_0_1_EG
  6
Continuous
100
AcDbLine
 10
42.22999999938713
 20
4.689540763889841
 30
0.0
 11
44.92999999938714
 21
4.689540763889829
 31
0.0
  0
LINE
  5
E2
330
75
100
AcDbEntity
  8
HALLE_0_1_EG
  6
Continuous
100
AcDbLine
 10
42.22999999938713
 20
4.689540763889841
 30
0.0
 11
42.22999999938713
 21
4.98954076388983
 31
0.0
  0
LINE
  5
E3
330
75
100
AcDbEntity
  8
HALLE_0_1_EG
  6
Continuous
100
AcDbLine
 10
45.22999999938714
 20
4.98954076388983
 30
0.0
 11
45.22999999938711
 21
-12.51045923611016
 31
0.0
  0
LINE
  5
E4
330
75
100
AcDbEntity
  8
HALLE_0_1_EG
  6
Continuous
100
AcDbLine
 10
44.92999999938714
 20
4.689540763889829
 30
0.0
 11
44.92999999938712
 21
-12.51045923611016
 31
0.0
  0
LINE
  5
E5
330
75
100
AcDbEntity
  8
HALLE_0_1_EG
  6
Continuous
100
AcDbLine
 10
45.22999999938711
 20
-17.51045923611016
 30
0.0
 11
45.2299999993871
 21
-35.01045923611017
 31
0.0
  0
LINE
  5
E6
330
75
100
AcDbEntity
  8
HALLE_0_1_EG
  6
Continuous
100
AcDbLine
 10
44.92999999938712
 20
-17.51045923611016
 30
0.0
 11
44.9299999993871
 21
-34.71045923611016
 31
0.0
  0
LINE
  5
E7
330
75
100
AcDbEntity
  8
HALLE_0_1_EG
  6
Continuous
100
AcDbLine
 10
45.82999999938712
 20
-1.310459236110169
 30
0.0
 11
45.82999999938712
 21
3.889540763889826
 31
0.0
  0
LINE
  5
E8
330
75
100
AcDbEntity
  8
HALLE_0_1_EG
  6
Continuous
100
AcDbLine
 10
45.82999999938712
 20
3.889540763889826
 30
0.0
 11
45.22999999938714
 21
3.629540763889828
 31
0.0
  0
LINE
  5
E9
330
75
100
AcDbEntity
  8
HALLE_0_1_EG
  6
Continuous
100
AcDbLine
 10
45.82999999938712
 20
3.889540763889826
 30
0.0
 11
46.42999999938715
 21
3.629540763889828
 31
0.0
  0
LINE
  5
EA
330
75
100
AcDbEntity
  8
HALLE_0_1_EG
  6
Continuous
100
AcDbLine
 10
-11.48000000061302
 20
4.689540763889875
 30
0.0
 11
-11.48000000061302
 21
3.621887045847443
 31
0.0
  0
LINE
  5
EB
330
75
100
AcDbEntity
  8
HALLE_0_1_EG
  6
Continuous
100
AcDbLine
 10
-11.75000000061304
 20
4.689540763889875
 30
0.0
 11
-11.48000000061302
 21
4.689540763889875
 31
0.0
  0
LINE
  5
EC
330
75
100
AcDbEntity
  8
HALLE_0_1_EG
  6
Continuous
100
AcDbLine
 10
-11.75000000061304
 20
3.489540763889871
 30
0.0
 11
-11.75000000061304
 21
4.689540763889875
 31
0.0
  0
LINE
  5
ED
330
75
100
AcDbEntity
  8
HALLE_0_1_EG
  6
Continuous
100
AcDbLine
 10
-11.21000000061305
 20
4.689540763889875
 30
0.0
 11
-11.21000000061305
 21
4.089540763889873
 31
0.0
  0
LINE
  5
EE
330
75
100
AcDbEntity
  8
HALLE_0_1_EG
  6
Continuous
100
AcDbLine
 10
-11.48000000061302
 20
4.689540763889875
 30
0.0
 11
-11.21000000061305
 21
4.689540763889875
 31
0.0
  0
LINE
  5
EF
330
75
100
AcDbEntity
  8
HALLE_0_1_EG
  6
Continuous
100
AcDbLine
 10
-10.94000000061303
 20
4.689540763889875
 30
0.0
 11
-10.94000000061303
 21
3.489540763889871
 31
0.0
  0
LINE
  5
F0
330
75
100
AcDbEntity
  8
HALLE_0_1_EG
  6
Continuous
100
AcDbLine
 10
-11.21000000061305
 20
4.689540763889875
 30
0.0
 11
-10.94000000061303
 21
4.689540763889875
 31
0.0
  0
LINE
  5
F1
330
75
100
AcDbEntity
  8
HALLE_0_1_EG
  6
Continuous
100
AcDbLine
 10
-13.10000000061304
 20
4.089540763889873
 30
0.0
 11
-12.83000000061304
 21
4.689540763889875
 31
0.0
  0
LINE
  5
F2
330
75
100
AcDbEntity
  8
HALLE_0_1_EG
  6
Continuous
100
AcDbLine
 10
45.22999999938715
 20
13.98954076388984
 30
0.0
 11
44.90999999938712
 21
13.98954076388984
 31
0.0
  0
LINE
  5
F3
330
75
100
AcDbEntity
  8
HALLE_0_1_EG
  6
Continuous
100
AcDbLine
 10
44.90999999938712
 20
7.249540763889836
 30
0.0
 11
44.90999999938712
 21
13.98954076388984
 31
0.0
  0
LINE
  5
F4
330
75
100
AcDbEntity
  8
HALLE_0_1_EG
  6
Continuous
100
AcDbLine
 10
45.22999999938715
 20
7.249540763889836
 30
0.0
 11
45.22999999938715
 21
13.98954076388984
 31
0.0
  0
LINE
  5
F5
330
75
100
AcDbEntity
  8
HALLE_0_1_EG
  6
Continuous
100
AcDbLine
 10
44.90999999938716
 20
20.82954076388986
 30
0.0
 11
44.90999999938716
 21
24.73954076388983
 31
0.0
  0
LINE
  5
F6
330
75
100
AcDbEntity
  8
HALLE_0_1_EG
  6
Continuous
100
AcDbLine
 10
45.22999999938715
 20
17.98954076388985
 30
0.0
 11
45.22999999938715
 21
24.98954076388983
 31
0.0
  0
LINE
  5
F7
330
75
100
AcDbEntity
  8
HALLE_0_1_EG
  6
Continuous
100
AcDbLine
 10
44.90999999938716
 20
17.98954076388985
 30
0.0
 11
44.90999999938716
 21
20.67954076388986
 31
0.0
  0
LINE
  5
F8
330
75
100
AcDbEntity
  8
HALLE_0_1_EG
  6
Continuous
100
AcDbLine
 10
45.22999999938715
 20
17.98954076388985
 30
0.0
 11
44.90999999938716
 21
17.98954076388985
 31
0.0
  0
LINE
  5
F9
330
75
100
AcDbEntity
  8
HALLE_0_1_EG
  6
Continuous
100
AcDbLine
 10
35.66349999938716
 20
24.98954076388983
 30
0.0
 11
35.66349999938716
 21
24.66954076388986
 31
0.0
  0
LINE
  5
FA
330
75
100
AcDbEntity
  8
HALLE_0_1_EG
  6
Continuous
100
AcDbLine
 10
39.84999999938715
 20
24.66954076388986
 30
0.0
 11
35.66349999938716
 21
24.66954076388986
 31
0.0
  0
LINE
  5
FB
330
75
100
AcDbEntity
  8
HALLE_0_1_EG
  6
Continuous
100
AcDbLine
 10
45.22999999938715
 20
24.98954076388983
 30
0.0
 11
35.66349999938716
 21
24.98954076388983
 31
0.0
  0
LINE
  5
FC
330
75
100
AcDbEntity
  8
HALLE_0_1_EG
  6
Continuous
100
AcDbLine
 10
41.89249999938716
 20
24.66954076388986
 30
0.0
 11
40.14999999938715
 21
24.66954076388986
 31
0.0
  0
LINE
  5
FD
330
75
100
AcDbEntity
  8
HALLE_0_1_EG
  6
Continuous
100
AcDbLine
 10
44.97999999938715
 20
24.66954076388986
 30
0.0
 11
42.04249999938716
 21
24.66954076388986
 31
0.0
  0
LINE
  5
FE
330
75
100
AcDbEntity
  8
HALLE_0_1_EG
  6
Continuous
100
AcDbLine
 10
10.61949999938696
 20
24.98954076388983
 30
0.0
 11
10.61949999938696
 21
24.66954076388986
 31
0.0
  0
LINE
  5
FF
330
75
100
AcDbEntity
  8
HALLE_0_1_EG
  6
Continuous
100
AcDbLine
 10
34.46349999938716
 20
24.98954076388983
 30
0.0
 11
10.61949999938696
 21
24.98954076388983
 31
0.0
  0
LINE
  5
100
330
75
100
AcDbEntity
  8
HALLE_0_1_EG
  6
Continuous
100
AcDbLine
 10
34.46349999938716
 20
24.98954076388983
 30
0.0
 11
34.46349999938716
 21
24.66954076388986
 31
0.0
  0
LINE
  5
101
330
75
100
AcDbEntity
  8
HALLE_0_1_EG
  6
Continuous
100
AcDbLine
 10
6.619499999386998
 20
24.66954076388986
 30
0.0
 11
-11.27956728316632
 21
24.66954076388991
 31
0.0
  0
LINE
  5
102
330
75
100
AcDbEntity
  8
HALLE_0_1_EG
  6
Continuous
100
AcDbLine
 10
6.619499999386998
 20
24.98954076388983
 30
0.0
 11
-11.27956728316631
 21
24.9895407638899
 31
0.0
  0
LINE
  5
103
330
75
100
AcDbEntity
  8
HALLE_0_1_EG
  6
Continuous
100
AcDbLine
 10
6.619499999386998
 20
24.98954076388983
 30
0.0
 11
6.619499999386998
 21
24.66954076388986
 31
0.0
  0
LINE
  5
104
330
75
100
AcDbEntity
  8
HALLE_0_1_EG
  6
Continuous
100
AcDbLine
 10
-13.39100000061302
 20
24.66954076388991
 30
0.0
 11
-14.45000000061302
 21
24.66954076388991
 31
0.0
  0
LINE
  5
105
330
75
100
AcDbEntity
  8
HALLE_0_1_EG
  6
Continuous
100
AcDbLine
 10
-13.39100000061302
 20
24.9895407638899
 30
0.0
 11
-14.77000000061302
 21
24.9895407638899
 31
0.0
  0
LINE
  5
106
330
75
100
AcDbEntity
  8
HALLE_0_1_EG
  6
Continuous
100
AcDbLine
 10
-13.39100000061302
 20
24.9895407638899
 30
0.0
 11
-13.39100000061302
 21
24.66954076388991
 31
0.0
  0
LINE
  5
107
330
75
100
AcDbEntity
  8
HALLE_0_1_EG
  6
Continuous
100
AcDbLine
 10
-14.77000000061303
 20
17.98954076388993
 30
0.0
 11
-14.45000000061303
 21
17.98954076388993
 31
0.0
  0
LINE
  5
108
330
75
100
AcDbEntity
  8
HALLE_0_1_EG
  6
Continuous
100
AcDbLine
 10
-14.45000000061302
 20
24.66954076388991
 30
0.0
 11
-14.45000000061303
 21
17.98954076388993
 31
0.0
  0
LINE
  5
109
330
75
100
AcDbEntity
  8
HALLE_0_1_EG
  6
Continuous
100
AcDbLine
 10
-14.77000000061302
 20
24.9895407638899
 30
0.0
 11
-14.77000000061303
 21
17.98954076388993
 31
0.0
  0
LINE
  5
10A
330
75
100
AcDbEntity
  8
HALLE_0_1_EG
  6
Continuous
100
AcDbLine
 10
-14.45000000061303
 20
10.63965418076117
 30
0.0
 11
-14.45000000061303
 21
7.249540763889894
 31
0.0
  0
LINE
  5
10B
330
75
100
AcDbEntity
  8
HALLE_0_1_EG
  6
Continuous
100
AcDbLine
 10
-14.77000000061303
 20
13.98954076388988
 30
0.0
 11
-14.77000000061303
 21
7.249540763889894
 31
0.0
  0
LINE
  5
10C
330
75
100
AcDbEntity
  8
HALLE_0_1_EG
  6
Continuous
100
AcDbLine
 10
-14.45000000061303
 20
13.98954076388988
 30
0.0
 11
-14.45000000061303
 21
10.78965418076116
 31
0.0
  0
LINE
  5
10D
330
75
100
AcDbEntity
  8
HALLE_0_1_EG
  6
Continuous
100
AcDbLine
 10
-14.77000000061303
 20
13.98954076388988
 30
0.0
 11
-14.45000000061303
 21
13.98954076388988
 31
0.0
  0
LINE
  5
10E
330
75
100
AcDbEntity
  8
HALLE_0_1_EG
  6
Continuous
100
AcDbLine
 10
41.89249999938716
 20
22.32954076388984
 30
0.0
 11
42.04249999938716
 21
22.32954076388984
 31
0.0
  0
LINE
  5
10F
330
75
100
AcDbEntity
  8
HALLE_0_1_EG
  6
Continuous
100
AcDbLine
 10
42.04249999938716
 20
24.66954076388986
 30
0.0
 11
42.04249999938716
 21
22.32954076388984
 31
0.0
  0
LINE
  5
110
330
75
100
AcDbEntity
  8
HALLE_0_1_EG
  6
Continuous
100
AcDbLine
 10
41.89249999938716
 20
24.66954076388986
 30
0.0
 11
41.89249999938716
 21
22.32954076388984
 31
0.0
  0
LINE
  5
111
330
75
100
AcDbEntity
  8
HALLE_0_1_EG
  6
Continuous
100
AcDbLine
 10
42.04249999938716
 20
21.52954076388984
 30
0.0
 11
42.04249999938716
 21
20.82954076388986
 31
0.0
  0
LINE
  5
112
330
75
100
AcDbEntity
  8
HALLE_0_1_EG
  6
Continuous
100
AcDbLine
 10
41.89249999938716
 20
21.52954076388984
 30
0.0
 11
41.89249999938716
 21
20.82954076388986
 31
0.0
  0
LINE
  5
113
330
75
100
AcDbEntity
  8
HALLE_0_1_EG
  6
Continuous
100
AcDbLine
 10
41.89249999938716
 20
21.52954076388984
 30
0.0
 11
42.04249999938716
 21
21.52954076388984
 31
0.0
  0
LINE
  5
114
330
75
100
AcDbEntity
  8
HALLE_0_1_EG
  6
Continuous
100
AcDbLine
 10
44.67999999938714
 20
20.82954076388986
 30
0.0
 11
44.67999999938714
 21
20.67954076388986
 31
0.0
  0
LINE
  5
115
330
75
100
AcDbEntity
  8
HALLE_0_1_EG
  6
Continuous
100
AcDbLine
 10
44.90999999938716
 20
20.67954076388986
 30
0.0
 11
44.67999999938714
 21
20.67954076388986
 31
0.0
  0
LINE
  5
116
330
75
100
AcDbEntity
  8
HALLE_0_1_EG
  6
Continuous
100
AcDbLine
 10
44.90999999938716
 20
20.82954076388986
 30
0.0
 11
44.67999999938714
 21
20.82954076388986
 31
0.0
  0
LINE
  5
117
330
75
100
AcDbEntity
  8
HALLE_0_1_EG
  6
Continuous
100
AcDbLine
 10
41.77999999938714
 20
20.82954076388986
 30
0.0
 11
41.77999999938714
 21
20.67954076388986
 31
0.0
  0
LINE
  5
118
330
75
100
AcDbEntity
  8
HALLE_0_1_EG
  6
Continuous
100
AcDbLine
 10
42.27999999938714
 20
20.67954076388986
 30
0.0
 11
41.77999999938714
 21
20.67954076388986
 31
0.0
  0
LINE
  5
119
330
75
100
AcDbEntity
  8
HALLE_0_1_EG
  6
Continuous
100
AcDbLine
 10
41.89249999938716
 20
20.82954076388986
 30
0.0
 11
41.77999999938714
 21
20.82954076388986
 31
0.0
  0
LINE
  5
11A
330
75
100
AcDbEntity
  8
HALLE_0_1_EG
  6
Continuous
100
AcDbLine
 10
42.27999999938714
 20
20.82954076388986
 30
0.0
 11
42.04249999938716
 21
20.82954076388986
 31
0.0
  0
LINE
  5
11B
330
75
100
AcDbEntity
  8
HALLE_0_1_EG
  6
Continuous
100
AcDbLine
 10
42.27999999938714
 20
20.82954076388986
 30
0.0
 11
42.27999999938714
 21
20.67954076388986
 31
0.0
  0
LINE
  5
11C
330
75
100
AcDbEntity
  8
HALLE_0_1_EG
  6
Continuous
100
AcDbLine
 10
39.99999999938717
 20
22.42954076388986
 30
0.0
 11
39.99999999938717
 21
20.82954076388986
 31
0.0
  0
LINE
  5
11D
330
75
100
AcDbEntity
  8
HALLE_0_1_EG
  6
Continuous
100
AcDbLine
 10
39.84999999938715
 20
22.42954076388986
 30
0.0
 11
39.84999999938715
 21
20.84322429604695
 31
0.0
  0
LINE
  5
11E
330
75
100
AcDbEntity
  8
HALLE_0_1_EG
  6
Continuous
100
AcDbLine
 10
40.97999999938715
 20
20.67954076388986
 30
0.0
 11
39.84999999938715
 21
20.67954076388986
 31
0.0
  0
LINE
  5
11F
330
75
100
AcDbEntity
  8
HALLE_0_1_EG
  6
Continuous
100
AcDbLine
 10
40.97999999938715
 20
20.82954076388986
 30
0.0
 11
39.99999999938717
 21
20.82954076388986
 31
0.0
  0
LINE
  5
120
330
75
100
AcDbEntity
  8
HALLE_0_1_EG
  6
Continuous
100
AcDbLine
 10
40.97999999938715
 20
20.82954076388986
 30
0.0
 11
40.97999999938715
 21
20.67954076388986
 31
0.0
  0
LINE
  5
121
330
75
100
AcDbEntity
  8
HALLE_0_1_EG
  6
Continuous
100
AcDbLine
 10
40.14999999938715
 20
24.66954076388986
 30
0.0
 11
40.14999999938715
 21
22.42954076388986
 31
0.0
  0
LINE
  5
122
330
75
100
AcDbEntity
  8
HALLE_0_1_EG
  6
Continuous
100
AcDbLine
 10
39.84999999938715
 20
24.66954076388986
 30
0.0
 11
39.84999999938715
 21
22.42954076388986
 31
0.0
  0
LINE
  5
123
330
75
100
AcDbEntity
  8
HALLE_0_1_EG
  6
Continuous
100
AcDbLine
 10
40.14999999938715
 20
22.42954076388986
 30
0.0
 11
39.99999999938717
 21
22.42954076388986
 31
0.0
  0
ARC
  5
124
330
75
100
AcDbEntity
  8
HALLE_0_1_EG
  6
Continuous
100
AcDbCircle
 10
41.74249999938715
 20
22.46954076388986
 30
0.0
 40
0.8
100
AcDbArc
 50
90.0
 51
180.0
  0
LINE
  5
125
330
75
100
AcDbEntity
  8
HALLE_0_1_EG
  6
Continuous
100
AcDbLine
 10
41.74249999938715
 20
22.46954076388986
 30
0.0
 11
41.74249999938715
 21
23.26954076388984
 31
0.0
  0
CIRCLE
  5
126
330
75
100
AcDbEntity
  8
HALLE_0_1_EG
  6
Continuous
100
AcDbCircle
 10
40.42499999938715
 20
21.62954076388984
 30
0.0
 40
0.22
  0
CIRCLE
  5
127
330
75
100
AcDbEntity
  8
HALLE_0_1_EG
  6
Continuous
100
AcDbCircle
 10
40.42499999938715
 20
21.10954076388987
 30
0.0
 40
0.1
  0
ARC
  5
128
330
75
100
AcDbEntity
  8
HALLE_0_1_EG
  6
Continuous
100
AcDbCircle
 10
41.77999999938714
 20
20.82954076388986
 30
0.0
 40
0.8
100
AcDbArc
 50
90.0
 51
180.0
  0
LINE
  5
129
330
75
100
AcDbEntity
  8
HALLE_0_1_EG
  6
Continuous
100
AcDbLine
 10
41.77999999938714
 20
20.82954076388986
 30
0.0
 11
41.77999999938714
 21
21.62954076388984
 31
0.0
  0
LINE
  5
12A
330
75
100
AcDbEntity
  8
HALLE_0_1_EG
  6
Continuous
100
AcDbLine
 10
42.04249999938716
 20
21.12954076388984
 30
0.0
 11
44.97999999938715
 21
21.12954076388984
 31
0.0
  0
LINE
  5
12B
330
75
100
AcDbEntity
  8
HALLE_0_1_EG
  6
Continuous
100
AcDbLine
 10
44.67999999938714
 20
20.67954076388986
 30
0.0
 11
44.67999999938714
 21
20.57954076388986
 31
0.0
  0
LINE
  5
12C
330
75
100
AcDbEntity
  8
HALLE_0_1_EG
  6
Continuous
100
AcDbLine
 10
44.67999999938714
 20
20.57954076388986
 30
0.0
 11
42.27999999938714
 21
20.57954076388986
 31
0.0
  0
LINE
  5
12D
330
75
100
AcDbEntity
  8
HALLE_0_1_EG
  6
Continuous
100
AcDbLine
 10
42.27999999938714
 20
20.67954076388986
 30
0.0
 11
42.27999999938714
 21
20.57954076388986
 31
0.0
  0
ARC
  5
12E
330
75
100
AcDbEntity
  8
HALLE_0_1_EG
  6
Continuous
100
AcDbCircle
 10
42.04249999938716
 20
21.52954076388984
 30
0.0
 40
0.8
100
AcDbArc
 50
0.0
 51
90.0
  0
LINE
  5
12F
330
75
100
AcDbEntity
  8
HALLE_0_1_EG
  6
Continuous
100
AcDbLine
 10
42.04249999938716
 20
21.52954076388984
 30
0.0
 11
42.84249999938714
 21
21.52954076388984
 31
0.0
  0
ARC
  5
130
330
75
100
AcDbEntity
  8
HALLE_0_1_EG
  6
Continuous
100
AcDbCircle
 10
34.51349999938716
 20
24.98954076388983
 30
0.0
 40
1.1
100
AcDbArc
 50
0.0
 51
90.0
  0
LINE
  5
131
330
75
100
AcDbEntity
  8
HALLE_0_1_EG
  6
Continuous
100
AcDbLine
 10
34.51349999938716
 20
24.98954076388983
 30
0.0
 11
34.51349999938716
 21
26.08954076388984
 31
0.0
  0
LINE
  5
132
330
75
100
AcDbEntity
  8
HALLE_0_1_EG
  6
Continuous
100
AcDbLine
 10
45.22999999938715
 20
13.98954076388984
 30
0.0
 11
45.22999999938715
 21
17.98954076388985
 31
0.0
  0
ARC
  5
133
330
75
100
AcDbEntity
  8
HALLE_0_1_EG
  6
Continuous
100
AcDbCircle
 10
45.22999999938715
 20
13.98954076388984
 30
0.0
 40
1.999999999999999
100
AcDbArc
 50
270.0
 51
90.0
  0
LINE
  5
134
330
75
100
AcDbEntity
  8
HALLE_0_1_EG
  6
Continuous
100
AcDbLine
 10
45.22999999938715
 20
13.98954076388984
 30
0.0
 11
47.22999999938713
 21
13.98954076388982
 31
0.0
  0
ARC
  5
135
330
75
100
AcDbEntity
  8
HALLE_0_1_EG
  6
Continuous
100
AcDbCircle
 10
45.22999999938715
 20
17.98954076388985
 30
0.0
 40
1.999999999999999
100
AcDbArc
 50
270.0
 51
90.0
  0
LINE
  5
136
330
75
100
AcDbEntity
  8
HALLE_0_1_EG
  6
Continuous
100
AcDbLine
 10
45.22999999938715
 20
17.98954076388985
 30
0.0
 11
47.22999999938716
 21
17.98954076388983
 31
0.0
  0
LINE
  5
137
330
75
100
AcDbEntity
  8
HALLE_0_1_EG
  6
Continuous
100
AcDbLine
 10
45.22999999938714
 20
4.98954076388983
 30
0.0
 11
45.22999999938715
 21
7.239540763889815
 31
0.0
  0
LINE
  5
138
330
75
100
AcDbEntity
  8
HALLE_0_1_EG
  6
Continuous
100
AcDbLine
 10
45.22999999938715
 20
6.989540763889837
 30
0.0
 11
45.22999999938714
 21
4.98954076388983
 31
0.0
  0
ARC
  5
139
330
75
100
AcDbEntity
  8
HALLE_0_1_EG
  6
Continuous
100
AcDbCircle
 10
45.22999999938714
 20
5.039540763889831
 30
0.0
 40
0.9499999999999998
100
AcDbArc
 50
0.0
 51
90.0
  0
LINE
  5
13A
330
75
100
AcDbEntity
  8
HALLE_0_1_EG
  6
Continuous
100
AcDbLine
 10
45.13799999938714
 20
5.039540763889831
 30
0.0
 11
46.17999999938712
 21
5.039540763889831
 31
0.0
  0
ARC
  5
13B
330
75
100
AcDbEntity
  8
HALLE_0_1_EG
  6
Continuous
100
AcDbCircle
 10
45.22999999938715
 20
6.939540763889837
 30
0.0
 40
0.9499999999999998
100
AcDbArc
 50
270.0
 51
0.0
  0
LINE
  5
13C
330
75
100
AcDbEntity
  8
HALLE_0_1_EG
  6
Continuous
100
AcDbLine
 10
45.13999999938713
 20
6.939540763889837
 30
0.0
 11
46.17999999938713
 21
6.939540763889837
 31
0.0
  0
LINE
  5
13D
330
75
100
AcDbEntity
  8
HALLE_0_1_EG
  6
Continuous
100
AcDbLine
 10
42.22999999938713
 20
4.98954076388983
 30
0.0
 11
39.22999999938715
 21
4.98954076388983
 31
0.0
  0
ARC
  5
13E
330
75
100
AcDbEntity
  8
HALLE_0_1_EG
  6
Continuous
100
AcDbCircle
 10
39.22999999938715
 20
4.98954076388983
 30
0.0
 40
1.499999999999999
100
AcDbArc
 50
0.0
 51
180.0
  0
ARC
  5
13F
330
75
100
AcDbEntity
  8
HALLE_0_1_EG
  6
Continuous
100
AcDbCircle
 10
42.22999999938713
 20
4.98954076388983
 30
0.0
 40
1.499999999999999
100
AcDbArc
 50
0.0
 51
180.0
  0
LINE
  5
140
330
75
100
AcDbEntity
  8
HALLE_0_1_EG
  6
Continuous
100
AcDbLine
 10
38.31899999938714
 20
8.429540763889844
 30
0.0
 11
34.05899999938715
 21
8.429540763889844
 31
0.0
  0
LINE
  5
141
330
75
100
AcDbEntity
  8
HALLE_0_1_EG
  6
Continuous
100
AcDbLine
 10
38.46899999938714
 20
8.579540763889845
 30
0.0
 11
33.90899999938714
 21
8.579540763889857
 31
0.0
  0
LINE
  5
142
330
75
100
AcDbEntity
  8
HALLE_0_1_EG
  6
Continuous
100
AcDbLine
 10
33.90899999938714
 20
8.09954076388985
 30
0.0
 11
34.05899999938715
 21
8.09954076388985
 31
0.0
  0
LINE
  5
143
330
75
100
AcDbEntity
  8
HALLE_0_1_EG
  6
Continuous
100
AcDbLine
 10
34.05899999938715
 20
8.429540763889844
 30
0.0
 11
34.05899999938715
 21
8.09954076388985
 31
0.0
  0
LINE
  5
144
330
75
100
AcDbEntity
  8
HALLE_0_1_EG
  6
Continuous
100
AcDbLine
 10
33.90899999938714
 20
8.579540763889857
 30
0.0
 11
33.90899999938714
 21
8.09954076388985
 31
0.0
  0
LINE
  5
145
330
75
100
AcDbEntity
  8
HALLE_0_1_EG
  6
Continuous
100
AcDbLine
 10
34.05899999938715
 20
7.389540763889851
 30
0.0
 11
34.05899999938715
 21
7.159540763889856
 31
0.0
  0
LINE
  5
146
330
75
100
AcDbEntity
  8
HALLE_0_1_EG
  6
Continuous
100
AcDbLine
 10
33.90899999938714
 20
7.389540763889851
 30
0.0
 11
33.90899999938714
 21
7.159540763889856
 31
0.0
  0
LINE
  5
147
330
75
100
AcDbEntity
  8
HALLE_0_1_EG
  6
Continuous
100
AcDbLine
 10
33.90899999938714
 20
7.389540763889851
 30
0.0
 11
34.05899999938715
 21
7.389540763889851
 31
0.0
  0
ARC
  5
148
330
75
100
AcDbEntity
  8
HALLE_0_1_EG
  6
Continuous
100
AcDbCircle
 10
34.05899999938715
 20
8.09954076388985
 30
0.0
 40
0.71
100
AcDbArc
 50
270.0
 51
0.0
  0
LINE
  5
149
330
75
100
AcDbEntity
  8
HALLE_0_1_EG
  6
Continuous
100
AcDbLine
 10
34.76899999938714
 20
8.09954076388985
 30
0.0
 11
34.05899999938715
 21
8.09954076388985
 31
0.0
  0
LINE
  5
14A
330
75
100
AcDbEntity
  8
HALLE_0_1_EG
  6
Continuous
100
AcDbLine
 10
10.61949999938696
 20
24.98954076388983
 30
0.0
 11
6.619499999386998
 21
24.98954076388983
 31
0.0
  0
ARC
  5
14B
330
75
100
AcDbEntity
  8
HALLE_0_1_EG
  6
Continuous
100
AcDbCircle
 10
6.619499999386998
 20
24.98954076388983
 30
0.0
 40
1.999999999999999
100
AcDbArc
 50
0.0
 51
180.0
  0
ARC
  5
14C
330
75
100
AcDbEntity
  8
HALLE_0_1_EG
  6
Continuous
100
AcDbCircle
 10
10.61949999938696
 20
24.98954076388983
 30
0.0
 40
1.999999999999999
100
AcDbArc
 50
0.0
 51
180.0
  0
LINE
  5
14D
330
75
100
AcDbEntity
  8
HALLE_0_1_EG
  6
Continuous
100
AcDbLine
 10
6.619499999386998
 20
24.98954076388983
 30
0.0
 11
6.619499999386998
 21
26.98954076388984
 31
0.0
  0
LINE
  5
14E
330
75
100
AcDbEntity
  8
HALLE_0_1_EG
  6
Continuous
100
AcDbLine
 10
10.61949999938696
 20
24.98954076388983
 30
0.0
 11
10.61949999938696
 21
26.98954076388984
 31
0.0
  0
LINE
  5
14F
330
75
100
AcDbEntity
  8
HALLE_0_1_EG
  6
Continuous
100
AcDbLine
 10
-11.28585901802494
 20
24.66828391547931
 30
0.0
 11
-13.39100000061302
 21
24.66828391547931
 31
0.0
  0
LINE
  5
150
330
75
100
AcDbEntity
  8
HALLE_0_1_EG
  6
Continuous
100
AcDbLine
 10
-14.45000000061301
 20
13.98954076388988
 30
0.0
 11
-14.45000000061301
 21
17.98954076388993
 31
0.0
  0
LINE
  5
151
330
75
100
AcDbEntity
  8
HALLE_0_1_EG
  6
Continuous
100
AcDbLine
 10
42.22999999938713
 20
4.98954076388983
 30
0.0
 11
42.22999999938713
 21
6.489540763889835
 31
0.0
  0
LINE
  5
152
330
75
100
AcDbEntity
  8
HALLE_0_1_EG
  6
Continuous
100
AcDbLine
 10
39.22999999938715
 20
4.98954076388983
 30
0.0
 11
39.22999999938715
 21
6.489540763889835
 31
0.0
  0
LINE
  5
153
330
75
100
AcDbEntity
  8
HALLE_0_1_EG
  6
Continuous
100
AcDbLine
 10
-14.55000000061301
 20
4.989540763889876
 30
0.0
 11
-14.55000000061301
 21
6.989540763889883
 31
0.0
  0
LINE
  5
154
330
75
100
AcDbEntity
  8
HALLE_0_1_EG
  6
Continuous
100
AcDbLine
 10
-7.920000000618329
 20
10.78965418076115
 30
0.0
 11
-7.92000000061834
 21
7.249540763889882
 31
0.0
  0
LINE
  5
155
330
75
100
AcDbEntity
  8
HALLE_0_1_EG
  6
Continuous
100
AcDbLine
 10
-8.07000000061833
 20
10.63965418076117
 30
0.0
 11
-8.070000000618341
 21
7.399540763889894
 31
0.0
  0
LINE
  5
156
330
75
100
AcDbEntity
  8
HALLE_0_1_EG
  6
Continuous
100
AcDbLine
 10
-12.05300000061303
 20
10.78965418076115
 30
0.0
 11
-12.05300000061303
 21
10.63965418076117
 31
0.0
  0
LINE
  5
157
330
75
100
AcDbEntity
  8
HALLE_0_1_EG
  6
Continuous
100
AcDbLine
 10
-8.07000000061833
 20
10.63965418076117
 30
0.0
 11
-12.05300000061303
 21
10.63965418076117
 31
0.0
  0
LINE
  5
158
330
75
100
AcDbEntity
  8
HALLE_0_1_EG
  6
Continuous
100
AcDbLine
 10
-7.920000000618329
 20
10.78965418076115
 30
0.0
 11
-12.05300000061303
 21
10.78965418076115
 31
0.0
  0
LINE
  5
159
330
75
100
AcDbEntity
  8
HALLE_0_1_EG
  6
Continuous
100
AcDbLine
 10
-14.25300000061304
 20
10.63965418076117
 30
0.0
 11
-14.45000000061303
 21
10.63965418076117
 31
0.0
  0
LINE
  5
15A
330
75
100
AcDbEntity
  8
HALLE_0_1_EG
  6
Continuous
100
AcDbLine
 10
-14.25300000061304
 20
10.78965418076116
 30
0.0
 11
-14.45000000061303
 21
10.78965418076116
 31
0.0
  0
LINE
  5
15B
330
75
100
AcDbEntity
  8
HALLE_0_1_EG
  6
Continuous
100
AcDbLine
 10
-14.25300000061304
 20
10.78965418076116
 30
0.0
 11
-14.25300000061304
 21
10.63965418076117
 31
0.0
  0
LINE
  5
15C
330
75
100
AcDbEntity
  8
HALLE_0_1_EG
  6
Continuous
100
AcDbLine
 10
42.10999999938709
 20
-35.01045923611016
 30
0.0
 11
39.1099999993871
 21
-35.01045923611015
 31
0.0
  0
ARC
  5
15D
330
75
100
AcDbEntity
  8
HALLE_0_1_EG
  6
Continuous
100
AcDbCircle
 10
42.10999999938709
 20
-35.01045923611016
 30
0.0
 40
1.499999999999999
100
AcDbArc
 50
180.0
 51
0.0
  0
LINE
  5
15E
330
75
100
AcDbEntity
  8
HALLE_0_1_EG
  6
Continuous
100
AcDbLine
 10
42.10999999938709
 20
-35.01045923611016
 30
0.0
 11
42.10999999938709
 21
-36.51045923611017
 31
0.0
  0
ARC
  5
15F
330
75
100
AcDbEntity
  8
HALLE_0_1_EG
  6
Continuous
100
AcDbCircle
 10
39.1099999993871
 20
-35.01045923611015
 30
0.0
 40
1.499999999999999
100
AcDbArc
 50
180.0
 51
0.0
  0
LINE
  5
160
330
75
100
AcDbEntity
  8
HALLE_0_1_EG
  6
Continuous
100
AcDbLine
 10
39.1099999993871
 20
-35.01045923611015
 30
0.0
 11
39.10999999938708
 21
-36.51045923611016
 31
0.0
  0
LINE
  5
161
330
75
100
AcDbEntity
  8
HALLE_0_1_EG
  6
Continuous
100
AcDbLine
 10
-3.520000000613034
 20
-35.01045923611013
 30
0.0
 11
-6.52000000061308
 21
-35.01045923611013
 31
0.0
  0
ARC
  5
162
330
75
100
AcDbEntity
  8
HALLE_0_1_EG
  6
Continuous
100
AcDbCircle
 10
-3.520000000613034
 20
-35.01045923611013
 30
0.0
 40
1.499999999999999
100
AcDbArc
 50
180.0
 51
0.0
  0
LINE
  5
163
330
75
100
AcDbEntity
  8
HALLE_0_1_EG
  6
Continuous
100
AcDbLine
 10
-3.520000000613034
 20
-35.01045923611013
 30
0.0
 11
-3.520000000613034
 21
-36.51045923611012
 31
0.0
  0
ARC
  5
164
330
75
100
AcDbEntity
  8
HALLE_0_1_EG
  6
Continuous
100
AcDbCircle
 10
-6.52000000061308
 20
-35.01045923611013
 30
0.0
 40
1.499999999999999
100
AcDbArc
 50
180.0
 51
0.0
  0
LINE
  5
165
330
75
100
AcDbEntity
  8
HALLE_0_1_EG
  6
Continuous
100
AcDbLine
 10
-6.52000000061308
 20
-35.01045923611013
 30
0.0
 11
-6.52000000061308
 21
-36.51045923611012
 31
0.0
  0
LINE
  5
166
330
75
100
AcDbEntity
  8
HALLE_0_1_EG
  6
Continuous
100
AcDbLine
 10
-9.250000000613049
 20
4.689540763889875
 30
0.0
 11
-9.250000000613049
 21
2.039540763889877
 31
0.0
  0
LINE
  5
167
330
75
100
AcDbEntity
  8
HALLE_0_1_EG
  6
Continuous
100
AcDbLine
 10
-9.400000000613037
 20
4.689540763889875
 30
0.0
 11
-9.400000000613037
 21
2.189540763889878
 31
0.0
  0
LINE
  5
168
330
75
100
AcDbEntity
  8
HALLE_0_1_EG
  6
Continuous
100
AcDbLine
 10
-4.820000000612993
 20
4.989540763889876
 30
0.0
 11
-7.82000000061305
 21
4.989540763889876
 31
0.0
  0
ARC
  5
169
330
75
100
AcDbEntity
  8
HALLE_0_1_EG
  6
Continuous
100
AcDbCircle
 10
-7.82000000061305
 20
4.989540763889876
 30
0.0
 40
1.499999999999999
100
AcDbArc
 50
0.0
 51
90.0
  0
ARC
  5
16A
330
75
100
AcDbEntity
  8
HALLE_0_1_EG
  6
Continuous
100
AcDbCircle
 10
-7.82000000061305
 20
4.989540763889876
 30
0.0
 40
1.499999999999999
100
AcDbArc
 50
90.0
 51
180.0
  0
LINE
  5
16B
330
75
100
AcDbEntity
  8
HALLE_0_1_EG
  6
Continuous
100
AcDbLine
 10
-7.82000000061305
 20
4.989540763889876
 30
0.0
 11
-7.82000000061305
 21
6.489540763889881
 31
0.0
  0
ARC
  5
16C
330
75
100
AcDbEntity
  8
HALLE_0_1_EG
  6
Continuous
100
AcDbCircle
 10
-4.820000000612993
 20
4.989540763889876
 30
0.0
 40
1.499999999999999
100
AcDbArc
 50
90.0
 51
180.0
  0
ARC
  5
16D
330
75
100
AcDbEntity
  8
HALLE_0_1_EG
  6
Continuous
100
AcDbCircle
 10
-4.820000000612993
 20
4.989540763889876
 30
0.0
 40
1.499999999999999
100
AcDbArc
 50
0.0
 51
90.0
  0
LINE
  5
16E
330
75
100
AcDbEntity
  8
HALLE_0_1_EG
  6
Continuous
100
AcDbLine
 10
-4.820000000612993
 20
4.989540763889876
 30
0.0
 11
-4.820000000612993
 21
6.489540763889881
 31
0.0
  0
TEXT
  5
170
330
75
100
AcDbEntity
  8
HALLE_0_1_EG
100
AcDbText
 10
-7.070000000613084
 20
-34.37181582525742
 30
0.0
 40
0.1136434108527132
  1
F
 50
180.0
  7
ARIALB
 11
-7.070000000613084
 21
-34.48545923611013
 31
0.0
100
AcDbText
 73
     3
  0
TEXT
  5
172
330
75
100
AcDbEntity
  8
HALLE_0_1_EG
100
AcDbText
 10
42.65999999938709
 20
-34.37181582525746
 30
0.0
 40
0.1136434108527132
  1
F
 50
180.0
  7
ARIALB
 11
42.65999999938709
 21
-34.48545923611017
 31
0.0
100
AcDbText
 73
     3
  0
TEXT
  5
173
330
75
100
AcDbEntity
  8
HALLE_0_1_EG
100
AcDbText
 10
42.77999999938713
 20
4.390859174742552
 30
0.0
 40
0.1136434108527132
  1
F
 50
180.0
  7
ARIALB
 11
42.77999999938713
 21
4.277215763889839
 31
0.0
100
AcDbText
 73
     3
  0
LINE
  5
174
330
75
100
AcDbEntity
  8
HALLE_0_1_EG
  6
Continuous
100
AcDbLine
 10
44.90999999938712
 20
7.249540763889836
 30
0.0
 11
45.00999999938713
 21
7.249540763889836
 31
0.0
  0
LINE
  5
175
330
75
100
AcDbEntity
  8
HALLE_0_1_EG
  6
Continuous
100
AcDbLine
 10
-14.45000000061303
 20
7.249540763889894
 30
0.0
 11
-14.55000000061303
 21
7.249540763889894
 31
0.0
  0
LINE
  5
176
330
75
100
AcDbEntity
  8
HALLE_0_1_EG
  6
Continuous
100
AcDbLine
 10
-11.69000000061832
 20
7.399540763889894
 30
0.0
 11
-8.070000000618341
 21
7.399540763889894
 31
0.0
  0
LINE
  5
177
330
75
100
AcDbEntity
  8
HALLE_0_1_EG
  6
Continuous
100
AcDbLine
 10
-11.69000000061832
 20
7.249540763889882
 30
0.0
 11
-7.92000000061834
 21
7.249540763889882
 31
0.0
  0
LINE
  5
178
330
75
100
AcDbEntity
  8
HALLE_0_1_EG
  6
Continuous
100
AcDbLine
 10
-11.69000000061832
 20
7.249540763889882
 30
0.0
 11
-11.69000000061832
 21
7.399540763889894
 31
0.0
  0
ARC
  5
179
330
75
100
AcDbEntity
  8
HALLE_0_1_EG
  6
Continuous
100
AcDbCircle
 10
-9.488000000613041
 20
7.149540763889893
 30
0.0
 40
1.039999999999999
100
AcDbArc
 50
180.0
 51
270.0
  0
LINE
  5
17A
330
75
100
AcDbEntity
  8
HALLE_0_1_EG
  6
Continuous
100
AcDbLine
 10
-10.52800000061304
 20
7.149540763889893
 30
0.0
 11
-9.488000000613041
 21
7.149540763889893
 31
0.0
  0
ARC
  5
17B
330
75
100
AcDbEntity
  8
HALLE_0_1_EG
  6
Continuous
100
AcDbCircle
 10
-9.488000000613041
 20
5.069540763889881
 30
0.0
 40
1.039999999999999
100
AcDbArc
 50
90.0
 51
180.0
  0
LINE
  5
17C
330
75
100
AcDbEntity
  8
HALLE_0_1_EG
  6
Continuous
100
AcDbLine
 10
-10.52800000061304
 20
5.069540763889881
 30
0.0
 11
-9.488000000613041
 21
5.069540763889881
 31
0.0
  0
TEXT
  5
17D
330
75
100
AcDbEntity
  8
HALLE_0_1_EG
100
AcDbText
 10
12.97341874938697
 20
24.54952167474255
 30
0.0
 40
0.1136434108527132
  1
F
 50
180.0
  7
ARIALB
 11
12.97341874938697
 21
24.43587826388984
 31
0.0
100
AcDbText
 73
     3
  0
CIRCLE
  5
17E
330
75
100
AcDbEntity
  8
HALLE_0_1_EG
  6
Continuous
100
AcDbCircle
 10
9.319999999386956
 20
4.639540763889876
 30
0.0
 40
0.05
  0
CIRCLE
  5
17F
330
75
100
AcDbEntity
  8
HALLE_0_1_EG
  6
Continuous
100
AcDbCircle
 10
18.03999999938697
 20
4.639540763889852
 30
0.0
 40
0.05
  0
CIRCLE
  5
180
330
75
100
AcDbEntity
  8
HALLE_0_1_EG
  6
Continuous
100
AcDbCircle
 10
25.90999999938695
 20
4.639540763889852
 30
0.0
 40
0.05
  0
CIRCLE
  5
181
330
75
100
AcDbEntity
  8
HALLE_0_1_EG
  6
Continuous
100
AcDbCircle
 10
35.75999999938713
 20
4.639540763889841
 30
0.0
 40
0.05
  0
LINE
  5
182
330
75
100
AcDbEntity
  8
HALLE_0_1_EG
  6
Continuous
100
AcDbLine
 10
40.69999999938715
 20
20.82954076388986
 30
0.0
 11
40.14999999938715
 21
20.82954076388986
 31
0.0
  0
LINE
  5
183
330
75
100
AcDbEntity
  8
HALLE_0_1_EG
  6
Continuous
100
AcDbLine
 10
40.14999999938715
 20
20.82954076388986
 30
0.0
 11
40.14999999938715
 21
22.42954076388986
 31
0.0
  0
LINE
  5
184
330
75
100
AcDbEntity
  8
HALLE_0_1_EG
  6
Continuous
100
AcDbLine
 10
40.14999999938715
 20
22.42954076388986
 30
0.0
 11
40.69999999938715
 21
22.42954076388986
 31
0.0
  0
LINE
  5
185
330
75
100
AcDbEntity
  8
HALLE_0_1_EG
  6
Continuous
100
AcDbLine
 10
40.69999999938715
 20
22.42954076388986
 30
0.0
 11
40.69999999938715
 21
20.82954076388986
 31
0.0
  0
LINE
  5
186
330
75
100
AcDbEntity
  8
HALLE_0_1_EG
  6
Continuous
100
AcDbLine
 10
46.62999999938712
 20
-2.810459236110162
 30
0.0
 11
46.62999999938712
 21
4.089540763889827
 31
0.0
  0
LINE
  5
187
330
75
100
AcDbEntity
  8
HALLE_0_1_EG
  6
Continuous
100
AcDbLine
 10
46.62999999938712
 20
4.089540763889827
 30
0.0
 11
45.22999999938714
 21
4.089540763889827
 31
0.0
  0
LINE
  5
188
330
75
100
AcDbEntity
  8
HALLE_0_1_EG
  6
Continuous
100
AcDbLine
 10
45.22999999938714
 20
4.089540763889827
 30
0.0
 11
45.22999999938714
 21
3.889540763889826
 31
0.0
  0
LINE
  5
189
330
75
100
AcDbEntity
  8
HALLE_0_1_EG
  6
Continuous
100
AcDbLine
 10
45.22999999938714
 20
3.889540763889826
 30
0.0
 11
46.42999999938715
 21
3.889540763889826
 31
0.0
  0
LINE
  5
18A
330
75
100
AcDbEntity
  8
HALLE_0_1_EG
  6
Continuous
100
AcDbLine
 10
46.42999999938715
 20
3.889540763889826
 30
0.0
 11
46.42999999938715
 21
-2.610459236110173
 31
0.0
  0
LINE
  5
18B
330
75
100
AcDbEntity
  8
HALLE_0_1_EG
  6
Continuous
100
AcDbLine
 10
46.42999999938715
 20
-2.610459236110173
 30
0.0
 11
45.22999999938714
 21
-2.610459236110173
 31
0.0
  0
LINE
  5
18C
330
75
100
AcDbEntity
  8
HALLE_0_1_EG
  6
Continuous
100
AcDbLine
 10
45.22999999938714
 20
-2.610459236110173
 30
0.0
 11
45.22999999938714
 21
-2.810459236110162
 31
0.0
  0
LINE
  5
18D
330
75
100
AcDbEntity
  8
HALLE_0_1_EG
  6
Continuous
100
AcDbLine
 10
45.22999999938714
 20
-2.810459236110162
 30
0.0
 11
46.62999999938712
 21
-2.810459236110162
 31
0.0
  0
LINE
  5
18E
330
75
100
AcDbEntity
  8
HALLE_0_1_EG
  6
Continuous
100
AcDbLine
 10
46.42999999938715
 20
-1.310459236110169
 30
0.0
 11
45.22999999938714
 21
-1.310459236110169
 31
0.0
  0
LINE
  5
18F
330
75
100
AcDbEntity
  8
HALLE_0_1_EG
  6
Continuous
100
AcDbLine
 10
45.22999999938714
 20
-1.310459236110169
 30
0.0
 11
45.22999999938714
 21
-1.050459236110158
 31
0.0
  0
LINE
  5
190
330
75
100
AcDbEntity
  8
HALLE_0_1_EG
  6
Continuous
100
AcDbLine
 10
45.22999999938714
 20
-1.050459236110158
 30
0.0
 11
46.42999999938715
 21
-1.050459236110158
 31
0.0
  0
LINE
  5
191
330
75
100
AcDbEntity
  8
HALLE_0_1_EG
  6
Continuous
100
AcDbLine
 10
46.42999999938715
 20
-1.050459236110158
 30
0.0
 11
46.42999999938715
 21
-1.310459236110169
 31
0.0
  0
LINE
  5
192
330
75
100
AcDbEntity
  8
HALLE_0_1_EG
  6
Continuous
100
AcDbLine
 10
46.42999999938715
 20
-1.050459236110158
 30
0.0
 11
45.22999999938714
 21
-1.050459236110158
 31
0.0
  0
LINE
  5
193
330
75
100
AcDbEntity
  8
HALLE_0_1_EG
  6
Continuous
100
AcDbLine
 10
45.22999999938714
 20
-1.050459236110158
 30
0.0
 11
45.22999999938714
 21
-0.7904592361101602
 31
0.0
  0
LINE
  5
194
330
75
100
AcDbEntity
  8
HALLE_0_1_EG
  6
Continuous
100
AcDbLine
 10
45.22999999938714
 20
-0.7904592361101602
 30
0.0
 11
46.42999999938715
 21
-0.7904592361101602
 31
0.0
  0
LINE
  5
195
330
75
100
AcDbEntity
  8
HALLE_0_1_EG
  6
Continuous
100
AcDbLine
 10
46.42999999938715
 20
-0.7904592361101602
 30
0.0
 11
46.42999999938715
 21
-1.050459236110158
 31
0.0
  0
LINE
  5
196
330
75
100
AcDbEntity
  8
HALLE_0_1_EG
  6
Continuous
100
AcDbLine
 10
46.42999999938715
 20
-0.7904592361101602
 30
0.0
 11
45.22999999938714
 21
-0.7904592361101602
 31
0.0
  0
LINE
  5
197
330
75
100
AcDbEntity
  8
HALLE_0_1_EG
  6
Continuous
100
AcDbLine
 10
45.22999999938714
 20
-0.7904592361101602
 30
0.0
 11
45.22999999938714
 21
-0.5304592361101614
 31
0.0
  0
LINE
  5
198
330
75
100
AcDbEntity
  8
HALLE_0_1_EG
  6
Continuous
100
AcDbLine
 10
45.22999999938714
 20
-0.5304592361101614
 30
0.0
 11
46.42999999938715
 21
-0.5304592361101614
 31
0.0
  0
LINE
  5
199
330
75
100
AcDbEntity
  8
HALLE_0_1_EG
  6
Continuous
100
AcDbLine
 10
46.42999999938715
 20
-0.5304592361101614
 30
0.0
 11
46.42999999938715
 21
-0.7904592361101602
 31
0.0
  0
LINE
  5
19A
330
75
100
AcDbEntity
  8
HALLE_0_1_EG
  6
Continuous
100
AcDbLine
 10
46.42999999938715
 20
-0.5304592361101614
 30
0.0
 11
45.22999999938714
 21
-0.5304592361101614
 31
0.0
  0
LINE
  5
19B
330
75
100
AcDbEntity
  8
HALLE_0_1_EG
  6
Continuous
100
AcDbLine
 10
45.22999999938714
 20
-0.5304592361101614
 30
0.0
 11
45.22999999938714
 21
-0.2704592361101744
 31
0.0
  0
LINE
  5
19C
330
75
100
AcDbEntity
  8
HALLE_0_1_EG
  6
Continuous
100
AcDbLine
 10
45.22999999938714
 20
-0.2704592361101744
 30
0.0
 11
46.42999999938715
 21
-0.2704592361101744
 31
0.0
  0
LINE
  5
19D
330
75
100
AcDbEntity
  8
HALLE_0_1_EG
  6
Continuous
100
AcDbLine
 10
46.42999999938715
 20
-0.2704592361101744
 30
0.0
 11
46.42999999938715
 21
-0.5304592361101614
 31
0.0
  0
LINE
  5
19E
330
75
100
AcDbEntity
  8
HALLE_0_1_EG
  6
Continuous
100
AcDbLine
 10
46.42999999938715
 20
-0.2704592361101744
 30
0.0
 11
45.22999999938714
 21
-0.2704592361101744
 31
0.0
  0
LINE
  5
19F
330
75
100
AcDbEntity
  8
HALLE_0_1_EG
  6
Continuous
100
AcDbLine
 10
45.22999999938714
 20
-0.2704592361101744
 30
0.0
 11
45.22999999938714
 21
-0.0104592361101643
 31
0.0
  0
LINE
  5
1A0
330
75
100
AcDbEntity
  8
HALLE_0_1_EG
  6
Continuous
100
AcDbLine
 10
45.22999999938714
 20
-0.0104592361101643
 30
0.0
 11
46.42999999938715
 21
-0.0104592361101643
 31
0.0
  0
LINE
  5
1A1
330
75
100
AcDbEntity
  8
HALLE_0_1_EG
  6
Continuous
100
AcDbLine
 10
46.42999999938715
 20
-0.0104592361101643
 30
0.0
 11
46.42999999938715
 21
-0.2704592361101744
 31
0.0
  0
LINE
  5
1A2
330
75
100
AcDbEntity
  8
HALLE_0_1_EG
  6
Continuous
100
AcDbLine
 10
46.42999999938715
 20
-0.0104592361101643
 30
0.0
 11
45.22999999938714
 21
-0.0104592361101643
 31
0.0
  0
LINE
  5
1A3
330
75
100
AcDbEntity
  8
HALLE_0_1_EG
  6
Continuous
100
AcDbLine
 10
45.22999999938714
 20
-0.0104592361101643
 30
0.0
 11
45.22999999938714
 21
0.2495407638898344
 31
0.0
  0
LINE
  5
1A4
330
75
100
AcDbEntity
  8
HALLE_0_1_EG
  6
Continuous
100
AcDbLine
 10
45.22999999938714
 20
0.2495407638898344
 30
0.0
 11
46.42999999938715
 21
0.2495407638898344
 31
0.0
  0
LINE
  5
1A5
330
75
100
AcDbEntity
  8
HALLE_0_1_EG
  6
Continuous
100
AcDbLine
 10
46.42999999938715
 20
0.2495407638898344
 30
0.0
 11
46.42999999938715
 21
-0.0104592361101643
 31
0.0
  0
LINE
  5
1A6
330
75
100
AcDbEntity
  8
HALLE_0_1_EG
  6
Continuous
100
AcDbLine
 10
46.42999999938715
 20
0.2495407638898344
 30
0.0
 11
45.22999999938714
 21
0.2495407638898344
 31
0.0
  0
LINE
  5
1A7
330
75
100
AcDbEntity
  8
HALLE_0_1_EG
  6
Continuous
100
AcDbLine
 10
45.22999999938714
 20
0.2495407638898344
 30
0.0
 11
45.22999999938714
 21
0.5095407638898331
 31
0.0
  0
LINE
  5
1A8
330
75
100
AcDbEntity
  8
HALLE_0_1_EG
  6
Continuous
100
AcDbLine
 10
45.22999999938714
 20
0.5095407638898331
 30
0.0
 11
46.42999999938715
 21
0.5095407638898331
 31
0.0
  0
LINE
  5
1A9
330
75
100
AcDbEntity
  8
HALLE_0_1_EG
  6
Continuous
100
AcDbLine
 10
46.42999999938715
 20
0.5095407638898331
 30
0.0
 11
46.42999999938715
 21
0.2495407638898344
 31
0.0
  0
LINE
  5
1AA
330
75
100
AcDbEntity
  8
HALLE_0_1_EG
  6
Continuous
100
AcDbLine
 10
46.42999999938715
 20
0.5095407638898331
 30
0.0
 11
45.22999999938714
 21
0.5095407638898331
 31
0.0
  0
LINE
  5
1AB
330
75
100
AcDbEntity
  8
HALLE_0_1_EG
  6
Continuous
100
AcDbLine
 10
45.22999999938714
 20
0.5095407638898331
 30
0.0
 11
45.22999999938714
 21
0.7695407638898316
 31
0.0
  0
LINE
  5
1AC
330
75
100
AcDbEntity
  8
HALLE_0_1_EG
  6
Continuous
100
AcDbLine
 10
45.22999999938714
 20
0.7695407638898316
 30
0.0
 11
46.42999999938715
 21
0.7695407638898316
 31
0.0
  0
LINE
  5
1AD
330
75
100
AcDbEntity
  8
HALLE_0_1_EG
  6
Continuous
100
AcDbLine
 10
46.42999999938715
 20
0.7695407638898316
 30
0.0
 11
46.42999999938715
 21
0.5095407638898331
 31
0.0
  0
LINE
  5
1AE
330
75
100
AcDbEntity
  8
HALLE_0_1_EG
  6
Continuous
100
AcDbLine
 10
46.42999999938715
 20
0.7695407638898316
 30
0.0
 11
45.22999999938714
 21
0.7695407638898316
 31
0.0
  0
LINE
  5
1AF
330
75
100
AcDbEntity
  8
HALLE_0_1_EG
  6
Continuous
100
AcDbLine
 10
45.22999999938714
 20
0.7695407638898316
 30
0.0
 11
45.22999999938714
 21
1.02954076388983
 31
0.0
  0
LINE
  5
1B0
330
75
100
AcDbEntity
  8
HALLE_0_1_EG
  6
Continuous
100
AcDbLine
 10
45.22999999938714
 20
1.02954076388983
 30
0.0
 11
46.42999999938715
 21
1.02954076388983
 31
0.0
  0
LINE
  5
1B1
330
75
100
AcDbEntity
  8
HALLE_0_1_EG
  6
Continuous
100
AcDbLine
 10
46.42999999938715
 20
1.02954076388983
 30
0.0
 11
46.42999999938715
 21
0.7695407638898316
 31
0.0
  0
LINE
  5
1B2
330
75
100
AcDbEntity
  8
HALLE_0_1_EG
  6
Continuous
100
AcDbLine
 10
46.42999999938715
 20
1.02954076388983
 30
0.0
 11
45.22999999938714
 21
1.02954076388983
 31
0.0
  0
LINE
  5
1B3
330
75
100
AcDbEntity
  8
HALLE_0_1_EG
  6
Continuous
100
AcDbLine
 10
45.22999999938714
 20
1.02954076388983
 30
0.0
 11
45.22999999938714
 21
1.28954076388984
 31
0.0
  0
LINE
  5
1B4
330
75
100
AcDbEntity
  8
HALLE_0_1_EG
  6
Continuous
100
AcDbLine
 10
45.22999999938714
 20
1.28954076388984
 30
0.0
 11
46.42999999938715
 21
1.28954076388984
 31
0.0
  0
LINE
  5
1B5
330
75
100
AcDbEntity
  8
HALLE_0_1_EG
  6
Continuous
100
AcDbLine
 10
46.42999999938715
 20
1.28954076388984
 30
0.0
 11
46.42999999938715
 21
1.02954076388983
 31
0.0
  0
LINE
  5
1B6
330
75
100
AcDbEntity
  8
HALLE_0_1_EG
  6
Continuous
100
AcDbLine
 10
46.42999999938715
 20
1.28954076388984
 30
0.0
 11
45.22999999938714
 21
1.28954076388984
 31
0.0
  0
LINE
  5
1B7
330
75
100
AcDbEntity
  8
HALLE_0_1_EG
  6
Continuous
100
AcDbLine
 10
45.22999999938714
 20
1.28954076388984
 30
0.0
 11
45.22999999938714
 21
1.549540763889827
 31
0.0
  0
LINE
  5
1B8
330
75
100
AcDbEntity
  8
HALLE_0_1_EG
  6
Continuous
100
AcDbLine
 10
45.22999999938714
 20
1.549540763889827
 30
0.0
 11
46.42999999938715
 21
1.549540763889827
 31
0.0
  0
LINE
  5
1B9
330
75
100
AcDbEntity
  8
HALLE_0_1_EG
  6
Continuous
100
AcDbLine
 10
46.42999999938715
 20
1.549540763889827
 30
0.0
 11
46.42999999938715
 21
1.28954076388984
 31
0.0
  0
LINE
  5
1BA
330
75
100
AcDbEntity
  8
HALLE_0_1_EG
  6
Continuous
100
AcDbLine
 10
46.42999999938715
 20
1.549540763889827
 30
0.0
 11
45.22999999938714
 21
1.549540763889827
 31
0.0
  0
LINE
  5
1BB
330
75
100
AcDbEntity
  8
HALLE_0_1_EG
  6
Continuous
100
AcDbLine
 10
45.22999999938714
 20
1.549540763889827
 30
0.0
 11
45.22999999938714
 21
1.809540763889837
 31
0.0
  0
LINE
  5
1BC
330
75
100
AcDbEntity
  8
HALLE_0_1_EG
  6
Continuous
100
AcDbLine
 10
45.22999999938714
 20
1.809540763889837
 30
0.0
 11
46.42999999938715
 21
1.809540763889837
 31
0.0
  0
LINE
  5
1BD
330
75
100
AcDbEntity
  8
HALLE_0_1_EG
  6
Continuous
100
AcDbLine
 10
46.42999999938715
 20
1.809540763889837
 30
0.0
 11
46.42999999938715
 21
1.549540763889827
 31
0.0
  0
LINE
  5
1BE
330
75
100
AcDbEntity
  8
HALLE_0_1_EG
  6
Continuous
100
AcDbLine
 10
46.42999999938715
 20
1.809540763889837
 30
0.0
 11
45.22999999938714
 21
1.809540763889837
 31
0.0
  0
LINE
  5
1BF
330
75
100
AcDbEntity
  8
HALLE_0_1_EG
  6
Continuous
100
AcDbLine
 10
45.22999999938714
 20
1.809540763889837
 30
0.0
 11
45.22999999938714
 21
2.069540763889836
 31
0.0
  0
LINE
  5
1C0
330
75
100
AcDbEntity
  8
HALLE_0_1_EG
  6
Continuous
100
AcDbLine
 10
45.22999999938714
 20
2.069540763889836
 30
0.0
 11
46.42999999938715
 21
2.069540763889836
 31
0.0
  0
LINE
  5
1C1
330
75
100
AcDbEntity
  8
HALLE_0_1_EG
  6
Continuous
100
AcDbLine
 10
46.42999999938715
 20
2.069540763889836
 30
0.0
 11
46.42999999938715
 21
1.809540763889837
 31
0.0
  0
LINE
  5
1C2
330
75
100
AcDbEntity
  8
HALLE_0_1_EG
  6
Continuous
100
AcDbLine
 10
46.42999999938715
 20
2.069540763889836
 30
0.0
 11
45.22999999938714
 21
2.069540763889836
 31
0.0
  0
LINE
  5
1C3
330
75
100
AcDbEntity
  8
HALLE_0_1_EG
  6
Continuous
100
AcDbLine
 10
45.22999999938714
 20
2.069540763889836
 30
0.0
 11
45.22999999938714
 21
2.329540763889835
 31
0.0
  0
LINE
  5
1C4
330
75
100
AcDbEntity
  8
HALLE_0_1_EG
  6
Continuous
100
AcDbLine
 10
45.22999999938714
 20
2.329540763889835
 30
0.0
 11
46.42999999938715
 21
2.329540763889835
 31
0.0
  0
LINE
  5
1C5
330
75
100
AcDbEntity
  8
HALLE_0_1_EG
  6
Continuous
100
AcDbLine
 10
46.42999999938715
 20
2.329540763889835
 30
0.0
 11
46.42999999938715
 21
2.069540763889836
 31
0.0
  0
LINE
  5
1C6
330
75
100
AcDbEntity
  8
HALLE_0_1_EG
  6
Continuous
100
AcDbLine
 10
46.42999999938715
 20
2.329540763889835
 30
0.0
 11
45.22999999938714
 21
2.329540763889835
 31
0.0
  0
LINE
  5
1C7
330
75
100
AcDbEntity
  8
HALLE_0_1_EG
  6
Continuous
100
AcDbLine
 10
45.22999999938714
 20
2.329540763889835
 30
0.0
 11
45.22999999938714
 21
2.589540763889833
 31
0.0
  0
LINE
  5
1C8
330
75
100
AcDbEntity
  8
HALLE_0_1_EG
  6
Continuous
100
AcDbLine
 10
45.22999999938714
 20
2.589540763889833
 30
0.0
 11
46.42999999938715
 21
2.589540763889833
 31
0.0
  0
LINE
  5
1C9
330
75
100
AcDbEntity
  8
HALLE_0_1_EG
  6
Continuous
100
AcDbLine
 10
46.42999999938715
 20
2.589540763889833
 30
0.0
 11
46.42999999938715
 21
2.329540763889835
 31
0.0
  0
LINE
  5
1CA
330
75
100
AcDbEntity
  8
HALLE_0_1_EG
  6
Continuous
100
AcDbLine
 10
46.42999999938715
 20
2.589540763889833
 30
0.0
 11
45.22999999938714
 21
2.589540763889833
 31
0.0
  0
LINE
  5
1CB
330
75
100
AcDbEntity
  8
HALLE_0_1_EG
  6
Continuous
100
AcDbLine
 10
45.22999999938714
 20
2.589540763889833
 30
0.0
 11
45.22999999938714
 21
2.849540763889832
 31
0.0
  0
LINE
  5
1CC
330
75
100
AcDbEntity
  8
HALLE_0_1_EG
  6
Continuous
100
AcDbLine
 10
45.22999999938714
 20
2.849540763889832
 30
0.0
 11
46.42999999938715
 21
2.849540763889832
 31
0.0
  0
LINE
  5
1CD
330
75
100
AcDbEntity
  8
HALLE_0_1_EG
  6
Continuous
100
AcDbLine
 10
46.42999999938715
 20
2.849540763889832
 30
0.0
 11
46.42999999938715
 21
2.589540763889833
 31
0.0
  0
LINE
  5
1CE
330
75
100
AcDbEntity
  8
HALLE_0_1_EG
  6
Continuous
100
AcDbLine
 10
46.42999999938715
 20
2.849540763889832
 30
0.0
 11
45.22999999938714
 21
2.849540763889832
 31
0.0
  0
LINE
  5
1CF
330
75
100
AcDbEntity
  8
HALLE_0_1_EG
  6
Continuous
100
AcDbLine
 10
45.22999999938714
 20
2.849540763889832
 30
0.0
 11
45.22999999938714
 21
3.10954076388983
 31
0.0
  0
LINE
  5
1D0
330
75
100
AcDbEntity
  8
HALLE_0_1_EG
  6
Continuous
100
AcDbLine
 10
45.22999999938714
 20
3.10954076388983
 30
0.0
 11
46.42999999938715
 21
3.10954076388983
 31
0.0
  0
LINE
  5
1D1
330
75
100
AcDbEntity
  8
HALLE_0_1_EG
  6
Continuous
100
AcDbLine
 10
46.42999999938715
 20
3.10954076388983
 30
0.0
 11
46.42999999938715
 21
2.849540763889832
 31
0.0
  0
LINE
  5
1D2
330
75
100
AcDbEntity
  8
HALLE_0_1_EG
  6
Continuous
100
AcDbLine
 10
46.42999999938715
 20
3.10954076388983
 30
0.0
 11
45.22999999938714
 21
3.10954076388983
 31
0.0
  0
LINE
  5
1D3
330
75
100
AcDbEntity
  8
HALLE_0_1_EG
  6
Continuous
100
AcDbLine
 10
45.22999999938714
 20
3.10954076388983
 30
0.0
 11
45.22999999938714
 21
3.369540763889829
 31
0.0
  0
LINE
  5
1D4
330
75
100
AcDbEntity
  8
HALLE_0_1_EG
  6
Continuous
100
AcDbLine
 10
45.22999999938714
 20
3.369540763889829
 30
0.0
 11
46.42999999938715
 21
3.369540763889829
 31
0.0
  0
LINE
  5
1D5
330
75
100
AcDbEntity
  8
HALLE_0_1_EG
  6
Continuous
100
AcDbLine
 10
46.42999999938715
 20
3.369540763889829
 30
0.0
 11
46.42999999938715
 21
3.10954076388983
 31
0.0
  0
LINE
  5
1D6
330
75
100
AcDbEntity
  8
HALLE_0_1_EG
  6
Continuous
100
AcDbLine
 10
46.42999999938715
 20
3.369540763889829
 30
0.0
 11
45.22999999938714
 21
3.369540763889829
 31
0.0
  0
LINE
  5
1D7
330
75
100
AcDbEntity
  8
HALLE_0_1_EG
  6
Continuous
100
AcDbLine
 10
45.22999999938714
 20
3.369540763889829
 30
0.0
 11
45.22999999938714
 21
3.629540763889828
 31
0.0
  0
LINE
  5
1D8
330
75
100
AcDbEntity
  8
HALLE_0_1_EG
  6
Continuous
100
AcDbLine
 10
45.22999999938714
 20
3.629540763889828
 30
0.0
 11
46.42999999938715
 21
3.629540763889828
 31
0.0
  0
LINE
  5
1D9
330
75
100
AcDbEntity
  8
HALLE_0_1_EG
  6
Continuous
100
AcDbLine
 10
46.42999999938715
 20
3.629540763889828
 30
0.0
 11
46.42999999938715
 21
3.369540763889829
 31
0.0
  0
LINE
  5
1DA
330
75
100
AcDbEntity
  8
HALLE_0_1_EG
  6
Continuous
100
AcDbLine
 10
46.42999999938715
 20
3.629540763889828
 30
0.0
 11
45.22999999938714
 21
3.629540763889828
 31
0.0
  0
LINE
  5
1DB
330
75
100
AcDbEntity
  8
HALLE_0_1_EG
  6
Continuous
100
AcDbLine
 10
45.22999999938714
 20
3.629540763889828
 30
0.0
 11
45.22999999938714
 21
3.889540763889826
 31
0.0
  0
LINE
  5
1DC
330
75
100
AcDbEntity
  8
HALLE_0_1_EG
  6
Continuous
100
AcDbLine
 10
45.22999999938714
 20
3.889540763889826
 30
0.0
 11
46.42999999938715
 21
3.889540763889826
 31
0.0
  0
LINE
  5
1DD
330
75
100
AcDbEntity
  8
HALLE_0_1_EG
  6
Continuous
100
AcDbLine
 10
46.42999999938715
 20
3.889540763889826
 30
0.0
 11
46.42999999938715
 21
3.629540763889828
 31
0.0
  0
LINE
  5
1DE
330
75
100
AcDbEntity
  8
HALLE_0_1_EG
  6
Continuous
100
AcDbLine
 10
45.22999999938714
 20
-5.510459236110161
 30
0.0
 11
45.22999999938714
 21
-4.510459236110168
 31
0.0
  0
LINE
  5
1DF
330
75
100
AcDbEntity
  8
HALLE_0_1_EG
  6
Continuous
100
AcDbLine
 10
45.2299999993871
 20
-25.51045923611017
 30
0.0
 11
45.2299999993871
 21
-24.51045923611017
 31
0.0
  0
LINE
  5
1E0
330
75
100
AcDbEntity
  8
HALLE_0_1_EG
  6
Continuous
100
AcDbLine
 10
-13.10000000061304
 20
3.489540763889871
 30
0.0
 11
-13.10000000061304
 21
4.689540763889875
 31
0.0
  0
LINE
  5
1E1
330
75
100
AcDbEntity
  8
HALLE_0_1_EG
  6
Continuous
100
AcDbLine
 10
-13.10000000061304
 20
4.689540763889875
 30
0.0
 11
-12.83000000061304
 21
4.689540763889875
 31
0.0
  0
LINE
  5
1E2
330
75
100
AcDbEntity
  8
HALLE_0_1_EG
  6
Continuous
100
AcDbLine
 10
-12.83000000061304
 20
4.689540763889875
 30
0.0
 11
-12.83000000061304
 21
3.489540763889871
 31
0.0
  0
LINE
  5
1E3
330
75
100
AcDbEntity
  8
HALLE_0_1_EG
  6
Continuous
100
AcDbLine
 10
-12.83000000061304
 20
3.489540763889871
 30
0.0
 11
-12.83000000061304
 21
4.689540763889875
 31
0.0
  0
LINE
  5
1E4
330
75
100
AcDbEntity
  8
HALLE_0_1_EG
  6
Continuous
100
AcDbLine
 10
-12.83000000061304
 20
4.689540763889875
 30
0.0
 11
-12.56000000061303
 21
4.689540763889875
 31
0.0
  0
LINE
  5
1E5
330
75
100
AcDbEntity
  8
HALLE_0_1_EG
  6
Continuous
100
AcDbLine
 10
-12.56000000061303
 20
4.689540763889875
 30
0.0
 11
-12.56000000061303
 21
3.489540763889871
 31
0.0
  0
LINE
  5
1E6
330
75
100
AcDbEntity
  8
HALLE_0_1_EG
  6
Continuous
100
AcDbLine
 10
-12.56000000061303
 20
3.489540763889871
 30
0.0
 11
-12.56000000061303
 21
4.689540763889875
 31
0.0
  0
LINE
  5
1E7
330
75
100
AcDbEntity
  8
HALLE_0_1_EG
  6
Continuous
100
AcDbLine
 10
-12.56000000061303
 20
4.689540763889875
 30
0.0
 11
-12.29000000061304
 21
4.689540763889875
 31
0.0
  0
LINE
  5
1E8
330
75
100
AcDbEntity
  8
HALLE_0_1_EG
  6
Continuous
100
AcDbLine
 10
-12.29000000061304
 20
4.689540763889875
 30
0.0
 11
-12.29000000061304
 21
3.489540763889871
 31
0.0
  0
LINE
  5
1E9
330
75
100
AcDbEntity
  8
HALLE_0_1_EG
  6
Continuous
100
AcDbLine
 10
-12.29000000061304
 20
3.489540763889871
 30
0.0
 11
-12.29000000061304
 21
4.689540763889875
 31
0.0
  0
LINE
  5
1EA
330
75
100
AcDbEntity
  8
HALLE_0_1_EG
  6
Continuous
100
AcDbLine
 10
-12.29000000061304
 20
4.689540763889875
 30
0.0
 11
-12.02000000061304
 21
4.689540763889875
 31
0.0
  0
LINE
  5
1EB
330
75
100
AcDbEntity
  8
HALLE_0_1_EG
  6
Continuous
100
AcDbLine
 10
-12.02000000061304
 20
4.689540763889875
 30
0.0
 11
-12.02000000061304
 21
3.489540763889871
 31
0.0
  0
LINE
  5
1EC
330
75
100
AcDbEntity
  8
HALLE_0_1_EG
  6
Continuous
100
AcDbLine
 10
-12.02000000061304
 20
3.489540763889871
 30
0.0
 11
-12.02000000061304
 21
4.689540763889875
 31
0.0
  0
LINE
  5
1ED
330
75
100
AcDbEntity
  8
HALLE_0_1_EG
  6
Continuous
100
AcDbLine
 10
-12.02000000061304
 20
4.689540763889875
 30
0.0
 11
-11.75000000061304
 21
4.689540763889875
 31
0.0
  0
LINE
  5
1EE
330
75
100
AcDbEntity
  8
HALLE_0_1_EG
  6
Continuous
100
AcDbLine
 10
-11.75000000061304
 20
4.689540763889875
 30
0.0
 11
-11.75000000061304
 21
3.489540763889871
 31
0.0
  0
LINE
  5
1EF
330
75
100
AcDbEntity
  8
HALLE_0_1_EG
  6
Continuous
100
AcDbLine
 10
-10.94000000061303
 20
3.489540763889871
 30
0.0
 11
-10.94000000061303
 21
4.689540763889875
 31
0.0
  0
LINE
  5
1F0
330
75
100
AcDbEntity
  8
HALLE_0_1_EG
  6
Continuous
100
AcDbLine
 10
-10.94000000061303
 20
4.689540763889875
 30
0.0
 11
-10.67000000061304
 21
4.689540763889875
 31
0.0
  0
LINE
  5
1F1
330
75
100
AcDbEntity
  8
HALLE_0_1_EG
  6
Continuous
100
AcDbLine
 10
-10.67000000061304
 20
4.689540763889875
 30
0.0
 11
-10.67000000061304
 21
3.489540763889871
 31
0.0
  0
LINE
  5
1F2
330
75
100
AcDbEntity
  8
HALLE_0_1_EG
  6
Continuous
100
AcDbLine
 10
-10.67000000061304
 20
3.489540763889871
 30
0.0
 11
-10.67000000061304
 21
4.689540763889875
 31
0.0
  0
LINE
  5
1F3
330
75
100
AcDbEntity
  8
HALLE_0_1_EG
  6
Continuous
100
AcDbLine
 10
-10.67000000061304
 20
4.689540763889875
 30
0.0
 11
-10.40000000061304
 21
4.689540763889875
 31
0.0
  0
LINE
  5
1F4
330
75
100
AcDbEntity
  8
HALLE_0_1_EG
  6
Continuous
100
AcDbLine
 10
-10.40000000061304
 20
4.689540763889875
 30
0.0
 11
-10.40000000061304
 21
3.489540763889871
 31
0.0
  0
LINE
  5
1F5
330
75
100
AcDbEntity
  8
HALLE_0_1_EG
  6
Continuous
100
AcDbLine
 10
-10.40000000061304
 20
3.489540763889871
 30
0.0
 11
-10.40000000061304
 21
4.689540763889875
 31
0.0
  0
LINE
  5
1F6
330
75
100
AcDbEntity
  8
HALLE_0_1_EG
  6
Continuous
100
AcDbLine
 10
-10.40000000061304
 20
4.689540763889875
 30
0.0
 11
-10.13000000061304
 21
4.689540763889875
 31
0.0
  0
LINE
  5
1F7
330
75
100
AcDbEntity
  8
HALLE_0_1_EG
  6
Continuous
100
AcDbLine
 10
-10.13000000061304
 20
4.689540763889875
 30
0.0
 11
-10.13000000061304
 21
3.489540763889871
 31
0.0
  0
LINE
  5
1F8
330
75
100
AcDbEntity
  8
HALLE_0_1_EG
  6
Continuous
100
AcDbLine
 10
-10.13000000061304
 20
3.489540763889871
 30
0.0
 11
-10.13000000061304
 21
4.689540763889875
 31
0.0
  0
LINE
  5
1F9
330
75
100
AcDbEntity
  8
HALLE_0_1_EG
  6
Continuous
100
AcDbLine
 10
-10.13000000061304
 20
4.689540763889875
 30
0.0
 11
-9.860000000613036
 21
4.689540763889875
 31
0.0
  0
LINE
  5
1FA
330
75
100
AcDbEntity
  8
HALLE_0_1_EG
  6
Continuous
100
AcDbLine
 10
-9.860000000613036
 20
4.689540763889875
 30
0.0
 11
-9.860000000613036
 21
3.489540763889871
 31
0.0
  0
LINE
  5
1FB
330
75
100
AcDbEntity
  8
HALLE_0_1_EG
  6
Continuous
100
AcDbLine
 10
-9.860000000613036
 20
3.489540763889871
 30
0.0
 11
-9.860000000613036
 21
4.689540763889875
 31
0.0
  0
LINE
  5
1FC
330
75
100
AcDbEntity
  8
HALLE_0_1_EG
  6
Continuous
100
AcDbLine
 10
-9.860000000613036
 20
4.689540763889875
 30
0.0
 11
-9.59000000061304
 21
4.689540763889875
 31
0.0
  0
LINE
  5
1FD
330
75
100
AcDbEntity
  8
HALLE_0_1_EG
  6
Continuous
100
AcDbLine
 10
-9.59000000061304
 20
4.689540763889875
 30
0.0
 11
-9.59000000061304
 21
3.489540763889871
 31
0.0
  0
LINE
  5
1FE
330
75
100
AcDbEntity
  8
HALLE_0_1_EG
  6
Continuous
100
AcDbLine
 10
38.27999999938715
 20
23.94892784581516
 30
0.0
 11
36.47999999938716
 21
23.94892784581516
 31
0.0
  0
LINE
  5
1FF
330
75
100
AcDbEntity
  8
HALLE_0_1_EG
  6
Continuous
100
AcDbLine
 10
36.47999999938716
 20
23.94892784581516
 30
0.0
 11
36.77999999938716
 21
24.65026157843567
 31
0.0
  0
LINE
  5
200
330
75
100
AcDbEntity
  8
HALLE_0_1_EG
  6
Continuous
100
AcDbLine
 10
36.47999999938716
 20
23.94892784581516
 30
0.0
 11
36.77999999938716
 21
23.24759411319468
 31
0.0
  0
LINE
  5
201
330
75
100
AcDbEntity
  8
HALLE_0_1_EG
  6
Continuous
100
AcDbLine
 10
39.07999999938716
 20
23.19954076389192
 30
0.0
 11
39.07999999938716
 21
21.39954076389191
 31
0.0
  0
LINE
  5
202
330
75
100
AcDbEntity
  8
HALLE_0_1_EG
  6
Continuous
100
AcDbLine
 10
39.82999999938715
 20
22.89954076389192
 30
0.0
 11
39.07999999938716
 21
23.19954076389192
 31
0.0
  0
LINE
  5
203
330
75
100
AcDbEntity
  8
HALLE_0_1_EG
  6
Continuous
100
AcDbLine
 10
39.07999999938716
 20
23.19954076389192
 30
0.0
 11
38.32999999938716
 21
22.89954076389192
 31
0.0
  0
LINE
  5
204
330
75
100
AcDbEntity
  8
HALLE_0_1_EG
  6
Continuous
100
AcDbLine
 10
41.89249999938716
 20
22.42954076388986
 30
0.0
 11
41.74249999938715
 21
22.42954076388986
 31
0.0
  0
LINE
  5
205
330
75
100
AcDbEntity
  8
HALLE_0_1_EG
  6
Continuous
100
AcDbLine
 10
41.74249999938715
 20
22.42954076388986
 30
0.0
 11
41.74249999938715
 21
22.46954076388986
 31
0.0
  0
LINE
  5
206
330
75
100
AcDbEntity
  8
HALLE_0_1_EG
  6
Continuous
100
AcDbLine
 10
41.74249999938715
 20
22.46954076388986
 30
0.0
 11
41.89249999938716
 21
22.46954076388986
 31
0.0
  0
LINE
  5
207
330
75
100
AcDbEntity
  8
HALLE_0_1_EG
  6
Continuous
100
AcDbLine
 10
41.89249999938716
 20
22.46954076388986
 30
0.0
 11
41.89249999938716
 21
22.42954076388986
 31
0.0
  0
LINE
  5
208
330
75
100
AcDbEntity
  8
HALLE_0_1_EG
  6
Continuous
100
AcDbLine
 10
40.94249999938716
 20
22.42954076388986
 30
0.0
 11
40.14999999938715
 21
22.42954076388986
 31
0.0
  0
LINE
  5
209
330
75
100
AcDbEntity
  8
HALLE_0_1_EG
  6
Continuous
100
AcDbLine
 10
40.14999999938715
 20
22.42954076388986
 30
0.0
 11
40.14999999938715
 21
22.46954076388986
 31
0.0
  0
LINE
  5
20A
330
75
100
AcDbEntity
  8
HALLE_0_1_EG
  6
Continuous
100
AcDbLine
 10
40.14999999938715
 20
22.46954076388986
 30
0.0
 11
40.94249999938716
 21
22.46954076388986
 31
0.0
  0
LINE
  5
20B
330
75
100
AcDbEntity
  8
HALLE_0_1_EG
  6
Continuous
100
AcDbLine
 10
40.94249999938716
 20
22.46954076388986
 30
0.0
 11
40.94249999938716
 21
22.42954076388986
 31
0.0
  0
LINE
  5
20C
330
75
100
AcDbEntity
  8
HALLE_0_1_EG
  6
Continuous
100
AcDbLine
 10
35.66349999938716
 20
24.93954076388985
 30
0.0
 11
34.46349999938716
 21
24.93954076388985
 31
0.0
  0
LINE
  5
20D
330
75
100
AcDbEntity
  8
HALLE_0_1_EG
  6
Continuous
100
AcDbLine
 10
34.46349999938716
 20
24.93954076388985
 30
0.0
 11
34.46349999938716
 21
24.98954076388983
 31
0.0
  0
LINE
  5
20E
330
75
100
AcDbEntity
  8
HALLE_0_1_EG
  6
Continuous
100
AcDbLine
 10
34.46349999938716
 20
24.98954076388983
 30
0.0
 11
35.66349999938716
 21
24.98954076388983
 31
0.0
  0
LINE
  5
20F
330
75
100
AcDbEntity
  8
HALLE_0_1_EG
  6
Continuous
100
AcDbLine
 10
35.66349999938716
 20
24.98954076388983
 30
0.0
 11
35.66349999938716
 21
24.93954076388985
 31
0.0
  0
LINE
  5
210
330
75
100
AcDbEntity
  8
HALLE_0_1_EG
  6
Continuous
100
AcDbLine
 10
46.30999999938715
 20
12.10954076388985
 30
0.0
 11
46.30999999938715
 21
14.76954076388986
 31
0.0
  0
LINE
  5
211
330
75
100
AcDbEntity
  8
HALLE_0_1_EG
  6
Continuous
100
AcDbLine
 10
46.30999999938715
 20
14.76954076388986
 30
0.0
 11
45.22999999938715
 21
14.76954076388986
 31
0.0
  0
LINE
  5
212
330
75
100
AcDbEntity
  8
HALLE_0_1_EG
  6
Continuous
100
AcDbLine
 10
45.22999999938715
 20
14.76954076388986
 30
0.0
 11
45.22999999938715
 21
14.68954076388984
 31
0.0
  0
LINE
  5
213
330
75
100
AcDbEntity
  8
HALLE_0_1_EG
  6
Continuous
100
AcDbLine
 10
45.22999999938715
 20
14.68954076388984
 30
0.0
 11
46.22999999938713
 21
14.68954076388984
 31
0.0
  0
LINE
  5
214
330
75
100
AcDbEntity
  8
HALLE_0_1_EG
  6
Continuous
100
AcDbLine
 10
46.22999999938713
 20
14.68954076388984
 30
0.0
 11
46.22999999938713
 21
12.18954076388983
 31
0.0
  0
LINE
  5
215
330
75
100
AcDbEntity
  8
HALLE_0_1_EG
  6
Continuous
100
AcDbLine
 10
46.22999999938713
 20
12.18954076388983
 30
0.0
 11
45.22999999938715
 21
12.18954076388983
 31
0.0
  0
LINE
  5
216
330
75
100
AcDbEntity
  8
HALLE_0_1_EG
  6
Continuous
100
AcDbLine
 10
45.22999999938715
 20
12.18954076388983
 30
0.0
 11
45.22999999938715
 21
12.10954076388985
 31
0.0
  0
LINE
  5
217
330
75
100
AcDbEntity
  8
HALLE_0_1_EG
  6
Continuous
100
AcDbLine
 10
45.22999999938715
 20
12.10954076388985
 30
0.0
 11
46.30999999938715
 21
12.10954076388985
 31
0.0
  0
LINE
  5
218
330
75
100
AcDbEntity
  8
HALLE_0_1_EG
  6
Continuous
100
AcDbLine
 10
46.62999999938712
 20
4.739540763889829
 30
0.0
 11
45.22999999938714
 21
4.739540763889829
 31
0.0
  0
LINE
  5
219
330
75
100
AcDbEntity
  8
HALLE_0_1_EG
  6
Continuous
100
AcDbLine
 10
45.22999999938714
 20
4.739540763889829
 30
0.0
 11
45.22999999938715
 21
7.249540763889836
 31
0.0
  0
LINE
  5
21A
330
75
100
AcDbEntity
  8
HALLE_0_1_EG
  6
Continuous
100
AcDbLine
 10
45.22999999938715
 20
7.249540763889836
 30
0.0
 11
46.62999999938714
 21
7.249540763889836
 31
0.0
  0
LINE
  5
21B
330
75
100
AcDbEntity
  8
HALLE_0_1_EG
  6
Continuous
100
AcDbLine
 10
46.62999999938714
 20
7.249540763889836
 30
0.0
 11
46.62999999938712
 21
4.739540763889829
 31
0.0
  0
LINE
  5
21C
330
75
100
AcDbEntity
  8
HALLE_0_1_EG
  6
Continuous
100
AcDbLine
 10
-6.57000000061308
 20
-34.68545923611011
 30
0.0
 11
-7.570000000613072
 21
-34.68545923611011
 31
0.0
  0
LINE
  5
21D
330
75
100
AcDbEntity
  8
HALLE_0_1_EG
  6
Continuous
100
AcDbLine
 10
-7.570000000613072
 20
-34.68545923611011
 30
0.0
 11
-7.570000000613072
 21
-34.48545923611012
 31
0.0
  0
LINE
  5
21E
330
75
100
AcDbEntity
  8
HALLE_0_1_EG
  6
Continuous
100
AcDbLine
 10
-7.570000000613072
 20
-34.48545923611012
 30
0.0
 11
-6.57000000061308
 21
-34.48545923611012
 31
0.0
  0
LINE
  5
21F
330
75
100
AcDbEntity
  8
HALLE_0_1_EG
  6
Continuous
100
AcDbLine
 10
-6.57000000061308
 20
-34.48545923611012
 30
0.0
 11
-6.57000000061308
 21
-34.68545923611011
 31
0.0
  0
LINE
  5
220
330
75
100
AcDbEntity
  8
HALLE_0_1_EG
  6
Continuous
100
AcDbLine
 10
43.1599999993871
 20
-34.68545923611016
 30
0.0
 11
42.1599999993871
 21
-34.68545923611016
 31
0.0
  0
LINE
  5
221
330
75
100
AcDbEntity
  8
HALLE_0_1_EG
  6
Continuous
100
AcDbLine
 10
42.1599999993871
 20
-34.68545923611016
 30
0.0
 11
42.1599999993871
 21
-34.48545923611016
 31
0.0
  0
LINE
  5
222
330
75
100
AcDbEntity
  8
HALLE_0_1_EG
  6
Continuous
100
AcDbLine
 10
42.1599999993871
 20
-34.48545923611016
 30
0.0
 11
43.1599999993871
 21
-34.48545923611016
 31
0.0
  0
LINE
  5
223
330
75
100
AcDbEntity
  8
HALLE_0_1_EG
  6
Continuous
100
AcDbLine
 10
43.1599999993871
 20
-34.48545923611016
 30
0.0
 11
43.1599999993871
 21
-34.68545923611016
 31
0.0
  0
LINE
  5
224
330
75
100
AcDbEntity
  8
HALLE_0_1_EG
  6
Continuous
100
AcDbLine
 10
43.27999999938714
 20
4.46454076388984
 30
0.0
 11
42.27999999938712
 21
4.46454076388984
 31
0.0
  0
LINE
  5
225
330
75
100
AcDbEntity
  8
HALLE_0_1_EG
  6
Continuous
100
AcDbLine
 10
42.27999999938712
 20
4.46454076388984
 30
0.0
 11
42.27999999938712
 21
4.66454076388984
 31
0.0
  0
LINE
  5
226
330
75
100
AcDbEntity
  8
HALLE_0_1_EG
  6
Continuous
100
AcDbLine
 10
42.27999999938712
 20
4.66454076388984
 30
0.0
 11
43.27999999938714
 21
4.66454076388984
 31
0.0
  0
LINE
  5
227
330
75
100
AcDbEntity
  8
HALLE_0_1_EG
  6
Continuous
100
AcDbLine
 10
43.27999999938714
 20
4.66454076388984
 30
0.0
 11
43.27999999938714
 21
4.46454076388984
 31
0.0
  0
LINE
  5
228
330
75
100
AcDbEntity
  8
HALLE_0_1_EG
  6
Continuous
100
AcDbLine
 10
45.13999999938713
 20
6.939540763889837
 30
0.0
 11
45.07999999938713
 21
6.939540763889837
 31
0.0
  0
LINE
  5
229
330
75
100
AcDbEntity
  8
HALLE_0_1_EG
  6
Continuous
100
AcDbLine
 10
45.07999999938713
 20
6.939540763889837
 30
0.0
 11
45.07999999938713
 21
6.989540763889837
 31
0.0
  0
LINE
  5
22A
330
75
100
AcDbEntity
  8
HALLE_0_1_EG
  6
Continuous
100
AcDbLine
 10
45.07999999938713
 20
6.989540763889837
 30
0.0
 11
45.13999999938713
 21
6.989540763889837
 31
0.0
  0
LINE
  5
22B
330
75
100
AcDbEntity
  8
HALLE_0_1_EG
  6
Continuous
100
AcDbLine
 10
45.13999999938713
 20
6.989540763889837
 30
0.0
 11
45.13999999938713
 21
6.939540763889837
 31
0.0
  0
LINE
  5
22C
330
75
100
AcDbEntity
  8
HALLE_0_1_EG
  6
Continuous
100
AcDbLine
 10
38.37899999938713
 20
6.989540763889837
 30
0.0
 11
38.35899999938713
 21
6.989540763889837
 31
0.0
  0
LINE
  5
22D
330
75
100
AcDbEntity
  8
HALLE_0_1_EG
  6
Continuous
100
AcDbLine
 10
38.35899999938713
 20
6.989540763889837
 30
0.0
 11
38.23899999938715
 21
6.989540763890484
 31
0.0
  0
LINE
  5
22E
330
75
100
AcDbEntity
  8
HALLE_0_1_EG
  6
Continuous
100
AcDbLine
 10
38.23899999938715
 20
6.989540763890484
 30
0.0
 11
38.23899999938715
 21
7.00954076389048
 31
0.0
  0
LINE
  5
22F
330
75
100
AcDbEntity
  8
HALLE_0_1_EG
  6
Continuous
100
AcDbLine
 10
38.23899999938715
 20
7.00954076389048
 30
0.0
 11
38.35899999938713
 21
7.00954076389048
 31
0.0
  0
LINE
  5
230
330
75
100
AcDbEntity
  8
HALLE_0_1_EG
  6
Continuous
100
AcDbLine
 10
38.35899999938713
 20
7.00954076389048
 30
0.0
 11
38.35899999938713
 21
7.229540763889829
 31
0.0
  0
LINE
  5
231
330
75
100
AcDbEntity
  8
HALLE_0_1_EG
  6
Continuous
100
AcDbLine
 10
38.35899999938713
 20
7.229540763889829
 30
0.0
 11
38.23899999938715
 21
7.229540763889829
 31
0.0
  0
LINE
  5
232
330
75
100
AcDbEntity
  8
HALLE_0_1_EG
  6
Continuous
100
AcDbLine
 10
38.23899999938715
 20
7.229540763889829
 30
0.0
 11
38.23899999938715
 21
7.249540763889847
 31
0.0
  0
LINE
  5
233
330
75
100
AcDbEntity
  8
HALLE_0_1_EG
  6
Continuous
100
AcDbLine
 10
38.23899999938715
 20
7.249540763889847
 30
0.0
 11
38.49899999938715
 21
7.249540763889847
 31
0.0
  0
LINE
  5
234
330
75
100
AcDbEntity
  8
HALLE_0_1_EG
  6
Continuous
100
AcDbLine
 10
38.49899999938715
 20
7.249540763889847
 30
0.0
 11
38.49899999938715
 21
7.229540763889829
 31
0.0
  0
LINE
  5
235
330
75
100
AcDbEntity
  8
HALLE_0_1_EG
  6
Continuous
100
AcDbLine
 10
38.49899999938715
 20
7.229540763889829
 30
0.0
 11
38.37899999938713
 21
7.229540763889829
 31
0.0
  0
LINE
  5
236
330
75
100
AcDbEntity
  8
HALLE_0_1_EG
  6
Continuous
100
AcDbLine
 10
38.37899999938713
 20
7.229540763889829
 30
0.0
 11
38.37899999938713
 21
7.00954076389048
 31
0.0
  0
LINE
  5
237
330
75
100
AcDbEntity
  8
HALLE_0_1_EG
  6
Continuous
100
AcDbLine
 10
38.37899999938713
 20
7.00954076389048
 30
0.0
 11
38.49899999938715
 21
7.00954076389048
 31
0.0
  0
LINE
  5
238
330
75
100
AcDbEntity
  8
HALLE_0_1_EG
  6
Continuous
100
AcDbLine
 10
38.49899999938715
 20
7.00954076389048
 30
0.0
 11
38.49899999938715
 21
6.989540763890484
 31
0.0
  0
LINE
  5
239
330
75
100
AcDbEntity
  8
HALLE_0_1_EG
  6
Continuous
100
AcDbLine
 10
38.49899999938715
 20
6.989540763890484
 30
0.0
 11
38.37899999938713
 21
6.989540763889837
 31
0.0
  0
LINE
  5
23A
330
75
100
AcDbEntity
  8
HALLE_0_1_EG
  6
Continuous
100
AcDbLine
 10
31.76799999938713
 20
6.989540763889837
 30
0.0
 11
31.74799999938714
 21
6.989540763889837
 31
0.0
  0
LINE
  5
23B
330
75
100
AcDbEntity
  8
HALLE_0_1_EG
  6
Continuous
100
AcDbLine
 10
31.74799999938714
 20
6.989540763889837
 30
0.0
 11
31.62799999938714
 21
6.989540763890508
 31
0.0
  0
LINE
  5
23C
330
75
100
AcDbEntity
  8
HALLE_0_1_EG
  6
Continuous
100
AcDbLine
 10
31.62799999938714
 20
6.989540763890508
 30
0.0
 11
31.62799999938714
 21
7.009540763890491
 31
0.0
  0
LINE
  5
23D
330
75
100
AcDbEntity
  8
HALLE_0_1_EG
  6
Continuous
100
AcDbLine
 10
31.62799999938714
 20
7.009540763890491
 30
0.0
 11
31.74799999938714
 21
7.009540763890491
 31
0.0
  0
LINE
  5
23E
330
75
100
AcDbEntity
  8
HALLE_0_1_EG
  6
Continuous
100
AcDbLine
 10
31.74799999938714
 20
7.009540763890491
 30
0.0
 11
31.74799999938714
 21
7.229540763889852
 31
0.0
  0
LINE
  5
23F
330
75
100
AcDbEntity
  8
HALLE_0_1_EG
  6
Continuous
100
AcDbLine
 10
31.74799999938714
 20
7.229540763889852
 30
0.0
 11
31.62799999938714
 21
7.229540763889852
 31
0.0
  0
LINE
  5
240
330
75
100
AcDbEntity
  8
HALLE_0_1_EG
  6
Continuous
100
AcDbLine
 10
31.62799999938714
 20
7.229540763889852
 30
0.0
 11
31.62799999938714
 21
7.249540763889847
 31
0.0
  0
LINE
  5
241
330
75
100
AcDbEntity
  8
HALLE_0_1_EG
  6
Continuous
100
AcDbLine
 10
31.62799999938714
 20
7.249540763889847
 30
0.0
 11
31.88799999938714
 21
7.249540763889847
 31
0.0
  0
LINE
  5
242
330
75
100
AcDbEntity
  8
HALLE_0_1_EG
  6
Continuous
100
AcDbLine
 10
31.88799999938714
 20
7.249540763889847
 30
0.0
 11
31.88799999938714
 21
7.229540763889852
 31
0.0
  0
LINE
  5
243
330
75
100
AcDbEntity
  8
HALLE_0_1_EG
  6
Continuous
100
AcDbLine
 10
31.88799999938714
 20
7.229540763889852
 30
0.0
 11
31.76799999938713
 21
7.229540763889852
 31
0.0
  0
LINE
  5
244
330
75
100
AcDbEntity
  8
HALLE_0_1_EG
  6
Continuous
100
AcDbLine
 10
31.76799999938713
 20
7.229540763889852
 30
0.0
 11
31.76799999938713
 21
7.009540763890491
 31
0.0
  0
LINE
  5
245
330
75
100
AcDbEntity
  8
HALLE_0_1_EG
  6
Continuous
100
AcDbLine
 10
31.76799999938713
 20
7.009540763890491
 30
0.0
 11
31.88799999938714
 21
7.009540763890491
 31
0.0
  0
LINE
  5
246
330
75
100
AcDbEntity
  8
HALLE_0_1_EG
  6
Continuous
100
AcDbLine
 10
31.88799999938714
 20
7.009540763890491
 30
0.0
 11
31.88799999938714
 21
6.989540763890508
 31
0.0
  0
LINE
  5
247
330
75
100
AcDbEntity
  8
HALLE_0_1_EG
  6
Continuous
100
AcDbLine
 10
31.88799999938714
 20
6.989540763890508
 30
0.0
 11
31.76799999938713
 21
6.989540763889837
 31
0.0
  0
LINE
  5
248
330
75
100
AcDbEntity
  8
HALLE_0_1_EG
  6
Continuous
100
AcDbLine
 10
25.15699999938695
 20
6.98954076388986
 30
0.0
 11
25.13699999938696
 21
6.98954076388986
 31
0.0
  0
LINE
  5
249
330
75
100
AcDbEntity
  8
HALLE_0_1_EG
  6
Continuous
100
AcDbLine
 10
25.13699999938696
 20
6.98954076388986
 30
0.0
 11
25.01699999938696
 21
6.989540763890508
 31
0.0
  0
LINE
  5
24A
330
75
100
AcDbEntity
  8
HALLE_0_1_EG
  6
Continuous
100
AcDbLine
 10
25.01699999938696
 20
6.989540763890508
 30
0.0
 11
25.01699999938696
 21
7.009540763890491
 31
0.0
  0
LINE
  5
24B
330
75
100
AcDbEntity
  8
HALLE_0_1_EG
  6
Continuous
100
AcDbLine
 10
25.01699999938696
 20
7.009540763890491
 30
0.0
 11
25.13699999938696
 21
7.009540763890491
 31
0.0
  0
LINE
  5
24C
330
75
100
AcDbEntity
  8
HALLE_0_1_EG
  6
Continuous
100
AcDbLine
 10
25.13699999938696
 20
7.009540763890491
 30
0.0
 11
25.13699999938696
 21
7.229540763889852
 31
0.0
  0
LINE
  5
24D
330
75
100
AcDbEntity
  8
HALLE_0_1_EG
  6
Continuous
100
AcDbLine
 10
25.13699999938696
 20
7.229540763889852
 30
0.0
 11
25.01699999938696
 21
7.229540763889852
 31
0.0
  0
LINE
  5
24E
330
75
100
AcDbEntity
  8
HALLE_0_1_EG
  6
Continuous
100
AcDbLine
 10
25.01699999938696
 20
7.229540763889852
 30
0.0
 11
25.01699999938696
 21
7.249540763889859
 31
0.0
  0
LINE
  5
24F
330
75
100
AcDbEntity
  8
HALLE_0_1_EG
  6
Continuous
100
AcDbLine
 10
25.01699999938696
 20
7.249540763889859
 30
0.0
 11
25.27699999938695
 21
7.249540763889859
 31
0.0
  0
LINE
  5
250
330
75
100
AcDbEntity
  8
HALLE_0_1_EG
  6
Continuous
100
AcDbLine
 10
25.27699999938695
 20
7.249540763889859
 30
0.0
 11
25.27699999938695
 21
7.229540763889852
 31
0.0
  0
LINE
  5
251
330
75
100
AcDbEntity
  8
HALLE_0_1_EG
  6
Continuous
100
AcDbLine
 10
25.27699999938695
 20
7.229540763889852
 30
0.0
 11
25.15699999938695
 21
7.229540763889852
 31
0.0
  0
LINE
  5
252
330
75
100
AcDbEntity
  8
HALLE_0_1_EG
  6
Continuous
100
AcDbLine
 10
25.15699999938695
 20
7.229540763889852
 30
0.0
 11
25.15699999938695
 21
7.009540763890491
 31
0.0
  0
LINE
  5
253
330
75
100
AcDbEntity
  8
HALLE_0_1_EG
  6
Continuous
100
AcDbLine
 10
25.15699999938695
 20
7.009540763890491
 30
0.0
 11
25.27699999938695
 21
7.009540763890491
 31
0.0
  0
LINE
  5
254
330
75
100
AcDbEntity
  8
HALLE_0_1_EG
  6
Continuous
100
AcDbLine
 10
25.27699999938695
 20
7.009540763890491
 30
0.0
 11
25.27699999938695
 21
6.989540763890508
 31
0.0
  0
LINE
  5
255
330
75
100
AcDbEntity
  8
HALLE_0_1_EG
  6
Continuous
100
AcDbLine
 10
25.27699999938695
 20
6.989540763890508
 30
0.0
 11
25.15699999938695
 21
6.98954076388986
 31
0.0
  0
LINE
  5
256
330
75
100
AcDbEntity
  8
HALLE_0_1_EG
  6
Continuous
100
AcDbLine
 10
18.54599999938696
 20
6.98954076388986
 30
0.0
 11
18.52599999938696
 21
6.98954076388986
 31
0.0
  0
LINE
  5
257
330
75
100
AcDbEntity
  8
HALLE_0_1_EG
  6
Continuous
100
AcDbLine
 10
18.52599999938696
 20
6.98954076388986
 30
0.0
 11
18.40599999938696
 21
6.989540763890508
 31
0.0
  0
LINE
  5
258
330
75
100
AcDbEntity
  8
HALLE_0_1_EG
  6
Continuous
100
AcDbLine
 10
18.40599999938696
 20
7.009540763890491
 30
0.0
 11
18.52599999938696
 21
7.009540763890491
 31
0.0
  0
LINE
  5
259
330
75
100
AcDbEntity
  8
HALLE_0_1_EG
  6
Continuous
100
AcDbLine
 10
18.52599999938696
 20
7.009540763890491
 30
0.0
 11
18.52599999938696
 21
7.229540763889852
 31
0.0
  0
LINE
  5
25A
330
75
100
AcDbEntity
  8
HALLE_0_1_EG
  6
Continuous
100
AcDbLine
 10
18.52599999938696
 20
7.229540763889852
 30
0.0
 11
18.40599999938696
 21
7.229540763889852
 31
0.0
  0
LINE
  5
25B
330
75
100
AcDbEntity
  8
HALLE_0_1_EG
  6
Continuous
100
AcDbLine
 10
18.40599999938696
 20
7.249540763889859
 30
0.0
 11
18.66599999938695
 21
7.249540763889859
 31
0.0
  0
LINE
  5
25C
330
75
100
AcDbEntity
  8
HALLE_0_1_EG
  6
Continuous
100
AcDbLine
 10
18.66599999938695
 20
7.249540763889859
 30
0.0
 11
18.66599999938695
 21
7.229540763889852
 31
0.0
  0
LINE
  5
25D
330
75
100
AcDbEntity
  8
HALLE_0_1_EG
  6
Continuous
100
AcDbLine
 10
18.66599999938695
 20
7.229540763889852
 30
0.0
 11
18.54599999938696
 21
7.229540763889852
 31
0.0
  0
LINE
  5
25E
330
75
100
AcDbEntity
  8
HALLE_0_1_EG
  6
Continuous
100
AcDbLine
 10
18.54599999938696
 20
7.229540763889852
 30
0.0
 11
18.54599999938696
 21
7.009540763890491
 31
0.0
  0
LINE
  5
25F
330
75
100
AcDbEntity
  8
HALLE_0_1_EG
  6
Continuous
100
AcDbLine
 10
18.54599999938696
 20
7.009540763890491
 30
0.0
 11
18.66599999938695
 21
7.009540763890491
 31
0.0
  0
LINE
  5
260
330
75
100
AcDbEntity
  8
HALLE_0_1_EG
  6
Continuous
100
AcDbLine
 10
18.66599999938695
 20
7.009540763890491
 30
0.0
 11
18.66599999938695
 21
6.989540763890508
 31
0.0
  0
LINE
  5
261
330
75
100
AcDbEntity
  8
HALLE_0_1_EG
  6
Continuous
100
AcDbLine
 10
18.66599999938695
 20
6.989540763890508
 30
0.0
 11
18.54599999938696
 21
6.98954076388986
 31
0.0
  0
LINE
  5
262
330
75
100
AcDbEntity
  8
HALLE_0_1_EG
  6
Continuous
100
AcDbLine
 10
11.93499999938695
 20
6.98954076388986
 30
0.0
 11
11.91499999938696
 21
6.98954076388986
 31
0.0
  0
LINE
  5
263
330
75
100
AcDbEntity
  8
HALLE_0_1_EG
  6
Continuous
100
AcDbLine
 10
11.91499999938696
 20
6.98954076388986
 30
0.0
 11
11.79499999938695
 21
6.989540763890508
 31
0.0
  0
LINE
  5
264
330
75
100
AcDbEntity
  8
HALLE_0_1_EG
  6
Continuous
100
AcDbLine
 10
11.79499999938695
 20
6.989540763890508
 30
0.0
 11
11.79499999938695
 21
7.009540763890503
 31
0.0
  0
LINE
  5
265
330
75
100
AcDbEntity
  8
HALLE_0_1_EG
  6
Continuous
100
AcDbLine
 10
11.79499999938695
 20
7.009540763890503
 30
0.0
 11
11.91499999938696
 21
7.009540763890503
 31
0.0
  0
LINE
  5
266
330
75
100
AcDbEntity
  8
HALLE_0_1_EG
  6
Continuous
100
AcDbLine
 10
11.91499999938696
 20
7.009540763890503
 30
0.0
 11
11.91499999938696
 21
7.229540763889852
 31
0.0
  0
LINE
  5
267
330
75
100
AcDbEntity
  8
HALLE_0_1_EG
  6
Continuous
100
AcDbLine
 10
11.91499999938696
 20
7.229540763889852
 30
0.0
 11
11.79499999938695
 21
7.229540763889852
 31
0.0
  0
LINE
  5
268
330
75
100
AcDbEntity
  8
HALLE_0_1_EG
  6
Continuous
100
AcDbLine
 10
11.79499999938695
 20
7.229540763889852
 30
0.0
 11
11.79499999938695
 21
7.249540763889871
 31
0.0
  0
LINE
  5
269
330
75
100
AcDbEntity
  8
HALLE_0_1_EG
  6
Continuous
100
AcDbLine
 10
11.79499999938695
 20
7.249540763889871
 30
0.0
 11
12.05499999938695
 21
7.249540763889871
 31
0.0
  0
LINE
  5
26A
330
75
100
AcDbEntity
  8
HALLE_0_1_EG
  6
Continuous
100
AcDbLine
 10
12.05499999938695
 20
7.249540763889871
 30
0.0
 11
12.05499999938695
 21
7.229540763889852
 31
0.0
  0
LINE
  5
26B
330
75
100
AcDbEntity
  8
HALLE_0_1_EG
  6
Continuous
100
AcDbLine
 10
12.05499999938695
 20
7.229540763889852
 30
0.0
 11
11.93499999938695
 21
7.229540763889852
 31
0.0
  0
LINE
  5
26C
330
75
100
AcDbEntity
  8
HALLE_0_1_EG
  6
Continuous
100
AcDbLine
 10
11.93499999938695
 20
7.229540763889852
 30
0.0
 11
11.93499999938695
 21
7.009540763890503
 31
0.0
  0
LINE
  5
26D
330
75
100
AcDbEntity
  8
HALLE_0_1_EG
  6
Continuous
100
AcDbLine
 10
11.93499999938695
 20
7.009540763890503
 30
0.0
 11
12.05499999938695
 21
7.009540763890503
 31
0.0
  0
LINE
  5
26E
330
75
100
AcDbEntity
  8
HALLE_0_1_EG
  6
Continuous
100
AcDbLine
 10
12.05499999938695
 20
7.009540763890503
 30
0.0
 11
12.05499999938695
 21
6.989540763890508
 31
0.0
  0
LINE
  5
26F
330
75
100
AcDbEntity
  8
HALLE_0_1_EG
  6
Continuous
100
AcDbLine
 10
12.05499999938695
 20
6.989540763890508
 30
0.0
 11
11.93499999938695
 21
6.98954076388986
 31
0.0
  0
LINE
  5
270
330
75
100
AcDbEntity
  8
HALLE_0_1_EG
  6
Continuous
100
AcDbLine
 10
5.323999999387021
 20
6.98954076388986
 30
0.0
 11
5.303999999387002
 21
6.98954076388986
 31
0.0
  0
LINE
  5
271
330
75
100
AcDbEntity
  8
HALLE_0_1_EG
  6
Continuous
100
AcDbLine
 10
5.303999999387002
 20
6.98954076388986
 30
0.0
 11
5.183999999387006
 21
6.989540763890519
 31
0.0
  0
LINE
  5
272
330
75
100
AcDbEntity
  8
HALLE_0_1_EG
  6
Continuous
100
AcDbLine
 10
5.183999999387006
 20
6.989540763890519
 30
0.0
 11
5.183999999387006
 21
7.009540763890503
 31
0.0
  0
LINE
  5
273
330
75
100
AcDbEntity
  8
HALLE_0_1_EG
  6
Continuous
100
AcDbLine
 10
5.183999999387006
 20
7.009540763890503
 30
0.0
 11
5.303999999387002
 21
7.009540763890503
 31
0.0
  0
LINE
  5
274
330
75
100
AcDbEntity
  8
HALLE_0_1_EG
  6
Continuous
100
AcDbLine
 10
5.303999999387002
 20
7.009540763890503
 30
0.0
 11
5.303999999387002
 21
7.229540763889875
 31
0.0
  0
LINE
  5
275
330
75
100
AcDbEntity
  8
HALLE_0_1_EG
  6
Continuous
100
AcDbLine
 10
5.303999999387002
 20
7.229540763889875
 30
0.0
 11
5.183999999387006
 21
7.229540763889875
 31
0.0
  0
LINE
  5
276
330
75
100
AcDbEntity
  8
HALLE_0_1_EG
  6
Continuous
100
AcDbLine
 10
5.183999999387006
 20
7.229540763889875
 30
0.0
 11
5.183999999387006
 21
7.249540763889871
 31
0.0
  0
LINE
  5
277
330
75
100
AcDbEntity
  8
HALLE_0_1_EG
  6
Continuous
100
AcDbLine
 10
5.183999999387006
 20
7.249540763889871
 30
0.0
 11
5.443999999387005
 21
7.249540763889871
 31
0.0
  0
LINE
  5
278
330
75
100
AcDbEntity
  8
HALLE_0_1_EG
  6
Continuous
100
AcDbLine
 10
5.443999999387005
 20
7.249540763889871
 30
0.0
 11
5.443999999387005
 21
7.229540763889875
 31
0.0
  0
LINE
  5
279
330
75
100
AcDbEntity
  8
HALLE_0_1_EG
  6
Continuous
100
AcDbLine
 10
5.443999999387005
 20
7.229540763889875
 30
0.0
 11
5.323999999387021
 21
7.229540763889875
 31
0.0
  0
LINE
  5
27A
330
75
100
AcDbEntity
  8
HALLE_0_1_EG
  6
Continuous
100
AcDbLine
 10
5.323999999387021
 20
7.229540763889875
 30
0.0
 11
5.323999999387021
 21
7.009540763890503
 31
0.0
  0
LINE
  5
27B
330
75
100
AcDbEntity
  8
HALLE_0_1_EG
  6
Continuous
100
AcDbLine
 10
5.323999999387021
 20
7.009540763890503
 30
0.0
 11
5.443999999387005
 21
7.009540763890503
 31
0.0
  0
LINE
  5
27C
330
75
100
AcDbEntity
  8
HALLE_0_1_EG
  6
Continuous
100
AcDbLine
 10
5.443999999387005
 20
7.009540763890503
 30
0.0
 11
5.443999999387005
 21
6.989540763890519
 31
0.0
  0
LINE
  5
27D
330
75
100
AcDbEntity
  8
HALLE_0_1_EG
  6
Continuous
100
AcDbLine
 10
5.443999999387005
 20
6.989540763890519
 30
0.0
 11
5.323999999387021
 21
6.98954076388986
 31
0.0
  0
LINE
  5
27E
330
75
100
AcDbEntity
  8
HALLE_0_1_EG
  6
Continuous
100
AcDbLine
 10
-1.287000000612989
 20
6.989540763889883
 30
0.0
 11
-1.307000000612995
 21
6.989540763889883
 31
0.0
  0
LINE
  5
27F
330
75
100
AcDbEntity
  8
HALLE_0_1_EG
  6
Continuous
100
AcDbLine
 10
-1.307000000612995
 20
6.989540763889883
 30
0.0
 11
-1.427000000613
 21
6.989540763890519
 31
0.0
  0
LINE
  5
280
330
75
100
AcDbEntity
  8
HALLE_0_1_EG
  6
Continuous
100
AcDbLine
 10
-1.427000000613
 20
6.989540763890519
 30
0.0
 11
-1.427000000613
 21
7.009540763890514
 31
0.0
  0
LINE
  5
281
330
75
100
AcDbEntity
  8
HALLE_0_1_EG
  6
Continuous
100
AcDbLine
 10
-1.427000000613
 20
7.009540763890514
 30
0.0
 11
-1.307000000612995
 21
7.009540763890514
 31
0.0
  0
LINE
  5
282
330
75
100
AcDbEntity
  8
HALLE_0_1_EG
  6
Continuous
100
AcDbLine
 10
-1.307000000612995
 20
7.009540763890514
 30
0.0
 11
-1.307000000612995
 21
7.229540763889875
 31
0.0
  0
LINE
  5
283
330
75
100
AcDbEntity
  8
HALLE_0_1_EG
  6
Continuous
100
AcDbLine
 10
-1.307000000612995
 20
7.229540763889875
 30
0.0
 11
-1.427000000613
 21
7.229540763889875
 31
0.0
  0
LINE
  5
284
330
75
100
AcDbEntity
  8
HALLE_0_1_EG
  6
Continuous
100
AcDbLine
 10
-1.427000000613
 20
7.229540763889875
 30
0.0
 11
-1.427000000613
 21
7.249540763889871
 31
0.0
  0
LINE
  5
285
330
75
100
AcDbEntity
  8
HALLE_0_1_EG
  6
Continuous
100
AcDbLine
 10
-1.427000000613
 20
7.249540763889871
 30
0.0
 11
-1.167000000613007
 21
7.249540763889871
 31
0.0
  0
LINE
  5
286
330
75
100
AcDbEntity
  8
HALLE_0_1_EG
  6
Continuous
100
AcDbLine
 10
-1.167000000613007
 20
7.249540763889871
 30
0.0
 11
-1.167000000613007
 21
7.229540763889875
 31
0.0
  0
LINE
  5
287
330
75
100
AcDbEntity
  8
HALLE_0_1_EG
  6
Continuous
100
AcDbLine
 10
-1.167000000613007
 20
7.229540763889875
 30
0.0
 11
-1.287000000612989
 21
7.229540763889875
 31
0.0
  0
LINE
  5
288
330
75
100
AcDbEntity
  8
HALLE_0_1_EG
  6
Continuous
100
AcDbLine
 10
-1.287000000612989
 20
7.229540763889875
 30
0.0
 11
-1.287000000612989
 21
7.009540763890514
 31
0.0
  0
LINE
  5
289
330
75
100
AcDbEntity
  8
HALLE_0_1_EG
  6
Continuous
100
AcDbLine
 10
-1.287000000612989
 20
7.009540763890514
 30
0.0
 11
-1.167000000613007
 21
7.009540763890514
 31
0.0
  0
LINE
  5
28A
330
75
100
AcDbEntity
  8
HALLE_0_1_EG
  6
Continuous
100
AcDbLine
 10
-1.167000000613007
 20
7.009540763890514
 30
0.0
 11
-1.167000000613007
 21
6.989540763890519
 31
0.0
  0
LINE
  5
28B
330
75
100
AcDbEntity
  8
HALLE_0_1_EG
  6
Continuous
100
AcDbLine
 10
-1.167000000613007
 20
6.989540763890519
 30
0.0
 11
-1.287000000612989
 21
6.989540763889883
 31
0.0
  0
LINE
  5
28C
330
75
100
AcDbEntity
  8
HALLE_0_1_EG
  6
Continuous
100
AcDbLine
 10
-7.898000000613032
 20
6.989540763889883
 30
0.0
 11
-7.918000000613039
 21
6.989540763889883
 31
0.0
  0
LINE
  5
28D
330
75
100
AcDbEntity
  8
HALLE_0_1_EG
  6
Continuous
100
AcDbLine
 10
-7.918000000613039
 20
6.989540763889883
 30
0.0
 11
-8.038000000613035
 21
6.989540763890519
 31
0.0
  0
LINE
  5
28E
330
75
100
AcDbEntity
  8
HALLE_0_1_EG
  6
Continuous
100
AcDbLine
 10
-8.038000000613035
 20
6.989540763890519
 30
0.0
 11
-8.038000000613035
 21
7.009540763890526
 31
0.0
  0
LINE
  5
28F
330
75
100
AcDbEntity
  8
HALLE_0_1_EG
  6
Continuous
100
AcDbLine
 10
-8.038000000613035
 20
7.009540763890526
 30
0.0
 11
-7.918000000613039
 21
7.009540763890526
 31
0.0
  0
LINE
  5
290
330
75
100
AcDbEntity
  8
HALLE_0_1_EG
  6
Continuous
100
AcDbLine
 10
-7.918000000613039
 20
7.009540763890526
 30
0.0
 11
-7.918000000613039
 21
7.229540763889875
 31
0.0
  0
LINE
  5
291
330
75
100
AcDbEntity
  8
HALLE_0_1_EG
  6
Continuous
100
AcDbLine
 10
-7.918000000613039
 20
7.229540763889875
 30
0.0
 11
-8.038000000613035
 21
7.229540763889875
 31
0.0
  0
LINE
  5
292
330
75
100
AcDbEntity
  8
HALLE_0_1_EG
  6
Continuous
100
AcDbLine
 10
-8.038000000613035
 20
7.229540763889875
 30
0.0
 11
-8.038000000613035
 21
7.249540763889882
 31
0.0
  0
LINE
  5
293
330
75
100
AcDbEntity
  8
HALLE_0_1_EG
  6
Continuous
100
AcDbLine
 10
-8.038000000613035
 20
7.249540763889882
 30
0.0
 11
-7.778000000613037
 21
7.249540763889882
 31
0.0
  0
LINE
  5
294
330
75
100
AcDbEntity
  8
HALLE_0_1_EG
  6
Continuous
100
AcDbLine
 10
-7.778000000613037
 20
7.249540763889882
 30
0.0
 11
-7.778000000613037
 21
7.229540763889875
 31
0.0
  0
LINE
  5
295
330
75
100
AcDbEntity
  8
HALLE_0_1_EG
  6
Continuous
100
AcDbLine
 10
-7.778000000613037
 20
7.229540763889875
 30
0.0
 11
-7.898000000613032
 21
7.229540763889875
 31
0.0
  0
LINE
  5
296
330
75
100
AcDbEntity
  8
HALLE_0_1_EG
  6
Continuous
100
AcDbLine
 10
-7.898000000613032
 20
7.229540763889875
 30
0.0
 11
-7.898000000613032
 21
7.009540763890526
 31
0.0
  0
LINE
  5
297
330
75
100
AcDbEntity
  8
HALLE_0_1_EG
  6
Continuous
100
AcDbLine
 10
-7.898000000613032
 20
7.009540763890526
 30
0.0
 11
-7.778000000613037
 21
7.009540763890526
 31
0.0
  0
LINE
  5
298
330
75
100
AcDbEntity
  8
HALLE_0_1_EG
  6
Continuous
100
AcDbLine
 10
-7.778000000613037
 20
7.009540763890526
 30
0.0
 11
-7.778000000613037
 21
6.989540763890519
 31
0.0
  0
LINE
  5
299
330
75
100
AcDbEntity
  8
HALLE_0_1_EG
  6
Continuous
100
AcDbLine
 10
-7.778000000613037
 20
6.989540763890519
 30
0.0
 11
-7.898000000613032
 21
6.989540763889883
 31
0.0
  0
LINE
  5
29A
330
75
100
AcDbEntity
  8
HALLE_0_1_EG
  6
Continuous
100
AcDbLine
 10
45.13999999938713
 20
4.98954076388983
 30
0.0
 11
45.07999999938713
 21
4.98954076388983
 31
0.0
  0
LINE
  5
29B
330
75
100
AcDbEntity
  8
HALLE_0_1_EG
  6
Continuous
100
AcDbLine
 10
45.07999999938713
 20
4.98954076388983
 30
0.0
 11
45.07999999938713
 21
5.039540763889831
 31
0.0
  0
LINE
  5
29C
330
75
100
AcDbEntity
  8
HALLE_0_1_EG
  6
Continuous
100
AcDbLine
 10
45.07999999938713
 20
5.039540763889831
 30
0.0
 11
45.13999999938713
 21
5.039540763889831
 31
0.0
  0
LINE
  5
29D
330
75
100
AcDbEntity
  8
HALLE_0_1_EG
  6
Continuous
100
AcDbLine
 10
45.13999999938713
 20
5.039540763889831
 30
0.0
 11
45.13999999938713
 21
4.98954076388983
 31
0.0
  0
LINE
  5
29E
330
75
100
AcDbEntity
  8
HALLE_0_1_EG
  6
Continuous
100
AcDbLine
 10
-9.570000000618335
 20
7.399540763889894
 30
0.0
 11
-9.610000000618338
 21
7.399540763889894
 31
0.0
  0
LINE
  5
29F
330
75
100
AcDbEntity
  8
HALLE_0_1_EG
  6
Continuous
100
AcDbLine
 10
-9.610000000618338
 20
7.399540763889894
 30
0.0
 11
-9.610000000618326
 21
9.139654180761167
 31
0.0
  0
LINE
  5
2A0
330
75
100
AcDbEntity
  8
HALLE_0_1_EG
  6
Continuous
100
AcDbLine
 10
-9.610000000618326
 20
9.139654180761167
 30
0.0
 11
-9.570000000618323
 21
9.139654180761167
 31
0.0
  0
LINE
  5
2A1
330
75
100
AcDbEntity
  8
HALLE_0_1_EG
  6
Continuous
100
AcDbLine
 10
-9.570000000618323
 20
9.139654180761167
 30
0.0
 11
-9.570000000618335
 21
7.399540763889894
 31
0.0
  0
LINE
  5
2A2
330
75
100
AcDbEntity
  8
HALLE_0_1_EG
  6
Continuous
100
AcDbLine
 10
-9.570000000618323
 20
9.099654180761154
 30
0.0
 11
-11.58000000061833
 21
9.099654180761154
 31
0.0
  0
LINE
  5
2A3
330
75
100
AcDbEntity
  8
HALLE_0_1_EG
  6
Continuous
100
AcDbLine
 10
-11.58000000061833
 20
9.099654180761154
 30
0.0
 11
-11.58000000061833
 21
9.139654180761167
 31
0.0
  0
LINE
  5
2A4
330
75
100
AcDbEntity
  8
HALLE_0_1_EG
  6
Continuous
100
AcDbLine
 10
-11.58000000061833
 20
9.139654180761167
 30
0.0
 11
-9.570000000618323
 21
9.139654180761167
 31
0.0
  0
LINE
  5
2A5
330
75
100
AcDbEntity
  8
HALLE_0_1_EG
  6
Continuous
100
AcDbLine
 10
-9.570000000618323
 20
9.139654180761167
 30
0.0
 11
-9.570000000618323
 21
9.099654180761154
 31
0.0
  0
LINE
  5
2A6
330
75
100
AcDbEntity
  8
HALLE_0_1_EG
  6
Continuous
100
AcDbLine
 10
-9.43800000061304
 20
4.989540763889876
 30
0.0
 11
-9.488000000613041
 21
4.989540763889876
 31
0.0
  0
LINE
  5
2A7
330
75
100
AcDbEntity
  8
HALLE_0_1_EG
  6
Continuous
100
AcDbLine
 10
-9.488000000613041
 20
4.989540763889876
 30
0.0
 11
-9.488000000613041
 21
7.249540763889882
 31
0.0
  0
LINE
  5
2A8
330
75
100
AcDbEntity
  8
HALLE_0_1_EG
  6
Continuous
100
AcDbLine
 10
-9.488000000613041
 20
7.249540763889882
 30
0.0
 11
-9.43800000061304
 21
7.249540763889882
 31
0.0
  0
LINE
  5
2A9
330
75
100
AcDbEntity
  8
HALLE_0_1_EG
  6
Continuous
100
AcDbLine
 10
-9.43800000061304
 20
7.249540763889882
 30
0.0
 11
-9.43800000061304
 21
4.989540763889876
 31
0.0
  0
LINE
  5
2AA
330
75
100
AcDbEntity
  8
HALLE_0_1_EG
  6
Continuous
100
AcDbLine
 10
-12.05300000061303
 20
10.63965418076117
 30
0.0
 11
-14.25300000061304
 21
10.63965418076117
 31
0.0
  0
LINE
  5
2AB
330
75
100
AcDbEntity
  8
HALLE_0_1_EG
  6
Continuous
100
AcDbLine
 10
-14.25300000061304
 20
10.63965418076117
 30
0.0
 11
-14.25300000061304
 21
10.68965418076116
 31
0.0
  0
LINE
  5
2AC
330
75
100
AcDbEntity
  8
HALLE_0_1_EG
  6
Continuous
100
AcDbLine
 10
-14.25300000061304
 20
10.68965418076116
 30
0.0
 11
-12.05300000061303
 21
10.68965418076115
 31
0.0
  0
LINE
  5
2AD
330
75
100
AcDbEntity
  8
HALLE_0_1_EG
  6
Continuous
100
AcDbLine
 10
-12.05300000061303
 20
10.68965418076115
 30
0.0
 11
-12.05300000061303
 21
10.63965418076117
 31
0.0
  0
LINE
  5
2AE
330
75
100
AcDbEntity
  8
HALLE_0_1_EG
  6
Continuous
100
AcDbLine
 10
13.42499999938697
 20
24.66954076388986
 30
0.0
 11
12.42499999938696
 21
24.66954076388986
 31
0.0
  0
LINE
  5
2AF
330
75
100
AcDbEntity
  8
HALLE_0_1_EG
  6
Continuous
100
AcDbLine
 10
12.42499999938696
 20
24.66954076388986
 30
0.0
 11
12.42499999938696
 21
24.86954076388986
 31
0.0
  0
LINE
  5
2B0
330
75
100
AcDbEntity
  8
HALLE_0_1_EG
  6
Continuous
100
AcDbLine
 10
12.42499999938696
 20
24.86954076388986
 30
0.0
 11
13.42499999938697
 21
24.86954076388986
 31
0.0
  0
LINE
  5
2B1
330
75
100
AcDbEntity
  8
HALLE_0_1_EG
  6
Continuous
100
AcDbLine
 10
13.42499999938697
 20
24.86954076388986
 30
0.0
 11
13.42499999938697
 21
24.66954076388986
 31
0.0
  0
LINE
  5
2B2
330
75
100
AcDbEntity
  8
HALLE_0_1_EG
  6
Continuous
100
AcDbLine
 10
40.45829589938715
 20
24.10225180319242
 30
0.0
 11
40.14999999938715
 21
24.11369380319241
 31
0.0
  0
LINE
  5
2B3
330
75
100
AcDbEntity
  8
HALLE_0_1_EG
  6
Continuous
100
AcDbLine
 10
40.14999999938715
 20
24.11369380319241
 30
0.0
 11
40.14999999938715
 21
24.45080780319241
 31
0.0
  0
LINE
  5
2B4
330
75
100
AcDbEntity
  8
HALLE_0_1_EG
  6
Continuous
100
AcDbLine
 10
40.14999999938715
 20
24.45080780319241
 30
0.0
 11
40.45829599938715
 21
24.46225020319243
 31
0.0
  0
ARC
  5
2B5
330
75
100
AcDbEntity
  8
HALLE_0_1_EG
  6
Continuous
100
AcDbCircle
 10
40.46798478841313
 20
24.18058589313124
 30
0.0
 40
0.2818309000000223
100
AcDbArc
 50
38.92718890356006
 51
91.97019445673319
  0
LINE
  5
2B6
330
75
100
AcDbEntity
  8
HALLE_0_1_EG
  6
Continuous
100
AcDbLine
 10
40.68723539938716
 20
24.35766730319242
 30
0.0
 11
40.68723529938716
 21
24.20683450319245
 31
0.0
  0
ARC
  5
2B7
330
75
100
AcDbEntity
  8
HALLE_0_1_EG
  6
Continuous
100
AcDbCircle
 10
40.46798498491532
 20
24.38391580288755
 30
0.0
 40
0.2818306000000053
100
AcDbArc
 50
268.0303431058813
 51
321.0735619421057
  0
LINE
  5
2B8
330
75
100
AcDbEntity
  8
HALLE_0_1_EG
  6
Continuous
100
AcDbLine
 10
40.21559799938716
 20
24.44764080319244
 30
0.0
 11
40.20999999938715
 21
24.43376380319242
 31
0.0
  0
LINE
  5
2B9
330
75
100
AcDbEntity
  8
HALLE_0_1_EG
  6
Continuous
100
AcDbLine
 10
40.20999999938715
 20
24.43376380319242
 30
0.0
 11
40.20999999938715
 21
24.13073780319242
 31
0.0
  0
LINE
  5
2BA
330
75
100
AcDbEntity
  8
HALLE_0_1_EG
  6
Continuous
100
AcDbLine
 10
40.20999999938715
 20
24.13073780319242
 30
0.0
 11
40.21559799938716
 21
24.11686080319243
 31
0.0
  0
LINE
  5
2BB
330
75
100
AcDbEntity
  8
HALLE_0_1_EG
  6
Continuous
100
AcDbLine
 10
40.21559799938716
 20
24.11686080319243
 30
0.0
 11
40.22925799938716
 21
24.11075180319242
 31
0.0
  0
ARC
  5
2BC
330
75
100
AcDbEntity
  8
HALLE_0_1_EG
  6
Continuous
100
AcDbCircle
 10
40.57369410630076
 20
24.28225080319241
 30
0.0
 40
0.0963056187058232
100
AcDbArc
 50
327.4675249527175
 51
32.53247504728248
  0
ARC
  5
2BD
330
75
100
AcDbEntity
  8
HALLE_0_1_EG
  6
Continuous
100
AcDbCircle
 10
40.46818997102448
 20
24.38392851198753
 30
0.0
 40
0.2416792000000024
100
AcDbArc
 50
268.0148850527143
 51
320.5794747400732
  0
LINE
  5
2BE
330
75
100
AcDbEntity
  8
HALLE_0_1_EG
  6
Continuous
100
AcDbLine
 10
40.45981679938715
 20
24.14239440319243
 30
0.0
 11
40.33035549938715
 21
24.28225080319241
 31
0.0
  0
LINE
  5
2BF
330
75
100
AcDbEntity
  8
HALLE_0_1_EG
  6
Continuous
100
AcDbLine
 10
40.33035549938715
 20
24.28225080319241
 30
0.0
 11
40.45981679938715
 21
24.42210730319241
 31
0.0
  0
ARC
  5
2C0
330
75
100
AcDbEntity
  8
HALLE_0_1_EG
  6
Continuous
100
AcDbCircle
 10
40.4681898910811
 20
24.18057319162862
 30
0.0
 40
0.2416792000000151
100
AcDbArc
 50
39.42133954603404
 51
91.9856462720643
  0
LINE
  5
2C1
330
75
100
AcDbEntity
  8
HALLE_0_1_EG
  6
Continuous
100
AcDbLine
 10
40.40026999938715
 20
24.23725080319242
 30
0.0
 11
40.37234999938715
 21
24.23291830319242
 31
0.0
  0
LINE
  5
2C2
330
75
100
AcDbEntity
  8
HALLE_0_1_EG
  6
Continuous
100
AcDbLine
 10
40.37234999938715
 20
24.23291830319242
 30
0.0
 11
40.36888919938714
 21
24.23364710319241
 31
0.0
  0
LINE
  5
2C3
330
75
100
AcDbEntity
  8
HALLE_0_1_EG
  6
Continuous
100
AcDbLine
 10
40.36888919938714
 20
24.23364710319241
 30
0.0
 11
40.36677629938716
 21
24.23648330319242
 31
0.0
  0
LINE
  5
2C4
330
75
100
AcDbEntity
  8
HALLE_0_1_EG
  6
Continuous
100
AcDbLine
 10
40.36677629938716
 20
24.23648330319242
 30
0.0
 11
40.36035549938715
 21
24.28225080319241
 31
0.0
  0
LINE
  5
2C5
330
75
100
AcDbEntity
  8
HALLE_0_1_EG
  6
Continuous
100
AcDbLine
 10
40.36035549938715
 20
24.28225080319241
 30
0.0
 11
40.36677629938716
 21
24.32801830319242
 31
0.0
  0
LINE
  5
2C6
330
75
100
AcDbEntity
  8
HALLE_0_1_EG
  6
Continuous
100
AcDbLine
 10
40.36677629938716
 20
24.32801830319242
 30
0.0
 11
40.36888919938714
 21
24.33085450319243
 31
0.0
  0
LINE
  5
2C7
330
75
100
AcDbEntity
  8
HALLE_0_1_EG
  6
Continuous
100
AcDbLine
 10
40.36888919938714
 20
24.33085450319243
 30
0.0
 11
40.37234999938715
 21
24.33158330319243
 31
0.0
  0
LINE
  5
2C8
330
75
100
AcDbEntity
  8
HALLE_0_1_EG
  6
Continuous
100
AcDbLine
 10
40.37234999938715
 20
24.33158330319243
 30
0.0
 11
40.40026999938715
 21
24.32725080319244
 31
0.0
  0
ARC
  5
2C9
330
75
100
AcDbEntity
  8
HALLE_0_1_EG
  6
Continuous
100
AcDbCircle
 10
40.47325904890177
 20
24.20509615993759
 30
0.0
 40
0.2178819243354964
100
AcDbArc
 50
36.28589657385617
 51
58.70876250971254
  0
LINE
  5
2CA
330
75
100
AcDbEntity
  8
HALLE_0_1_EG
  6
Continuous
100
AcDbLine
 10
40.64888799938716
 20
24.33404190319241
 30
0.0
 11
40.64888789938715
 21
24.23045990319241
 31
0.0
  0
LINE
  5
2CB
330
75
100
AcDbEntity
  8
HALLE_0_1_EG
  6
Continuous
100
AcDbLine
 10
40.64888789938715
 20
24.23045990319241
 30
0.0
 11
40.58744929938715
 21
24.17374010319241
 31
0.0
  0
ARC
  5
2CC
330
75
100
AcDbEntity
  8
HALLE_0_1_EG
  6
Continuous
100
AcDbCircle
 10
40.17730588535357
 20
23.17303582804317
 30
0.0
 40
0.4044179000000029
100
AcDbArc
 50
266.1290426984125
 51
314.322163944474
  0
LINE
  5
2CD
330
75
100
AcDbEntity
  8
HALLE_0_1_EG
  6
Continuous
100
AcDbLine
 10
40.14999999938715
 20
22.76954081388986
 30
0.0
 11
40.14999999938715
 21
23.06954071388986
 31
0.0
  0
ARC
  5
2CE
330
75
100
AcDbEntity
  8
HALLE_0_1_EG
  6
Continuous
100
AcDbCircle
 10
40.17730588533816
 20
22.66604569975348
 30
0.0
 40
0.4044178999999869
100
AcDbArc
 50
45.67824808677535
 51
93.87153782113541
  0
LINE
  5
2CF
330
75
100
AcDbEntity
  8
HALLE_0_1_EG
  6
Continuous
100
AcDbLine
 10
40.45986829938716
 20
22.95537651388985
 30
0.0
 11
40.47499989938716
 21
22.91954071388988
 31
0.0
  0
ARC
  5
2D0
330
75
100
AcDbEntity
  8
HALLE_0_1_EG
  6
Continuous
100
AcDbCircle
 10
40.42499989938715
 20
22.91954067604009
 30
0.0
 40
0.0500000000000069
100
AcDbArc
 50
314.2168523489179
 51
0.0
  0
LINE
  5
2D1
330
75
100
AcDbEntity
  8
HALLE_0_1_EG
  6
Continuous
100
AcDbLine
 10
40.23952879938716
 20
22.80325001388984
 30
0.0
 11
40.40348599938715
 21
22.87835901388985
 31
0.0
  0
ARC
  5
2D2
330
75
100
AcDbEntity
  8
HALLE_0_1_EG
  6
Continuous
100
AcDbCircle
 10
40.37513009938715
 20
22.91954084162219
 30
0.0
 40
0.0500000000000192
100
AcDbArc
 50
304.549992106654
 51
359.9999999999861
  0
LINE
  5
2D3
330
75
100
AcDbEntity
  8
HALLE_0_1_EG
  6
Continuous
100
AcDbLine
 10
40.42513009938715
 20
22.91954081388986
 30
0.0
 11
40.40348599938715
 21
22.96072261388985
 31
0.0
  0
ARC
  5
2D4
330
75
100
AcDbEntity
  8
HALLE_0_1_EG
  6
Continuous
100
AcDbCircle
 10
40.1544854533052
 20
22.63368098531293
 30
0.0
 40
0.4110443999999953
100
AcDbArc
 50
52.71534454279049
 51
78.05915275379892
  0
LINE
  5
2D5
330
75
100
AcDbEntity
  8
HALLE_0_1_EG
  6
Continuous
100
AcDbLine
 10
40.23952879938716
 20
23.03583161388985
 30
0.0
 11
40.19819139938714
 21
23.02532541388985
 31
0.0
  0
LINE
  5
2D6
330
75
100
AcDbEntity
  8
HALLE_0_1_EG
  6
Continuous
100
AcDbLine
 10
40.19819139938714
 20
23.02532541388985
 30
0.0
 11
40.17999989938715
 21
22.98674791388983
 31
0.0
  0
LINE
  5
2D7
330
75
100
AcDbEntity
  8
HALLE_0_1_EG
  6
Continuous
100
AcDbLine
 10
40.17999989938715
 20
22.98674791388983
 30
0.0
 11
40.17999999938715
 21
22.85233371388984
 31
0.0
  0
ARC
  5
2D8
330
75
100
AcDbEntity
  8
HALLE_0_1_EG
  6
Continuous
100
AcDbCircle
 10
40.22999999938717
 20
22.85233365973269
 30
0.0
 40
0.0500000000000061
100
AcDbArc
 50
180.0
 51
230.4930909582998
  0
ARC
  5
2D9
330
75
100
AcDbEntity
  8
HALLE_0_1_EG
  6
Continuous
100
AcDbCircle
 10
40.23000002257412
 20
22.85233364061472
 30
0.0
 40
0.0499999999999937
100
AcDbArc
 50
230.4934001431408
 51
280.9865249687707
  0
LINE
  5
2DA
330
75
100
AcDbEntity
  8
HALLE_0_1_EG
  6
Continuous
100
AcDbLine
 10
45.80999999938712
 20
-5.590459236110166
 30
0.0
 11
45.80999999938712
 21
-4.430459236110175
 31
0.0
  0
LINE
  5
2DB
330
75
100
AcDbEntity
  8
HALLE_0_1_EG
  6
Continuous
100
AcDbLine
 10
45.80999999938712
 20
-4.430459236110175
 30
0.0
 11
45.22999999938714
 21
-4.430459236110175
 31
0.0
  0
LINE
  5
2DC
330
75
100
AcDbEntity
  8
HALLE_0_1_EG
  6
Continuous
100
AcDbLine
 10
45.22999999938714
 20
-4.430459236110175
 30
0.0
 11
45.22999999938714
 21
-4.510459236110168
 31
0.0
  0
LINE
  5
2DD
330
75
100
AcDbEntity
  8
HALLE_0_1_EG
  6
Continuous
100
AcDbLine
 10
45.22999999938714
 20
-4.510459236110168
 30
0.0
 11
45.72999999938715
 21
-4.510459236110168
 31
0.0
  0
LINE
  5
2DE
330
75
100
AcDbEntity
  8
HALLE_0_1_EG
  6
Continuous
100
AcDbLine
 10
45.72999999938715
 20
-4.510459236110168
 30
0.0
 11
45.72999999938715
 21
-5.510459236110161
 31
0.0
  0
LINE
  5
2DF
330
75
100
AcDbEntity
  8
HALLE_0_1_EG
  6
Continuous
100
AcDbLine
 10
45.72999999938715
 20
-5.510459236110161
 30
0.0
 11
45.22999999938714
 21
-5.510459236110161
 31
0.0
  0
LINE
  5
2E0
330
75
100
AcDbEntity
  8
HALLE_0_1_EG
  6
Continuous
100
AcDbLine
 10
45.22999999938714
 20
-5.510459236110161
 30
0.0
 11
45.22999999938714
 21
-5.590459236110166
 31
0.0
  0
LINE
  5
2E1
330
75
100
AcDbEntity
  8
HALLE_0_1_EG
  6
Continuous
100
AcDbLine
 10
45.22999999938714
 20
-5.590459236110166
 30
0.0
 11
45.80999999938712
 21
-5.590459236110166
 31
0.0
  0
LINE
  5
2E2
330
75
100
AcDbEntity
  8
HALLE_0_1_EG
  6
Continuous
100
AcDbLine
 10
45.80999999938711
 20
-25.59045923611017
 30
0.0
 11
45.80999999938711
 21
-24.43045923611017
 31
0.0
  0
LINE
  5
2E3
330
75
100
AcDbEntity
  8
HALLE_0_1_EG
  6
Continuous
100
AcDbLine
 10
45.80999999938711
 20
-24.43045923611017
 30
0.0
 11
45.2299999993871
 21
-24.43045923611017
 31
0.0
  0
LINE
  5
2E4
330
75
100
AcDbEntity
  8
HALLE_0_1_EG
  6
Continuous
100
AcDbLine
 10
45.2299999993871
 20
-24.43045923611017
 30
0.0
 11
45.2299999993871
 21
-24.51045923611017
 31
0.0
  0
LINE
  5
2E5
330
75
100
AcDbEntity
  8
HALLE_0_1_EG
  6
Continuous
100
AcDbLine
 10
45.2299999993871
 20
-24.51045923611017
 30
0.0
 11
45.72999999938711
 21
-24.51045923611017
 31
0.0
  0
LINE
  5
2E6
330
75
100
AcDbEntity
  8
HALLE_0_1_EG
  6
Continuous
100
AcDbLine
 10
45.72999999938711
 20
-24.51045923611017
 30
0.0
 11
45.72999999938711
 21
-25.51045923611017
 31
0.0
  0
LINE
  5
2E7
330
75
100
AcDbEntity
  8
HALLE_0_1_EG
  6
Continuous
100
AcDbLine
 10
45.72999999938711
 20
-25.51045923611017
 30
0.0
 11
45.2299999993871
 21
-25.51045923611017
 31
0.0
  0
LINE
  5
2E8
330
75
100
AcDbEntity
  8
HALLE_0_1_EG
  6
Continuous
100
AcDbLine
 10
45.2299999993871
 20
-25.51045923611017
 30
0.0
 11
45.2299999993871
 21
-25.59045923611017
 31
0.0
  0
LINE
  5
2E9
330
75
100
AcDbEntity
  8
HALLE_0_1_EG
  6
Continuous
100
AcDbLine
 10
45.2299999993871
 20
-25.59045923611017
 30
0.0
 11
45.80999999938711
 21
-25.59045923611017
 31
0.0
  0
LINE
  5
2EA
330
75
100
AcDbEntity
  8
HALLE_0_1_EG
  6
Continuous
100
AcDbLine
 10
36.47999999938716
 20
23.29434969536936
 30
0.0
 11
36.47999999938716
 21
23.24759411319468
 31
0.0
  0
LINE
  5
2EB
330
75
100
AcDbEntity
  8
HALLE_0_1_EG
  6
Continuous
100
AcDbLine
 10
36.47999999938716
 20
23.24759411319468
 30
0.0
 11
36.42999999938717
 21
23.24759411319468
 31
0.0
  0
LINE
  5
2EC
330
75
100
AcDbEntity
  8
HALLE_0_1_EG
  6
Continuous
100
AcDbLine
 10
38.32999999938716
 20
21.34954076389397
 30
0.0
 11
38.29999999938715
 21
21.34954076389397
 31
0.0
  0
LINE
  5
2ED
330
75
100
AcDbEntity
  8
HALLE_0_1_EG
  6
Continuous
100
AcDbLine
 10
38.29999999938715
 20
21.34954076389397
 30
0.0
 11
38.29999999938715
 21
23.24954076388986
 31
0.0
  0
LINE
  5
2EE
330
75
100
AcDbEntity
  8
HALLE_0_1_EG
  6
Continuous
100
AcDbLine
 10
38.29999999938715
 20
23.24759411319468
 30
0.0
 11
38.32999999938716
 21
23.24759411319468
 31
0.0
  0
LINE
  5
2EF
330
75
100
AcDbEntity
  8
HALLE_0_1_EG
  6
Continuous
100
AcDbLine
 10
38.32999999938716
 20
23.24954076388986
 30
0.0
 11
38.32999999938716
 21
21.34954076389397
 31
0.0
  0
LINE
  5
2F0
330
75
100
AcDbEntity
  8
HALLE_0_1_EG
  6
Continuous
100
AcDbLine
 10
38.32999999938716
 20
23.21954076388983
 30
0.0
 11
36.42999999938717
 21
23.21954076388983
 31
0.0
  0
LINE
  5
2F1
330
75
100
AcDbEntity
  8
HALLE_0_1_EG
  6
Continuous
100
AcDbLine
 10
36.42999999938717
 20
23.21954076388983
 30
0.0
 11
36.42999999938717
 21
23.24759411319468
 31
0.0
  0
LINE
  5
2F2
330
75
100
AcDbEntity
  8
HALLE_0_1_EG
  6
Continuous
100
AcDbLine
 10
36.42999999938717
 20
23.24759411319468
 30
0.0
 11
38.32999999938716
 21
23.24759411319468
 31
0.0
  0
LINE
  5
2F3
330
75
100
AcDbEntity
  8
HALLE_0_1_EG
  6
Continuous
100
AcDbLine
 10
38.32999999938716
 20
23.24759411319468
 30
0.0
 11
38.32999999938716
 21
23.21954076388983
 31
0.0
  0
LINE
  5
2F4
330
75
100
AcDbEntity
  8
HALLE_0_1_EG
  6
Continuous
100
AcDbLine
 10
-9.720000000618323
 20
9.889654180762187
 30
0.0
 11
-11.54000000061832
 21
9.889654180761171
 31
0.0
  0
LINE
  5
2F5
330
75
100
AcDbEntity
  8
HALLE_0_1_EG
  6
Continuous
100
AcDbLine
 10
-11.54000000061832
 20
9.889654180761171
 30
0.0
 11
-11.28000000061833
 21
9.139654180761167
 31
0.0
  0
LINE
  5
2F6
330
75
100
AcDbEntity
  8
HALLE_0_1_EG
  6
Continuous
100
AcDbLine
 10
-11.54000000061832
 20
9.889654180761171
 30
0.0
 11
-11.28000000061833
 21
10.63965418076117
 31
0.0
  0
LINE
  5
2F7
330
75
100
AcDbEntity
  8
HALLE_0_1_EG
  6
Continuous
100
AcDbLine
 10
-8.820000000618332
 20
7.40954076389919
 30
0.0
 11
-8.820000000618332
 21
8.969540763899182
 31
0.0
  0
LINE
  5
2F8
330
75
100
AcDbEntity
  8
HALLE_0_1_EG
  6
Continuous
100
AcDbLine
 10
-8.820000000618332
 20
8.969540763899182
 30
0.0
 11
-9.570000000618335
 21
8.709540763899195
 31
0.0
  0
LINE
  5
2F9
330
75
100
AcDbEntity
  8
HALLE_0_1_EG
  6
Continuous
100
AcDbLine
 10
-8.820000000618332
 20
8.969540763899182
 30
0.0
 11
-8.070000000618341
 21
8.709540763899195
 31
0.0
  0
LINE
  5
2FA
330
75
100
AcDbEntity
  8
HALLE_0_1_EG
  6
Continuous
100
AcDbLine
 10
-11.54000000061832
 20
7.249540763889882
 30
0.0
 11
-11.58000000061834
 21
7.249540763889882
 31
0.0
  0
LINE
  5
2FB
330
75
100
AcDbEntity
  8
HALLE_0_1_EG
  6
Continuous
100
AcDbLine
 10
-11.58000000061834
 20
7.249540763889882
 30
0.0
 11
-11.58000000061833
 21
9.139654180761167
 31
0.0
  0
LINE
  5
2FC
330
75
100
AcDbEntity
  8
HALLE_0_1_EG
  6
Continuous
100
AcDbLine
 10
-11.58000000061833
 20
9.139654180761167
 30
0.0
 11
-11.54000000061832
 21
9.139654180761167
 31
0.0
  0
LINE
  5
2FD
330
75
100
AcDbEntity
  8
HALLE_0_1_EG
  6
Continuous
100
AcDbLine
 10
-11.54000000061832
 20
9.139654180761167
 30
0.0
 11
-11.54000000061832
 21
7.249540763889882
 31
0.0
  0
LINE
  5
2FE
330
75
100
AcDbEntity
  8
HALLE_0_1_EG
  6
Continuous
100
AcDbLine
 10
36.77999999938716
 20
23.24759411319468
 30
0.0
 11
36.47999999938716
 21
23.24759411319468
 31
0.0
  0
LINE
  5
2FF
330
75
100
AcDbEntity
  8
HALLE_0_1_EG
  6
Continuous
100
AcDbLine
 10
36.47999999938716
 20
23.24759411319468
 30
0.0
 11
36.47999999938716
 21
24.65026157843567
 31
0.0
  0
LINE
  5
300
330
75
100
AcDbEntity
  8
HALLE_0_1_EG
  6
Continuous
100
AcDbLine
 10
36.47999999938716
 20
24.65026157843567
 30
0.0
 11
36.77999999938716
 21
24.65026157843567
 31
0.0
  0
LINE
  5
301
330
75
100
AcDbEntity
  8
HALLE_0_1_EG
  6
Continuous
100
AcDbLine
 10
36.77999999938716
 20
24.65026157843567
 30
0.0
 11
36.77999999938716
 21
23.24759411319468
 31
0.0
  0
LINE
  5
302
330
75
100
AcDbEntity
  8
HALLE_0_1_EG
  6
Continuous
100
AcDbLine
 10
37.07999999938716
 20
23.24759411319468
 30
0.0
 11
36.77999999938716
 21
23.24759411319468
 31
0.0
  0
LINE
  5
303
330
75
100
AcDbEntity
  8
HALLE_0_1_EG
  6
Continuous
100
AcDbLine
 10
36.77999999938716
 20
23.24759411319468
 30
0.0
 11
36.77999999938716
 21
24.65026157843567
 31
0.0
  0
LINE
  5
304
330
75
100
AcDbEntity
  8
HALLE_0_1_EG
  6
Continuous
100
AcDbLine
 10
36.77999999938716
 20
24.65026157843567
 30
0.0
 11
37.07999999938716
 21
24.65026157843567
 31
0.0
  0
LINE
  5
305
330
75
100
AcDbEntity
  8
HALLE_0_1_EG
  6
Continuous
100
AcDbLine
 10
37.07999999938716
 20
24.65026157843567
 30
0.0
 11
37.07999999938716
 21
23.24759411319468
 31
0.0
  0
LINE
  5
306
330
75
100
AcDbEntity
  8
HALLE_0_1_EG
  6
Continuous
100
AcDbLine
 10
37.37999999938716
 20
23.24759411319468
 30
0.0
 11
37.07999999938716
 21
23.24759411319468
 31
0.0
  0
LINE
  5
307
330
75
100
AcDbEntity
  8
HALLE_0_1_EG
  6
Continuous
100
AcDbLine
 10
37.07999999938716
 20
23.24759411319468
 30
0.0
 11
37.07999999938716
 21
24.65026157843567
 31
0.0
  0
LINE
  5
308
330
75
100
AcDbEntity
  8
HALLE_0_1_EG
  6
Continuous
100
AcDbLine
 10
37.07999999938716
 20
24.65026157843567
 30
0.0
 11
37.37999999938716
 21
24.65026157843567
 31
0.0
  0
LINE
  5
309
330
75
100
AcDbEntity
  8
HALLE_0_1_EG
  6
Continuous
100
AcDbLine
 10
37.37999999938716
 20
24.65026157843567
 30
0.0
 11
37.37999999938716
 21
23.24759411319468
 31
0.0
  0
LINE
  5
30A
330
75
100
AcDbEntity
  8
HALLE_0_1_EG
  6
Continuous
100
AcDbLine
 10
37.67999999938716
 20
23.24759411319468
 30
0.0
 11
37.37999999938716
 21
23.24759411319468
 31
0.0
  0
LINE
  5
30B
330
75
100
AcDbEntity
  8
HALLE_0_1_EG
  6
Continuous
100
AcDbLine
 10
37.37999999938716
 20
23.24759411319468
 30
0.0
 11
37.37999999938716
 21
24.65026157843567
 31
0.0
  0
LINE
  5
30C
330
75
100
AcDbEntity
  8
HALLE_0_1_EG
  6
Continuous
100
AcDbLine
 10
37.37999999938716
 20
24.65026157843567
 30
0.0
 11
37.67999999938716
 21
24.65026157843567
 31
0.0
  0
LINE
  5
30D
330
75
100
AcDbEntity
  8
HALLE_0_1_EG
  6
Continuous
100
AcDbLine
 10
37.67999999938716
 20
24.65026157843567
 30
0.0
 11
37.67999999938716
 21
23.24759411319468
 31
0.0
  0
LINE
  5
30E
330
75
100
AcDbEntity
  8
HALLE_0_1_EG
  6
Continuous
100
AcDbLine
 10
37.97999999938716
 20
23.24759411319468
 30
0.0
 11
37.67999999938716
 21
23.24759411319468
 31
0.0
  0
LINE
  5
30F
330
75
100
AcDbEntity
  8
HALLE_0_1_EG
  6
Continuous
100
AcDbLine
 10
37.67999999938716
 20
23.24759411319468
 30
0.0
 11
37.67999999938716
 21
24.65026157843567
 31
0.0
  0
LINE
  5
310
330
75
100
AcDbEntity
  8
HALLE_0_1_EG
  6
Continuous
100
AcDbLine
 10
37.67999999938716
 20
24.65026157843567
 30
0.0
 11
37.97999999938716
 21
24.65026157843567
 31
0.0
  0
LINE
  5
311
330
75
100
AcDbEntity
  8
HALLE_0_1_EG
  6
Continuous
100
AcDbLine
 10
37.97999999938716
 20
24.65026157843567
 30
0.0
 11
37.97999999938716
 21
23.24759411319468
 31
0.0
  0
LINE
  5
312
330
75
100
AcDbEntity
  8
HALLE_0_1_EG
  6
Continuous
100
AcDbLine
 10
38.27999999938715
 20
23.24759411319468
 30
0.0
 11
37.97999999938716
 21
23.24759411319468
 31
0.0
  0
LINE
  5
313
330
75
100
AcDbEntity
  8
HALLE_0_1_EG
  6
Continuous
100
AcDbLine
 10
37.97999999938716
 20
23.24759411319468
 30
0.0
 11
37.97999999938716
 21
24.65026157843567
 31
0.0
  0
LINE
  5
314
330
75
100
AcDbEntity
  8
HALLE_0_1_EG
  6
Continuous
100
AcDbLine
 10
37.97999999938716
 20
24.65026157843567
 30
0.0
 11
38.27999999938715
 21
24.65026157843567
 31
0.0
  0
LINE
  5
315
330
75
100
AcDbEntity
  8
HALLE_0_1_EG
  6
Continuous
100
AcDbLine
 10
38.27999999938715
 20
24.65026157843567
 30
0.0
 11
38.27999999938715
 21
23.24759411319468
 31
0.0
  0
LINE
  5
316
330
75
100
AcDbEntity
  8
HALLE_0_1_EG
  6
Continuous
100
AcDbLine
 10
39.82999999938715
 20
22.89954076389192
 30
0.0
 11
38.32999999938716
 21
22.89954076389192
 31
0.0
  0
LINE
  5
317
330
75
100
AcDbEntity
  8
HALLE_0_1_EG
  6
Continuous
100
AcDbLine
 10
38.32999999938716
 20
22.89954076389192
 30
0.0
 11
38.32999999938716
 21
23.19954076389192
 31
0.0
  0
LINE
  5
318
330
75
100
AcDbEntity
  8
HALLE_0_1_EG
  6
Continuous
100
AcDbLine
 10
38.32999999938716
 20
23.19954076389192
 30
0.0
 11
39.82999999938715
 21
23.19954076389192
 31
0.0
  0
LINE
  5
319
330
75
100
AcDbEntity
  8
HALLE_0_1_EG
  6
Continuous
100
AcDbLine
 10
39.82999999938715
 20
23.19954076389192
 30
0.0
 11
39.82999999938715
 21
22.89954076389192
 31
0.0
  0
LINE
  5
31A
330
75
100
AcDbEntity
  8
HALLE_0_1_EG
  6
Continuous
100
AcDbLine
 10
39.82999999938715
 20
22.59954076389192
 30
0.0
 11
38.32999999938716
 21
22.59954076389192
 31
0.0
  0
LINE
  5
31B
330
75
100
AcDbEntity
  8
HALLE_0_1_EG
  6
Continuous
100
AcDbLine
 10
38.32999999938716
 20
22.59954076389192
 30
0.0
 11
38.32999999938716
 21
22.89954076389192
 31
0.0
  0
LINE
  5
31C
330
75
100
AcDbEntity
  8
HALLE_0_1_EG
  6
Continuous
100
AcDbLine
 10
38.32999999938716
 20
22.89954076389192
 30
0.0
 11
39.82999999938715
 21
22.89954076389192
 31
0.0
  0
LINE
  5
31D
330
75
100
AcDbEntity
  8
HALLE_0_1_EG
  6
Continuous
100
AcDbLine
 10
39.82999999938715
 20
22.89954076389192
 30
0.0
 11
39.82999999938715
 21
22.59954076389192
 31
0.0
  0
LINE
  5
31E
330
75
100
AcDbEntity
  8
HALLE_0_1_EG
  6
Continuous
100
AcDbLine
 10
39.82999999938715
 20
22.29954076389192
 30
0.0
 11
38.32999999938716
 21
22.29954076389192
 31
0.0
  0
LINE
  5
31F
330
75
100
AcDbEntity
  8
HALLE_0_1_EG
  6
Continuous
100
AcDbLine
 10
38.32999999938716
 20
22.29954076389192
 30
0.0
 11
38.32999999938716
 21
22.59954076389192
 31
0.0
  0
LINE
  5
320
330
75
100
AcDbEntity
  8
HALLE_0_1_EG
  6
Continuous
100
AcDbLine
 10
38.32999999938716
 20
22.59954076389192
 30
0.0
 11
39.82999999938715
 21
22.59954076389192
 31
0.0
  0
LINE
  5
321
330
75
100
AcDbEntity
  8
HALLE_0_1_EG
  6
Continuous
100
AcDbLine
 10
39.82999999938715
 20
22.59954076389192
 30
0.0
 11
39.82999999938715
 21
22.29954076389192
 31
0.0
  0
LINE
  5
322
330
75
100
AcDbEntity
  8
HALLE_0_1_EG
  6
Continuous
100
AcDbLine
 10
39.82999999938715
 20
21.99954076389189
 30
0.0
 11
38.32999999938716
 21
21.99954076389189
 31
0.0
  0
LINE
  5
323
330
75
100
AcDbEntity
  8
HALLE_0_1_EG
  6
Continuous
100
AcDbLine
 10
38.32999999938716
 20
21.99954076389189
 30
0.0
 11
38.32999999938716
 21
22.29954076389192
 31
0.0
  0
LINE
  5
324
330
75
100
AcDbEntity
  8
HALLE_0_1_EG
  6
Continuous
100
AcDbLine
 10
38.32999999938716
 20
22.29954076389192
 30
0.0
 11
39.82999999938715
 21
22.29954076389192
 31
0.0
  0
LINE
  5
325
330
75
100
AcDbEntity
  8
HALLE_0_1_EG
  6
Continuous
100
AcDbLine
 10
39.82999999938715
 20
22.29954076389192
 30
0.0
 11
39.82999999938715
 21
21.99954076389189
 31
0.0
  0
LINE
  5
326
330
75
100
AcDbEntity
  8
HALLE_0_1_EG
  6
Continuous
100
AcDbLine
 10
39.82999999938715
 20
21.69954076389192
 30
0.0
 11
38.32999999938716
 21
21.69954076389192
 31
0.0
  0
LINE
  5
327
330
75
100
AcDbEntity
  8
HALLE_0_1_EG
  6
Continuous
100
AcDbLine
 10
38.32999999938716
 20
21.69954076389192
 30
0.0
 11
38.32999999938716
 21
21.99954076389189
 31
0.0
  0
LINE
  5
328
330
75
100
AcDbEntity
  8
HALLE_0_1_EG
  6
Continuous
100
AcDbLine
 10
38.32999999938716
 20
21.99954076389189
 30
0.0
 11
39.82999999938715
 21
21.99954076389189
 31
0.0
  0
LINE
  5
329
330
75
100
AcDbEntity
  8
HALLE_0_1_EG
  6
Continuous
100
AcDbLine
 10
39.82999999938715
 20
21.99954076389189
 30
0.0
 11
39.82999999938715
 21
21.69954076389192
 31
0.0
  0
LINE
  5
32A
330
75
100
AcDbEntity
  8
HALLE_0_1_EG
  6
Continuous
100
AcDbLine
 10
39.82999999938715
 20
21.39954076389191
 30
0.0
 11
38.32999999938716
 21
21.39954076389191
 31
0.0
  0
LINE
  5
32B
330
75
100
AcDbEntity
  8
HALLE_0_1_EG
  6
Continuous
100
AcDbLine
 10
38.32999999938716
 20
21.39954076389191
 30
0.0
 11
38.32999999938716
 21
21.69954076389192
 31
0.0
  0
LINE
  5
32C
330
75
100
AcDbEntity
  8
HALLE_0_1_EG
  6
Continuous
100
AcDbLine
 10
38.32999999938716
 20
21.69954076389192
 30
0.0
 11
39.82999999938715
 21
21.69954076389192
 31
0.0
  0
LINE
  5
32D
330
75
100
AcDbEntity
  8
HALLE_0_1_EG
  6
Continuous
100
AcDbLine
 10
39.82999999938715
 20
21.69954076389192
 30
0.0
 11
39.82999999938715
 21
21.39954076389191
 31
0.0
  0
LINE
  5
32E
330
75
100
AcDbEntity
  8
HALLE_0_1_EG
  6
Continuous
100
AcDbLine
 10
-9.720000000618323
 20
9.139654180761167
 30
0.0
 11
-9.980000000618334
 21
9.139654180761167
 31
0.0
  0
LINE
  5
32F
330
75
100
AcDbEntity
  8
HALLE_0_1_EG
  6
Continuous
100
AcDbLine
 10
-9.980000000618334
 20
9.139654180761167
 30
0.0
 11
-9.980000000618334
 21
10.63965418076117
 31
0.0
  0
LINE
  5
330
330
75
100
AcDbEntity
  8
HALLE_0_1_EG
  6
Continuous
100
AcDbLine
 10
-9.980000000618334
 20
10.63965418076117
 30
0.0
 11
-9.720000000618323
 21
10.63965418076117
 31
0.0
  0
LINE
  5
331
330
75
100
AcDbEntity
  8
HALLE_0_1_EG
  6
Continuous
100
AcDbLine
 10
-9.720000000618323
 20
10.63965418076117
 30
0.0
 11
-9.720000000618323
 21
9.139654180761167
 31
0.0
  0
LINE
  5
332
330
75
100
AcDbEntity
  8
HALLE_0_1_EG
  6
Continuous
100
AcDbLine
 10
-9.980000000618334
 20
9.139654180761167
 30
0.0
 11
-10.24000000061833
 21
9.139654180761167
 31
0.0
  0
LINE
  5
333
330
75
100
AcDbEntity
  8
HALLE_0_1_EG
  6
Continuous
100
AcDbLine
 10
-10.24000000061833
 20
9.139654180761167
 30
0.0
 11
-10.24000000061833
 21
10.63965418076117
 31
0.0
  0
LINE
  5
334
330
75
100
AcDbEntity
  8
HALLE_0_1_EG
  6
Continuous
100
AcDbLine
 10
-10.24000000061833
 20
10.63965418076117
 30
0.0
 11
-9.980000000618334
 21
10.63965418076117
 31
0.0
  0
LINE
  5
335
330
75
100
AcDbEntity
  8
HALLE_0_1_EG
  6
Continuous
100
AcDbLine
 10
-9.980000000618334
 20
10.63965418076117
 30
0.0
 11
-9.980000000618334
 21
9.139654180761167
 31
0.0
  0
LINE
  5
336
330
75
100
AcDbEntity
  8
HALLE_0_1_EG
  6
Continuous
100
AcDbLine
 10
-10.24000000061833
 20
9.139654180761167
 30
0.0
 11
-10.50000000061833
 21
9.139654180761167
 31
0.0
  0
LINE
  5
337
330
75
100
AcDbEntity
  8
HALLE_0_1_EG
  6
Continuous
100
AcDbLine
 10
-10.50000000061833
 20
9.139654180761167
 30
0.0
 11
-10.50000000061833
 21
10.63965418076117
 31
0.0
  0
LINE
  5
338
330
75
100
AcDbEntity
  8
HALLE_0_1_EG
  6
Continuous
100
AcDbLine
 10
-10.50000000061833
 20
10.63965418076117
 30
0.0
 11
-10.24000000061833
 21
10.63965418076117
 31
0.0
  0
LINE
  5
339
330
75
100
AcDbEntity
  8
HALLE_0_1_EG
  6
Continuous
100
AcDbLine
 10
-10.24000000061833
 20
10.63965418076117
 30
0.0
 11
-10.24000000061833
 21
9.139654180761167
 31
0.0
  0
LINE
  5
33A
330
75
100
AcDbEntity
  8
HALLE_0_1_EG
  6
Continuous
100
AcDbLine
 10
-10.50000000061833
 20
9.139654180761167
 30
0.0
 11
-10.76000000061832
 21
9.139654180761167
 31
0.0
  0
LINE
  5
33B
330
75
100
AcDbEntity
  8
HALLE_0_1_EG
  6
Continuous
100
AcDbLine
 10
-10.76000000061832
 20
9.139654180761167
 30
0.0
 11
-10.76000000061832
 21
10.63965418076117
 31
0.0
  0
LINE
  5
33C
330
75
100
AcDbEntity
  8
HALLE_0_1_EG
  6
Continuous
100
AcDbLine
 10
-10.76000000061832
 20
10.63965418076117
 30
0.0
 11
-10.50000000061833
 21
10.63965418076117
 31
0.0
  0
LINE
  5
33D
330
75
100
AcDbEntity
  8
HALLE_0_1_EG
  6
Continuous
100
AcDbLine
 10
-10.50000000061833
 20
10.63965418076117
 30
0.0
 11
-10.50000000061833
 21
9.139654180761167
 31
0.0
  0
LINE
  5
33E
330
75
100
AcDbEntity
  8
HALLE_0_1_EG
  6
Continuous
100
AcDbLine
 10
-10.76000000061832
 20
9.139654180761167
 30
0.0
 11
-11.02000000061834
 21
9.139654180761167
 31
0.0
  0
LINE
  5
33F
330
75
100
AcDbEntity
  8
HALLE_0_1_EG
  6
Continuous
100
AcDbLine
 10
-11.02000000061834
 20
9.139654180761167
 30
0.0
 11
-11.02000000061834
 21
10.63965418076117
 31
0.0
  0
LINE
  5
340
330
75
100
AcDbEntity
  8
HALLE_0_1_EG
  6
Continuous
100
AcDbLine
 10
-11.02000000061834
 20
10.63965418076117
 30
0.0
 11
-10.76000000061832
 21
10.63965418076117
 31
0.0
  0
LINE
  5
341
330
75
100
AcDbEntity
  8
HALLE_0_1_EG
  6
Continuous
100
AcDbLine
 10
-10.76000000061832
 20
10.63965418076117
 30
0.0
 11
-10.76000000061832
 21
9.139654180761167
 31
0.0
  0
LINE
  5
342
330
75
100
AcDbEntity
  8
HALLE_0_1_EG
  6
Continuous
100
AcDbLine
 10
-11.02000000061834
 20
9.139654180761167
 30
0.0
 11
-11.28000000061833
 21
9.139654180761167
 31
0.0
  0
LINE
  5
343
330
75
100
AcDbEntity
  8
HALLE_0_1_EG
  6
Continuous
100
AcDbLine
 10
-11.28000000061833
 20
9.139654180761167
 30
0.0
 11
-11.28000000061833
 21
10.63965418076117
 31
0.0
  0
LINE
  5
344
330
75
100
AcDbEntity
  8
HALLE_0_1_EG
  6
Continuous
100
AcDbLine
 10
-11.28000000061833
 20
10.63965418076117
 30
0.0
 11
-11.02000000061834
 21
10.63965418076117
 31
0.0
  0
LINE
  5
345
330
75
100
AcDbEntity
  8
HALLE_0_1_EG
  6
Continuous
100
AcDbLine
 10
-11.02000000061834
 20
10.63965418076117
 30
0.0
 11
-11.02000000061834
 21
9.139654180761167
 31
0.0
  0
LINE
  5
346
330
75
100
AcDbEntity
  8
HALLE_0_1_EG
  6
Continuous
100
AcDbLine
 10
-11.28000000061833
 20
9.139654180761167
 30
0.0
 11
-11.54000000061832
 21
9.139654180761167
 31
0.0
  0
LINE
  5
347
330
75
100
AcDbEntity
  8
HALLE_0_1_EG
  6
Continuous
100
AcDbLine
 10
-11.54000000061832
 20
9.139654180761167
 30
0.0
 11
-11.54000000061832
 21
10.63965418076117
 31
0.0
  0
LINE
  5
348
330
75
100
AcDbEntity
  8
HALLE_0_1_EG
  6
Continuous
100
AcDbLine
 10
-11.54000000061832
 20
10.63965418076117
 30
0.0
 11
-11.28000000061833
 21
10.63965418076117
 31
0.0
  0
LINE
  5
349
330
75
100
AcDbEntity
  8
HALLE_0_1_EG
  6
Continuous
100
AcDbLine
 10
-11.28000000061833
 20
10.63965418076117
 30
0.0
 11
-11.28000000061833
 21
9.139654180761167
 31
0.0
  0
LINE
  5
34A
330
75
100
AcDbEntity
  8
HALLE_0_1_EG
  6
Continuous
100
AcDbLine
 10
-8.070000000618341
 20
7.40954076389919
 30
0.0
 11
-9.570000000618335
 21
7.40954076389919
 31
0.0
  0
LINE
  5
34B
330
75
100
AcDbEntity
  8
HALLE_0_1_EG
  6
Continuous
100
AcDbLine
 10
-9.570000000618335
 20
7.40954076389919
 30
0.0
 11
-9.570000000618335
 21
7.669540763899178
 31
0.0
  0
LINE
  5
34C
330
75
100
AcDbEntity
  8
HALLE_0_1_EG
  6
Continuous
100
AcDbLine
 10
-9.570000000618335
 20
7.669540763899178
 30
0.0
 11
-8.070000000618341
 21
7.669540763899178
 31
0.0
  0
LINE
  5
34D
330
75
100
AcDbEntity
  8
HALLE_0_1_EG
  6
Continuous
100
AcDbLine
 10
-8.070000000618341
 20
7.669540763899178
 30
0.0
 11
-8.070000000618341
 21
7.40954076389919
 31
0.0
  0
LINE
  5
34E
330
75
100
AcDbEntity
  8
HALLE_0_1_EG
  6
Continuous
100
AcDbLine
 10
-8.070000000618341
 20
7.669540763899178
 30
0.0
 11
-9.570000000618335
 21
7.669540763899178
 31
0.0
  0
LINE
  5
34F
330
75
100
AcDbEntity
  8
HALLE_0_1_EG
  6
Continuous
100
AcDbLine
 10
-9.570000000618335
 20
7.669540763899178
 30
0.0
 11
-9.570000000618335
 21
7.929540763899187
 31
0.0
  0
LINE
  5
350
330
75
100
AcDbEntity
  8
HALLE_0_1_EG
  6
Continuous
100
AcDbLine
 10
-9.570000000618335
 20
7.929540763899187
 30
0.0
 11
-8.070000000618341
 21
7.929540763899187
 31
0.0
  0
LINE
  5
351
330
75
100
AcDbEntity
  8
HALLE_0_1_EG
  6
Continuous
100
AcDbLine
 10
-8.070000000618341
 20
7.929540763899187
 30
0.0
 11
-8.070000000618341
 21
7.669540763899178
 31
0.0
  0
LINE
  5
352
330
75
100
AcDbEntity
  8
HALLE_0_1_EG
  6
Continuous
100
AcDbLine
 10
-8.070000000618341
 20
7.929540763899187
 30
0.0
 11
-9.570000000618335
 21
7.929540763899187
 31
0.0
  0
LINE
  5
353
330
75
100
AcDbEntity
  8
HALLE_0_1_EG
  6
Continuous
100
AcDbLine
 10
-9.570000000618335
 20
7.929540763899187
 30
0.0
 11
-9.570000000618335
 21
8.189540763899186
 31
0.0
  0
LINE
  5
354
330
75
100
AcDbEntity
  8
HALLE_0_1_EG
  6
Continuous
100
AcDbLine
 10
-9.570000000618335
 20
8.189540763899186
 30
0.0
 11
-8.070000000618341
 21
8.189540763899186
 31
0.0
  0
LINE
  5
355
330
75
100
AcDbEntity
  8
HALLE_0_1_EG
  6
Continuous
100
AcDbLine
 10
-8.070000000618341
 20
8.189540763899186
 30
0.0
 11
-8.070000000618341
 21
7.929540763899187
 31
0.0
  0
LINE
  5
356
330
75
100
AcDbEntity
  8
HALLE_0_1_EG
  6
Continuous
100
AcDbLine
 10
-8.070000000618341
 20
8.189540763899186
 30
0.0
 11
-9.570000000618335
 21
8.189540763899186
 31
0.0
  0
LINE
  5
357
330
75
100
AcDbEntity
  8
HALLE_0_1_EG
  6
Continuous
100
AcDbLine
 10
-9.570000000618335
 20
8.189540763899186
 30
0.0
 11
-9.570000000618335
 21
8.449540763899184
 31
0.0
  0
LINE
  5
358
330
75
100
AcDbEntity
  8
HALLE_0_1_EG
  6
Continuous
100
AcDbLine
 10
-9.570000000618335
 20
8.449540763899184
 30
0.0
 11
-8.070000000618341
 21
8.449540763899184
 31
0.0
  0
LINE
  5
359
330
75
100
AcDbEntity
  8
HALLE_0_1_EG
  6
Continuous
100
AcDbLine
 10
-8.070000000618341
 20
8.449540763899184
 30
0.0
 11
-8.070000000618341
 21
8.189540763899186
 31
0.0
  0
LINE
  5
35A
330
75
100
AcDbEntity
  8
HALLE_0_1_EG
  6
Continuous
100
AcDbLine
 10
-8.070000000618341
 20
8.449540763899184
 30
0.0
 11
-9.570000000618335
 21
8.449540763899184
 31
0.0
  0
LINE
  5
35B
330
75
100
AcDbEntity
  8
HALLE_0_1_EG
  6
Continuous
100
AcDbLine
 10
-9.570000000618335
 20
8.449540763899184
 30
0.0
 11
-9.570000000618335
 21
8.709540763899195
 31
0.0
  0
LINE
  5
35C
330
75
100
AcDbEntity
  8
HALLE_0_1_EG
  6
Continuous
100
AcDbLine
 10
-9.570000000618335
 20
8.709540763899195
 30
0.0
 11
-8.070000000618341
 21
8.709540763899195
 31
0.0
  0
LINE
  5
35D
330
75
100
AcDbEntity
  8
HALLE_0_1_EG
  6
Continuous
100
AcDbLine
 10
-8.070000000618341
 20
8.709540763899195
 30
0.0
 11
-8.070000000618341
 21
8.449540763899184
 31
0.0
  0
LINE
  5
35E
330
75
100
AcDbEntity
  8
HALLE_0_1_EG
  6
Continuous
100
AcDbLine
 10
-8.070000000618341
 20
8.709540763899195
 30
0.0
 11
-9.570000000618335
 21
8.709540763899195
 31
0.0
  0
LINE
  5
35F
330
75
100
AcDbEntity
  8
HALLE_0_1_EG
  6
Continuous
100
AcDbLine
 10
-9.570000000618335
 20
8.709540763899195
 30
0.0
 11
-9.570000000618335
 21
8.969540763899182
 31
0.0
  0
LINE
  5
360
330
75
100
AcDbEntity
  8
HALLE_0_1_EG
  6
Continuous
100
AcDbLine
 10
-9.570000000618335
 20
8.969540763899182
 30
0.0
 11
-8.070000000618341
 21
8.969540763899182
 31
0.0
  0
LINE
  5
361
330
75
100
AcDbEntity
  8
HALLE_0_1_EG
  6
Continuous
100
AcDbLine
 10
-8.070000000618341
 20
8.969540763899182
 30
0.0
 11
-8.070000000618341
 21
8.709540763899195
 31
0.0
  0
LINE
  5
362
330
75
100
AcDbEntity
  8
HALLE_0_1_EG
  6
Continuous
100
AcDbLine
 10
-14.64266550618554
 20
4.989540763889876
 30
0.0
 11
-14.64266550618554
 21
6.989540763889883
 31
0.0
  0
LINE
  5
363
330
75
100
AcDbEntity
  8
GRUNDRISS
  6
Continuous
100
AcDbLine
 10
44.93792484787253
 20
-17.51045923333118
 30
0.0
 11
44.92990676835809
 21
-34.71045923333032
 31
0.0
  0
ARC
  5
364
330
75
100
AcDbEntity
  8
GRUNDRISS
  6
Continuous
100
AcDbCircle
 10
-7.819999998160088
 20
4.989540766667468
 30
0.0
 40
1.5
100
AcDbArc
 50
90.0
 51
180.0
  0
LINE
  5
365
330
75
100
AcDbEntity
  8
GRUNDRISS
  6
Continuous
100
AcDbLine
 10
-14.46999999816023
 20
-20.01854818369761
 30
0.0
 11
-14.76999999816037
 21
-20.01854818369761
 31
0.0
  0
LINE
  5
366
330
75
100
AcDbEntity
  8
GRUNDRISS
  6
Continuous
100
AcDbLine
 10
-14.46999999816023
 20
-23.23153664767233
 30
0.0
 11
-14.46999999816023
 21
-20.01854818369761
 31
0.0
  0
LINE
  5
367
330
75
100
AcDbEntity
  8
GRUNDRISS
  6
Continuous
100
AcDbLine
 10
-14.76999999816037
 20
-23.23153664767233
 30
0.0
 11
-14.76999999816037
 21
-21.6004592333319
 31
0.0
  0
LINE
  5
368
330
75
100
AcDbEntity
  8
GRUNDRISS
  6
Continuous
100
AcDbLine
 10
42.1100000018401
 20
-34.71045923333032
 30
0.0
 11
42.1100000018401
 21
-35.01045923333047
 31
0.0
  0
LINE
  5
369
330
75
100
AcDbEntity
  8
GRUNDRISS
  6
Continuous
100
AcDbLine
 10
45.23000000184096
 20
-35.01045923333047
 30
0.0
 11
42.1100000018401
 21
-35.01045923333047
 31
0.0
  0
LINE
  5
36A
330
75
100
AcDbEntity
  8
GRUNDRISS
  6
Continuous
100
AcDbLine
 10
44.92990676835809
 20
-34.71045923333032
 30
0.0
 11
42.1100000018401
 21
-34.71045923333032
 31
0.0
  0
LINE
  5
36B
330
75
100
AcDbEntity
  8
GRUNDRISS
  6
Continuous
100
AcDbLine
 10
-3.519999998158092
 20
-34.71045923333031
 30
0.0
 11
-3.519999998158092
 21
-35.01045923333046
 31
0.0
  0
LINE
  5
36C
330
75
100
AcDbEntity
  8
GRUNDRISS
  6
Continuous
100
AcDbLine
 10
39.11000000184166
 20
-35.01045923333047
 30
0.0
 11
-3.519999998158092
 21
-35.01045923333046
 31
0.0
  0
LINE
  5
36D
330
75
100
AcDbEntity
  8
GRUNDRISS
  6
Continuous
100
AcDbLine
 10
39.11000000184166
 20
-34.71045923333032
 30
0.0
 11
-3.519999998158092
 21
-34.71045923333031
 31
0.0
  0
LINE
  5
36E
330
75
100
AcDbEntity
  8
GRUNDRISS
  6
Continuous
100
AcDbLine
 10
39.11000000184166
 20
-34.71045923333032
 30
0.0
 11
39.11000000184166
 21
-35.01045923333047
 31
0.0
  0
LINE
  5
36F
330
75
100
AcDbEntity
  8
GRUNDRISS
  6
Continuous
100
AcDbLine
 10
-6.519999998159489
 20
-35.01045923333046
 30
0.0
 11
-14.76999999816037
 21
-35.01045923333046
 31
0.0
  0
LINE
  5
370
330
75
100
AcDbEntity
  8
GRUNDRISS
  6
Continuous
100
AcDbLine
 10
-6.519999998159489
 20
-34.71045923333031
 30
0.0
 11
-14.46999999816023
 21
-34.71045923333031
 31
0.0
  0
LINE
  5
371
330
75
100
AcDbEntity
  8
GRUNDRISS
  6
Continuous
100
AcDbLine
 10
-6.519999998159489
 20
-34.71045923333031
 30
0.0
 11
-6.519999998159489
 21
-35.01045923333046
 31
0.0
  0
LINE
  5
372
330
75
100
AcDbEntity
  8
GRUNDRISS
  6
Continuous
100
AcDbLine
 10
-14.46999999816023
 20
-28.80045923333229
 30
0.0
 11
-14.76999999816037
 21
-28.80045923333229
 31
0.0
  0
LINE
  5
373
330
75
100
AcDbEntity
  8
GRUNDRISS
  6
Continuous
100
AcDbLine
 10
-14.76999999816037
 20
-28.94045923333117
 30
0.0
 11
-14.76999999816037
 21
-28.80045923333229
 31
0.0
  0
LINE
  5
374
330
75
100
AcDbEntity
  8
GRUNDRISS
  6
Continuous
100
AcDbLine
 10
-14.46999999816023
 20
-34.71045923333031
 30
0.0
 11
-14.46999999816023
 21
-28.80045923333229
 31
0.0
  0
LINE
  5
375
330
75
100
AcDbEntity
  8
GRUNDRISS
  6
Continuous
100
AcDbLine
 10
-14.76999999816037
 20
-35.01045923333046
 30
0.0
 11
-14.76999999816037
 21
-29.27045923333191
 31
0.0
  0
LINE
  5
376
330
75
100
AcDbEntity
  8
GRUNDRISS
  6
Continuous
100
AcDbLine
 10
-14.76999999816037
 20
-28.80045923333229
 30
0.0
 11
-14.76999999816037
 21
-27.85545923333097
 31
0.0
  0
LINE
  5
377
330
75
100
AcDbEntity
  8
GRUNDRISS
  6
Continuous
100
AcDbLine
 10
-14.46999999816023
 20
-28.80045923333229
 30
0.0
 11
-14.46999999816023
 21
-27.85545923333097
 31
0.0
  0
LINE
  5
378
330
75
100
AcDbEntity
  8
GRUNDRISS
  6
Continuous
100
AcDbLine
 10
-14.46999999816023
 20
-27.72545923333031
 30
0.0
 11
-14.76999999816037
 21
-27.72545923333031
 31
0.0
  0
LINE
  5
379
330
75
100
AcDbEntity
  8
GRUNDRISS
  6
Continuous
100
AcDbLine
 10
-14.76999999816037
 20
-27.85545923333097
 30
0.0
 11
-14.76999999816037
 21
-27.72545923333031
 31
0.0
  0
LINE
  5
37A
330
75
100
AcDbEntity
  8
GRUNDRISS
  6
Continuous
100
AcDbLine
 10
-14.46999999816023
 20
-27.85545923333097
 30
0.0
 11
-14.46999999816023
 21
-27.72545923333031
 31
0.0
  0
LINE
  5
37B
330
75
100
AcDbEntity
  8
GRUNDRISS
  6
Continuous
100
AcDbLine
 10
-14.46999999816023
 20
-27.85545923333097
 30
0.0
 11
-14.76999999816037
 21
-27.85545923333097
 31
0.0
  0
LINE
  5
37C
330
75
100
AcDbEntity
  8
GRUNDRISS
  6
Continuous
100
AcDbLine
 10
-14.76999999816037
 20
-27.72545923333031
 30
0.0
 11
-14.76999999816037
 21
-26.42545923333266
 31
0.0
  0
LINE
  5
37D
330
75
100
AcDbEntity
  8
GRUNDRISS
  6
Continuous
100
AcDbLine
 10
-14.46999999816023
 20
-27.72545923333031
 30
0.0
 11
-14.46999999816023
 21
-26.42545923333266
 31
0.0
  0
LINE
  5
37E
330
75
100
AcDbEntity
  8
GRUNDRISS
  6
Continuous
100
AcDbLine
 10
-14.76999999816037
 20
-26.09545923333192
 30
0.0
 11
-14.76999999816037
 21
-23.55545923333192
 31
0.0
  0
LINE
  5
37F
330
75
100
AcDbEntity
  8
GRUNDRISS
  6
Continuous
100
AcDbLine
 10
-14.46999999816023
 20
-26.09545923333192
 30
0.0
 11
-14.46999999816023
 21
-23.55545923333192
 31
0.0
  0
LINE
  5
380
330
75
100
AcDbEntity
  8
GRUNDRISS
  6
Continuous
100
AcDbLine
 10
-14.46999999816023
 20
1.206439862234633
 30
0.0
 11
-14.76999999816037
 21
1.206439862234633
 31
0.0
  0
LINE
  5
381
330
75
100
AcDbEntity
  8
GRUNDRISS
  6
Continuous
100
AcDbLine
 10
-14.76999999816037
 20
-12.5104592333318
 30
0.0
 11
-14.76999999816037
 21
1.206439862234633
 31
0.0
  0
LINE
  5
382
330
75
100
AcDbEntity
  8
GRUNDRISS
  6
Continuous
100
AcDbLine
 10
-14.46999999816023
 20
-15.01494319186693
 30
0.0
 11
-14.76999999816037
 21
-15.01494319186693
 31
0.0
  0
LINE
  5
383
330
75
100
AcDbEntity
  8
GRUNDRISS
  6
Continuous
100
AcDbLine
 10
-14.76999999816037
 20
3.184815355467236
 30
0.0
 11
-14.76999999816037
 21
4.989540766667468
 31
0.0
  0
LINE
  5
384
330
75
100
AcDbEntity
  8
GRUNDRISS
  6
Continuous
100
AcDbLine
 10
-14.46999999816023
 20
3.184815355467236
 30
0.0
 11
-14.76999999816037
 21
3.184815355467236
 31
0.0
  0
LINE
  5
385
330
75
100
AcDbEntity
  8
GRUNDRISS
  6
Continuous
100
AcDbLine
 10
-7.819999998160088
 20
4.68954076666734
 30
0.0
 11
-7.819999998160088
 21
4.989540766667468
 31
0.0
  0
LINE
  5
386
330
75
100
AcDbEntity
  8
GRUNDRISS
  6
Continuous
100
AcDbLine
 10
-14.76999999816037
 20
4.989540766667468
 30
0.0
 11
-7.819999998160088
 21
4.989540766667468
 31
0.0
  0
LINE
  5
387
330
75
100
AcDbEntity
  8
GRUNDRISS
  6
Continuous
100
AcDbLine
 10
-14.46999999816023
 20
4.68954076666734
 30
0.0
 11
-9.39999999815846
 21
4.68954076666734
 31
0.0
  0
LINE
  5
388
330
75
100
AcDbEntity
  8
GRUNDRISS
  6
Continuous
100
AcDbLine
 10
39.23000000184115
 20
4.689540766667323
 30
0.0
 11
39.23000000184115
 21
4.989540766667462
 31
0.0
  0
LINE
  5
389
330
75
100
AcDbEntity
  8
GRUNDRISS
  6
Continuous
100
AcDbLine
 10
-4.819999998158692
 20
4.989540766667468
 30
0.0
 11
39.23000000184115
 21
4.989540766667462
 31
0.0
  0
LINE
  5
38A
330
75
100
AcDbEntity
  8
GRUNDRISS
  6
Continuous
100
AcDbLine
 10
-4.819999998158692
 20
4.68954076666734
 30
0.0
 11
39.23000000184115
 21
4.689540766667323
 31
0.0
  0
LINE
  5
38B
330
75
100
AcDbEntity
  8
GRUNDRISS
  6
Continuous
100
AcDbLine
 10
-4.819999998158692
 20
4.68954076666734
 30
0.0
 11
-4.819999998158692
 21
4.989540766667468
 31
0.0
  0
LINE
  5
38C
330
75
100
AcDbEntity
  8
GRUNDRISS
  6
Continuous
100
AcDbLine
 10
42.23000000184254
 20
4.989540766667462
 30
0.0
 11
45.23000000184098
 21
4.989540766667462
 31
0.0
  0
LINE
  5
38D
330
75
100
AcDbEntity
  8
GRUNDRISS
  6
Continuous
100
AcDbLine
 10
42.23000000184254
 20
4.689540766667323
 30
0.0
 11
44.93000000184085
 21
4.689540766667323
 31
0.0
  0
LINE
  5
38E
330
75
100
AcDbEntity
  8
GRUNDRISS
  6
Continuous
100
AcDbLine
 10
42.23000000184254
 20
4.689540766667323
 30
0.0
 11
42.23000000184254
 21
4.989540766667462
 31
0.0
  0
LINE
  5
38F
330
75
100
AcDbEntity
  8
GRUNDRISS
  6
Continuous
100
AcDbLine
 10
44.93000000184083
 20
-12.51045923333181
 30
0.0
 11
45.23000000184096
 21
-12.51045923333181
 31
0.0
  0
LINE
  5
390
330
75
100
AcDbEntity
  8
GRUNDRISS
  6
Continuous
100
AcDbLine
 10
45.23000000184098
 20
4.989540766667462
 30
0.0
 11
45.23000000184096
 21
-12.51045923333181
 31
0.0
  0
LINE
  5
391
330
75
100
AcDbEntity
  8
GRUNDRISS
  6
Continuous
100
AcDbLine
 10
44.93000000184085
 20
4.689540766667323
 30
0.0
 11
44.93000000184083
 21
-12.51045923333181
 31
0.0
  0
LINE
  5
392
330
75
100
AcDbEntity
  8
GRUNDRISS
  6
Continuous
100
AcDbLine
 10
45.23000000184096
 20
-17.51045923333118
 30
0.0
 11
45.23000000184096
 21
-35.01045923333047
 31
0.0
  0
LINE
  5
393
330
75
100
AcDbEntity
  8
GRUNDRISS
  6
Continuous
100
AcDbLine
 10
44.93792484787253
 20
-17.51045923333118
 30
0.0
 11
45.23000000184096
 21
-17.51045923333118
 31
0.0
  0
LINE
  5
394
330
75
100
AcDbEntity
  8
GRUNDRISS
  6
Continuous
100
AcDbLine
 10
45.1100000018415
 20
-17.51045923333118
 30
0.0
 11
45.1100000018415
 21
-12.51045923333181
 31
0.0
  0
LINE
  5
395
330
75
100
AcDbEntity
  8
GRUNDRISS
  6
Continuous
100
AcDbLine
 10
-14.46999999816023
 20
-20.01615391660708
 30
0.0
 11
-14.46999999816023
 21
-15.01615391660771
 31
0.0
  0
LINE
  5
396
330
75
100
AcDbEntity
  8
GRUNDRISS
  6
Continuous
100
AcDbLine
 10
45.83000000184124
 20
-1.310459233332513
 30
0.0
 11
45.83000000184126
 21
3.889540766669907
 31
0.0
  0
LINE
  5
397
330
75
100
AcDbEntity
  8
GRUNDRISS
  6
Continuous
100
AcDbLine
 10
45.83000000184126
 20
3.889540766669907
 30
0.0
 11
45.23000000184098
 21
3.629540766668603
 31
0.0
  0
LINE
  5
398
330
75
100
AcDbEntity
  8
GRUNDRISS
  6
Continuous
100
AcDbLine
 10
45.83000000184126
 20
3.889540766669907
 30
0.0
 11
46.43000000184154
 21
3.629540766668603
 31
0.0
  0
LINE
  5
399
330
75
100
AcDbEntity
  8
GRUNDRISS
  6
Continuous
100
AcDbLine
 10
-11.47999999816002
 20
4.68954076666734
 30
0.0
 11
-11.47999999816002
 21
3.62188704862627
 31
0.0
  0
LINE
  5
39A
330
75
100
AcDbEntity
  8
GRUNDRISS
  6
Continuous
100
AcDbLine
 10
-11.47999999816002
 20
3.62188704862627
 30
0.0
 11
-11.47999999816002
 21
3.489540766669738
 31
0.0
  0
LINE
  5
39B
330
75
100
AcDbEntity
  8
GRUNDRISS
  6
Continuous
100
AcDbLine
 10
-11.74999999815955
 20
4.68954076666734
 30
0.0
 11
-11.47999999816002
 21
4.68954076666734
 31
0.0
  0
LINE
  5
39C
330
75
100
AcDbEntity
  8
GRUNDRISS
  6
Continuous
100
AcDbLine
 10
-11.74999999815955
 20
3.489540766669738
 30
0.0
 11
-11.74999999815955
 21
4.68954076666734
 31
0.0
  0
LINE
  5
39D
330
75
100
AcDbEntity
  8
GRUNDRISS
  6
Continuous
100
AcDbLine
 10
-11.47999999816002
 20
3.489540766669738
 30
0.0
 11
-11.55641015967371
 21
3.489540766669738
 31
0.0
  0
LINE
  5
39E
330
75
100
AcDbEntity
  8
GRUNDRISS
  6
Continuous
100
AcDbLine
 10
-11.55641015967371
 20
3.489540766669738
 30
0.0
 11
-11.74999999815955
 21
3.489540766669738
 31
0.0
  0
LINE
  5
39F
330
75
100
AcDbEntity
  8
GRUNDRISS
  6
Continuous
100
AcDbLine
 10
-11.20999999815753
 20
4.68954076666734
 30
0.0
 11
-11.20999999815753
 21
4.08954076666706
 31
0.0
  0
LINE
  5
3A0
330
75
100
AcDbEntity
  8
GRUNDRISS
  6
Continuous
100
AcDbLine
 10
-11.20999999815753
 20
4.08954076666706
 30
0.0
 11
-11.20999999815753
 21
3.489540766669738
 31
0.0
  0
LINE
  5
3A1
330
75
100
AcDbEntity
  8
GRUNDRISS
  6
Continuous
100
AcDbLine
 10
-11.47999999816002
 20
4.68954076666734
 30
0.0
 11
-11.20999999815753
 21
4.68954076666734
 31
0.0
  0
LINE
  5
3A2
330
75
100
AcDbEntity
  8
GRUNDRISS
  6
Continuous
100
AcDbLine
 10
-11.20999999815753
 20
3.489540766669738
 30
0.0
 11
-11.47999999816002
 21
3.489540766669738
 31
0.0
  0
LINE
  5
3A3
330
75
100
AcDbEntity
  8
GRUNDRISS
  6
Continuous
100
AcDbLine
 10
-10.93999999815799
 20
4.68954076666734
 30
0.0
 11
-10.93999999815799
 21
3.489540766669738
 31
0.0
  0
LINE
  5
3A4
330
75
100
AcDbEntity
  8
GRUNDRISS
  6
Continuous
100
AcDbLine
 10
-11.20999999815753
 20
4.68954076666734
 30
0.0
 11
-10.93999999815799
 21
4.68954076666734
 31
0.0
  0
LINE
  5
3A5
330
75
100
AcDbEntity
  8
GRUNDRISS
  6
Continuous
100
AcDbLine
 10
-10.93999999815799
 20
3.489540766669738
 30
0.0
 11
-11.20999999815753
 21
3.489540766669738
 31
0.0
  0
LINE
  5
3A6
330
75
100
AcDbEntity
  8
GRUNDRISS
  6
Continuous
100
AcDbLine
 10
-9.39999999815846
 20
4.08954076666706
 30
0.0
 11
-13.09999999816018
 21
4.08954076666706
 31
0.0
  0
LINE
  5
3A7
330
75
100
AcDbEntity
  8
GRUNDRISS
  6
Continuous
100
AcDbLine
 10
-13.09999999816018
 20
4.08954076666706
 30
0.0
 11
-12.82999999815769
 21
3.489540766669738
 31
0.0
  0
LINE
  5
3A8
330
75
100
AcDbEntity
  8
GRUNDRISS
  6
Continuous
100
AcDbLine
 10
-13.09999999816018
 20
4.08954076666706
 30
0.0
 11
-12.82999999815769
 21
4.68954076666734
 31
0.0
  0
LINE
  5
3A9
330
75
100
AcDbEntity
  8
GRUNDRISS
  6
Continuous
100
AcDbLine
 10
42.23000000184254
 20
4.989540766667462
 30
0.0
 11
39.23000000184115
 21
4.989540766667462
 31
0.0
  0
ARC
  5
3AA
330
75
100
AcDbEntity
  8
GRUNDRISS
  6
Continuous
100
AcDbCircle
 10
39.23000000184115
 20
4.989540766667462
 30
0.0
 40
1.5
100
AcDbArc
 50
0.0
 51
180.0
  0
ARC
  5
3AB
330
75
100
AcDbEntity
  8
GRUNDRISS
  6
Continuous
100
AcDbCircle
 10
42.23000000184254
 20
4.989540766667462
 30
0.0
 40
1.5
100
AcDbArc
 50
0.0
 51
180.0
  0
LINE
  5
3AC
330
75
100
AcDbEntity
  8
GRUNDRISS
  6
Continuous
100
AcDbLine
 10
42.23000000184254
 20
4.989540766667462
 30
0.0
 11
42.23000000184254
 21
6.48954076666816
 31
0.0
  0
LINE
  5
3AD
330
75
100
AcDbEntity
  8
GRUNDRISS
  6
Continuous
100
AcDbLine
 10
39.23000000184115
 20
4.989540766667462
 30
0.0
 11
39.23000000184115
 21
6.48954076666816
 31
0.0
  0
LINE
  5
3AE
330
75
100
AcDbEntity
  8
GRUNDRISS
  6
Continuous
100
AcDbLine
 10
45.23000000184096
 20
-17.51045923333118
 30
0.0
 11
45.23000000184096
 21
-12.51045923333181
 31
0.0
  0
LINE
  5
3AF
330
75
100
AcDbEntity
  8
GRUNDRISS
  6
Continuous
100
AcDbLine
 10
42.1100000018401
 20
-35.01045923333047
 30
0.0
 11
39.11000000184166
 21
-35.01045923333047
 31
0.0
  0
ARC
  5
3B0
330
75
100
AcDbEntity
  8
GRUNDRISS
  6
Continuous
100
AcDbCircle
 10
42.1100000018401
 20
-35.01045923333047
 30
0.0
 40
1.5
100
AcDbArc
 50
180.0
 51
0.0
  0
LINE
  5
3B1
330
75
100
AcDbEntity
  8
GRUNDRISS
  6
Continuous
100
AcDbLine
 10
42.1100000018401
 20
-35.01045923333047
 30
0.0
 11
42.1100000018401
 21
-36.51045923333117
 31
0.0
  0
ARC
  5
3B2
330
75
100
AcDbEntity
  8
GRUNDRISS
  6
Continuous
100
AcDbCircle
 10
39.11000000184166
 20
-35.01045923333047
 30
0.0
 40
1.5
100
AcDbArc
 50
180.0
 51
0.0
  0
LINE
  5
3B3
330
75
100
AcDbEntity
  8
GRUNDRISS
  6
Continuous
100
AcDbLine
 10
39.11000000184166
 20
-34.71045923333032
 30
0.0
 11
39.11000000184166
 21
-36.51045923333117
 31
0.0
  0
LINE
  5
3B4
330
75
100
AcDbEntity
  8
GRUNDRISS
  6
Continuous
100
AcDbLine
 10
-3.519999998158092
 20
-35.01045923333046
 30
0.0
 11
-6.519999998159489
 21
-35.01045923333046
 31
0.0
  0
ARC
  5
3B5
330
75
100
AcDbEntity
  8
GRUNDRISS
  6
Continuous
100
AcDbCircle
 10
-3.519999998158092
 20
-35.01045923333046
 30
0.0
 40
1.5
100
AcDbArc
 50
180.0
 51
0.0
  0
LINE
  5
3B6
330
75
100
AcDbEntity
  8
GRUNDRISS
  6
Continuous
100
AcDbLine
 10
-3.519999998158092
 20
-35.01045923333046
 30
0.0
 11
-3.519999998158092
 21
-36.51045923333116
 31
0.0
  0
ARC
  5
3B7
330
75
100
AcDbEntity
  8
GRUNDRISS
  6
Continuous
100
AcDbCircle
 10
-6.519999998159489
 20
-35.01045923333046
 30
0.0
 40
1.5
100
AcDbArc
 50
180.0
 51
0.0
  0
LINE
  5
3B8
330
75
100
AcDbEntity
  8
GRUNDRISS
  6
Continuous
100
AcDbLine
 10
-6.519999998159489
 20
-35.01045923333046
 30
0.0
 11
-6.519999998159489
 21
-36.51045923333116
 31
0.0
  0
LINE
  5
3B9
330
75
100
AcDbEntity
  8
GRUNDRISS
  6
Continuous
100
AcDbLine
 10
-9.24999999815839
 20
4.68954076666734
 30
0.0
 11
-9.24999999815839
 21
0.2476926396197279
 31
0.0
  0
LINE
  5
3BA
330
75
100
AcDbEntity
  8
GRUNDRISS
  6
Continuous
100
AcDbLine
 10
-9.39999999815846
 20
4.68954076666734
 30
0.0
 11
-9.39999999815846
 21
0.2476926396197279
 31
0.0
  0
LINE
  5
3BB
330
75
100
AcDbEntity
  8
GRUNDRISS
  6
Continuous
100
AcDbLine
 10
-9.39999999815846
 20
3.414540766668213
 30
0.0
 11
-13.09999999816018
 21
3.414540766668225
 31
0.0
  0
LINE
  5
3BC
330
75
100
AcDbEntity
  8
GRUNDRISS
  6
Continuous
100
AcDbLine
 10
-4.819999998158692
 20
4.989540766667468
 30
0.0
 11
-7.819999998160088
 21
4.989540766667468
 31
0.0
  0
ARC
  5
3BD
330
75
100
AcDbEntity
  8
GRUNDRISS
  6
Continuous
100
AcDbCircle
 10
-7.819999998160088
 20
4.989540766667468
 30
0.0
 40
1.5
100
AcDbArc
 50
0.0
 51
90.0
  0
LINE
  5
3BE
330
75
100
AcDbEntity
  8
GRUNDRISS
  6
Continuous
100
AcDbLine
 10
-7.819999998160088
 20
4.989540766667468
 30
0.0
 11
-7.819999998160088
 21
6.489540766668167
 31
0.0
  0
ARC
  5
3BF
330
75
100
AcDbEntity
  8
GRUNDRISS
  6
Continuous
100
AcDbCircle
 10
-4.819999998158692
 20
4.989540766667468
 30
0.0
 40
1.5
100
AcDbArc
 50
90.0
 51
180.0
  0
ARC
  5
3C0
330
75
100
AcDbEntity
  8
GRUNDRISS
  6
Continuous
100
AcDbCircle
 10
-4.819999998158692
 20
4.989540766667468
 30
0.0
 40
1.5
100
AcDbArc
 50
0.0
 51
90.0
  0
LINE
  5
3C1
330
75
100
AcDbEntity
  8
GRUNDRISS
  6
Continuous
100
AcDbLine
 10
-4.819999998158692
 20
4.989540766667468
 30
0.0
 11
-4.819999998158692
 21
6.489540766668167
 31
0.0
  0
TEXT
  5
3C2
330
75
100
AcDbEntity
  8
GRUNDRISS
100
AcDbText
 10
-8.037625233559344
 20
4.097274143240111
 30
0.0
 40
0.1136434108527132
  1
F
  7
ARIALB
 11
-8.037625233559344
 21
4.210917554092825
 31
0.0
100
AcDbText
 73
     3
  0
TEXT
  5
3C3
330
75
100
AcDbEntity
  8
GRUNDRISS
100
AcDbText
 10
-7.069999998159744
 20
-34.37181582247897
 30
0.0
 40
0.1136434108527132
  1
F
 50
180.0
  7
ARIALB
 11
-7.069999998159744
 21
-34.48545923333168
 31
0.0
100
AcDbText
 73
     3
  0
TEXT
  5
3C4
330
75
100
AcDbEntity
  8
GRUNDRISS
100
AcDbText
 10
42.66000000184035
 20
-34.37181582247898
 30
0.0
 40
0.1136434108527132
  1
F
 50
180.0
  7
ARIALB
 11
42.66000000184035
 21
-34.48545923333169
 31
0.0
100
AcDbText
 73
     3
  0
TEXT
  5
3C5
330
75
100
AcDbEntity
  8
GRUNDRISS
100
AcDbText
 10
42.78000000183984
 20
4.390859177521409
 30
0.0
 40
0.1136434108527132
  1
F
 50
180.0
  7
ARIALB
 11
42.78000000183984
 21
4.277215766668696
 31
0.0
100
AcDbText
 73
     3
  0
CIRCLE
  5
3C6
330
75
100
AcDbEntity
  8
GRUNDRISS
  6
Continuous
100
AcDbCircle
 10
9.320000001840819
 20
4.639540766667299
 30
0.0
 40
0.05
  0
CIRCLE
  5
3C7
330
75
100
AcDbEntity
  8
GRUNDRISS
  6
Continuous
100
AcDbCircle
 10
18.04000000184133
 20
4.639540766667299
 30
0.0
 40
0.05
  0
CIRCLE
  5
3C8
330
75
100
AcDbEntity
  8
GRUNDRISS
  6
Continuous
100
AcDbCircle
 10
25.91000000184145
 20
4.639540766667299
 30
0.0
 40
0.05
  0
CIRCLE
  5
3C9
330
75
100
AcDbEntity
  8
GRUNDRISS
  6
Continuous
100
AcDbCircle
 10
35.76000000184013
 20
4.639540766667299
 30
0.0
 40
0.05
  0
LINE
  5
3CA
330
75
100
AcDbEntity
  8
GRUNDRISS
  6
Continuous
100
AcDbLine
 10
-14.76999999816037
 20
-35.01045923333046
 30
0.0
 11
-14.76999999816037
 21
-28.80045923333229
 31
0.0
  0
LINE
  5
3CB
330
75
100
AcDbEntity
  8
GRUNDRISS
  6
Continuous
100
AcDbLine
 10
-14.46999999816023
 20
-23.56153664767307
 30
0.0
 11
-14.86999999816042
 21
-23.56153664767307
 31
0.0
  0
LINE
  5
3CC
330
75
100
AcDbEntity
  8
GRUNDRISS
  6
Continuous
100
AcDbLine
 10
-14.86999999816042
 20
-23.56153664767307
 30
0.0
 11
-14.86999999816042
 21
-23.23153664767233
 31
0.0
  0
LINE
  5
3CD
330
75
100
AcDbEntity
  8
GRUNDRISS
  6
Continuous
100
AcDbLine
 10
-14.86999999816042
 20
-23.23153664767233
 30
0.0
 11
-14.46999999816023
 21
-23.23153664767233
 31
0.0
  0
LINE
  5
3CE
330
75
100
AcDbEntity
  8
GRUNDRISS
  6
Continuous
100
AcDbLine
 10
-14.46999999816023
 20
-23.23153664767233
 30
0.0
 11
-14.46999999816023
 21
-23.56153664767307
 31
0.0
  0
LINE
  5
3CF
330
75
100
AcDbEntity
  8
GRUNDRISS
  6
Continuous
100
AcDbLine
 10
-14.76999999816037
 20
-24.38045923333083
 30
0.0
 11
-14.76999999816037
 21
-25.38045923333129
 31
0.0
  0
LINE
  5
3D0
330
75
100
AcDbEntity
  8
GRUNDRISS
  6
Continuous
100
AcDbLine
 10
46.63000000184162
 20
-2.810459233330254
 30
0.0
 11
46.63000000184164
 21
4.089540766667044
 31
0.0
  0
LINE
  5
3D1
330
75
100
AcDbEntity
  8
GRUNDRISS
  6
Continuous
100
AcDbLine
 10
46.63000000184164
 20
4.089540766667044
 30
0.0
 11
45.23000000184098
 21
4.089540766667044
 31
0.0
  0
LINE
  5
3D2
330
75
100
AcDbEntity
  8
GRUNDRISS
  6
Continuous
100
AcDbLine
 10
45.23000000184098
 20
4.089540766667044
 30
0.0
 11
45.23000000184098
 21
3.889540766669907
 31
0.0
  0
LINE
  5
3D3
330
75
100
AcDbEntity
  8
GRUNDRISS
  6
Continuous
100
AcDbLine
 10
45.23000000184098
 20
3.889540766669907
 30
0.0
 11
46.43000000184154
 21
3.889540766669907
 31
0.0
  0
LINE
  5
3D4
330
75
100
AcDbEntity
  8
GRUNDRISS
  6
Continuous
100
AcDbLine
 10
46.43000000184154
 20
3.889540766669907
 30
0.0
 11
46.43000000184152
 21
-2.610459233330161
 31
0.0
  0
LINE
  5
3D5
330
75
100
AcDbEntity
  8
GRUNDRISS
  6
Continuous
100
AcDbLine
 10
46.43000000184152
 20
-2.610459233330161
 30
0.0
 11
45.23000000184096
 21
-2.610459233330161
 31
0.0
  0
LINE
  5
3D6
330
75
100
AcDbEntity
  8
GRUNDRISS
  6
Continuous
100
AcDbLine
 10
45.23000000184096
 20
-2.610459233330161
 30
0.0
 11
45.23000000184096
 21
-2.810459233330254
 31
0.0
  0
LINE
  5
3D7
330
75
100
AcDbEntity
  8
GRUNDRISS
  6
Continuous
100
AcDbLine
 10
45.23000000184096
 20
-2.810459233330254
 30
0.0
 11
46.63000000184162
 21
-2.810459233330254
 31
0.0
  0
LINE
  5
3D8
330
75
100
AcDbEntity
  8
GRUNDRISS
  6
Continuous
100
AcDbLine
 10
46.43000000184152
 20
-1.310459233332513
 30
0.0
 11
45.23000000184096
 21
-1.310459233332513
 31
0.0
  0
LINE
  5
3D9
330
75
100
AcDbEntity
  8
GRUNDRISS
  6
Continuous
100
AcDbLine
 10
45.23000000184096
 20
-1.310459233332513
 30
0.0
 11
45.23000000184096
 21
-1.050459233331209
 31
0.0
  0
LINE
  5
3DA
330
75
100
AcDbEntity
  8
GRUNDRISS
  6
Continuous
100
AcDbLine
 10
45.23000000184096
 20
-1.050459233331209
 30
0.0
 11
46.43000000184152
 21
-1.050459233331209
 31
0.0
  0
LINE
  5
3DB
330
75
100
AcDbEntity
  8
GRUNDRISS
  6
Continuous
100
AcDbLine
 10
46.43000000184152
 20
-1.050459233331209
 30
0.0
 11
46.43000000184152
 21
-1.310459233332513
 31
0.0
  0
LINE
  5
3DC
330
75
100
AcDbEntity
  8
GRUNDRISS
  6
Continuous
100
AcDbLine
 10
46.43000000184152
 20
-1.050459233331209
 30
0.0
 11
45.23000000184096
 21
-1.050459233331209
 31
0.0
  0
LINE
  5
3DD
330
75
100
AcDbEntity
  8
GRUNDRISS
  6
Continuous
100
AcDbLine
 10
45.23000000184096
 20
-1.050459233331209
 30
0.0
 11
45.23000000184096
 21
-0.790459233332863
 31
0.0
  0
LINE
  5
3DE
330
75
100
AcDbEntity
  8
GRUNDRISS
  6
Continuous
100
AcDbLine
 10
45.23000000184096
 20
-0.790459233332863
 30
0.0
 11
46.43000000184152
 21
-0.790459233332863
 31
0.0
  0
LINE
  5
3DF
330
75
100
AcDbEntity
  8
GRUNDRISS
  6
Continuous
100
AcDbLine
 10
46.43000000184152
 20
-0.790459233332863
 30
0.0
 11
46.43000000184152
 21
-1.050459233331209
 31
0.0
  0
LINE
  5
3E0
330
75
100
AcDbEntity
  8
GRUNDRISS
  6
Continuous
100
AcDbLine
 10
46.43000000184152
 20
-0.790459233332863
 30
0.0
 11
45.23000000184096
 21
-0.790459233332863
 31
0.0
  0
LINE
  5
3E1
330
75
100
AcDbEntity
  8
GRUNDRISS
  6
Continuous
100
AcDbLine
 10
45.23000000184096
 20
-0.790459233332863
 30
0.0
 11
45.23000000184096
 21
-0.5304592333315591
 31
0.0
  0
LINE
  5
3E2
330
75
100
AcDbEntity
  8
GRUNDRISS
  6
Continuous
100
AcDbLine
 10
45.23000000184096
 20
-0.5304592333315591
 30
0.0
 11
46.43000000184152
 21
-0.5304592333315591
 31
0.0
  0
LINE
  5
3E3
330
75
100
AcDbEntity
  8
GRUNDRISS
  6
Continuous
100
AcDbLine
 10
46.43000000184152
 20
-0.5304592333315591
 30
0.0
 11
46.43000000184152
 21
-0.790459233332863
 31
0.0
  0
LINE
  5
3E4
330
75
100
AcDbEntity
  8
GRUNDRISS
  6
Continuous
100
AcDbLine
 10
46.43000000184152
 20
-0.5304592333315591
 30
0.0
 11
45.23000000184096
 21
-0.5304592333315591
 31
0.0
  0
LINE
  5
3E5
330
75
100
AcDbEntity
  8
GRUNDRISS
  6
Continuous
100
AcDbLine
 10
45.23000000184096
 20
-0.5304592333315591
 30
0.0
 11
45.23000000184096
 21
-0.2704592333302552
 31
0.0
  0
LINE
  5
3E6
330
75
100
AcDbEntity
  8
GRUNDRISS
  6
Continuous
100
AcDbLine
 10
45.23000000184096
 20
-0.2704592333302552
 30
0.0
 11
46.43000000184152
 21
-0.2704592333302552
 31
0.0
  0
LINE
  5
3E7
330
75
100
AcDbEntity
  8
GRUNDRISS
  6
Continuous
100
AcDbLine
 10
46.43000000184152
 20
-0.2704592333302552
 30
0.0
 11
46.43000000184152
 21
-0.5304592333315591
 31
0.0
  0
LINE
  5
3E8
330
75
100
AcDbEntity
  8
GRUNDRISS
  6
Continuous
100
AcDbLine
 10
46.43000000184152
 20
-0.2704592333302552
 30
0.0
 11
45.23000000184096
 21
-0.2704592333302552
 31
0.0
  0
LINE
  5
3E9
330
75
100
AcDbEntity
  8
GRUNDRISS
  6
Continuous
100
AcDbLine
 10
45.23000000184096
 20
-0.2704592333302552
 30
0.0
 11
45.23000000184096
 21
-0.0104592333319084
 31
0.0
  0
LINE
  5
3EA
330
75
100
AcDbEntity
  8
GRUNDRISS
  6
Continuous
100
AcDbLine
 10
45.23000000184096
 20
-0.0104592333319084
 30
0.0
 11
46.43000000184152
 21
-0.0104592333319084
 31
0.0
  0
LINE
  5
3EB
330
75
100
AcDbEntity
  8
GRUNDRISS
  6
Continuous
100
AcDbLine
 10
46.43000000184152
 20
-0.0104592333319084
 30
0.0
 11
46.43000000184152
 21
-0.2704592333302552
 31
0.0
  0
LINE
  5
3EC
330
75
100
AcDbEntity
  8
GRUNDRISS
  6
Continuous
100
AcDbLine
 10
46.43000000184152
 20
-0.0104592333319084
 30
0.0
 11
45.23000000184096
 21
-0.0104592333319084
 31
0.0
  0
LINE
  5
3ED
330
75
100
AcDbEntity
  8
GRUNDRISS
  6
Continuous
100
AcDbLine
 10
45.23000000184096
 20
-0.0104592333319084
 30
0.0
 11
45.23000000184096
 21
0.2495407666693955
 31
0.0
  0
LINE
  5
3EE
330
75
100
AcDbEntity
  8
GRUNDRISS
  6
Continuous
100
AcDbLine
 10
45.23000000184096
 20
0.2495407666693955
 30
0.0
 11
46.43000000184152
 21
0.2495407666693955
 31
0.0
  0
LINE
  5
3EF
330
75
100
AcDbEntity
  8
GRUNDRISS
  6
Continuous
100
AcDbLine
 10
46.43000000184152
 20
0.2495407666693955
 30
0.0
 11
46.43000000184152
 21
-0.0104592333319084
 31
0.0
  0
LINE
  5
3F0
330
75
100
AcDbEntity
  8
GRUNDRISS
  6
Continuous
100
AcDbLine
 10
46.43000000184152
 20
0.2495407666693955
 30
0.0
 11
45.23000000184096
 21
0.2495407666693955
 31
0.0
  0
LINE
  5
3F1
330
75
100
AcDbEntity
  8
GRUNDRISS
  6
Continuous
100
AcDbLine
 10
45.23000000184096
 20
0.2495407666693955
 30
0.0
 11
45.23000000184096
 21
0.5095407666677425
 31
0.0
  0
LINE
  5
3F2
330
75
100
AcDbEntity
  8
GRUNDRISS
  6
Continuous
100
AcDbLine
 10
45.23000000184096
 20
0.5095407666677425
 30
0.0
 11
46.43000000184152
 21
0.5095407666677425
 31
0.0
  0
LINE
  5
3F3
330
75
100
AcDbEntity
  8
GRUNDRISS
  6
Continuous
100
AcDbLine
 10
46.43000000184152
 20
0.5095407666677425
 30
0.0
 11
46.43000000184152
 21
0.2495407666693955
 31
0.0
  0
LINE
  5
3F4
330
75
100
AcDbEntity
  8
GRUNDRISS
  6
Continuous
100
AcDbLine
 10
46.43000000184152
 20
0.5095407666677425
 30
0.0
 11
45.23000000184096
 21
0.5095407666677425
 31
0.0
  0
LINE
  5
3F5
330
75
100
AcDbEntity
  8
GRUNDRISS
  6
Continuous
100
AcDbLine
 10
45.23000000184096
 20
0.5095407666677425
 30
0.0
 11
45.23000000184098
 21
0.7695407666690463
 31
0.0
  0
LINE
  5
3F6
330
75
100
AcDbEntity
  8
GRUNDRISS
  6
Continuous
100
AcDbLine
 10
45.23000000184098
 20
0.7695407666690463
 30
0.0
 11
46.43000000184154
 21
0.7695407666690463
 31
0.0
  0
LINE
  5
3F7
330
75
100
AcDbEntity
  8
GRUNDRISS
  6
Continuous
100
AcDbLine
 10
46.43000000184154
 20
0.7695407666690463
 30
0.0
 11
46.43000000184152
 21
0.5095407666677425
 31
0.0
  0
LINE
  5
3F8
330
75
100
AcDbEntity
  8
GRUNDRISS
  6
Continuous
100
AcDbLine
 10
46.43000000184154
 20
0.7695407666690463
 30
0.0
 11
45.23000000184098
 21
0.7695407666690463
 31
0.0
  0
LINE
  5
3F9
330
75
100
AcDbEntity
  8
GRUNDRISS
  6
Continuous
100
AcDbLine
 10
45.23000000184098
 20
0.7695407666690463
 30
0.0
 11
45.23000000184098
 21
1.029540766667393
 31
0.0
  0
LINE
  5
3FA
330
75
100
AcDbEntity
  8
GRUNDRISS
  6
Continuous
100
AcDbLine
 10
45.23000000184098
 20
1.029540766667393
 30
0.0
 11
46.43000000184154
 21
1.029540766667393
 31
0.0
  0
LINE
  5
3FB
330
75
100
AcDbEntity
  8
GRUNDRISS
  6
Continuous
100
AcDbLine
 10
46.43000000184154
 20
1.029540766667393
 30
0.0
 11
46.43000000184154
 21
0.7695407666690463
 31
0.0
  0
LINE
  5
3FC
330
75
100
AcDbEntity
  8
GRUNDRISS
  6
Continuous
100
AcDbLine
 10
46.43000000184154
 20
1.029540766667393
 30
0.0
 11
45.23000000184098
 21
1.029540766667393
 31
0.0
  0
LINE
  5
3FD
330
75
100
AcDbEntity
  8
GRUNDRISS
  6
Continuous
100
AcDbLine
 10
45.23000000184098
 20
1.029540766667393
 30
0.0
 11
45.23000000184098
 21
1.289540766668696
 31
0.0
  0
LINE
  5
3FE
330
75
100
AcDbEntity
  8
GRUNDRISS
  6
Continuous
100
AcDbLine
 10
45.23000000184098
 20
1.289540766668696
 30
0.0
 11
46.43000000184154
 21
1.289540766668696
 31
0.0
  0
LINE
  5
3FF
330
75
100
AcDbEntity
  8
GRUNDRISS
  6
Continuous
100
AcDbLine
 10
46.43000000184154
 20
1.289540766668696
 30
0.0
 11
46.43000000184154
 21
1.029540766667393
 31
0.0
  0
LINE
  5
400
330
75
100
AcDbEntity
  8
GRUNDRISS
  6
Continuous
100
AcDbLine
 10
46.43000000184154
 20
1.289540766668696
 30
0.0
 11
45.23000000184098
 21
1.289540766668696
 31
0.0
  0
LINE
  5
401
330
75
100
AcDbEntity
  8
GRUNDRISS
  6
Continuous
100
AcDbLine
 10
45.23000000184098
 20
1.289540766668696
 30
0.0
 11
45.23000000184098
 21
1.54954076667
 31
0.0
  0
LINE
  5
402
330
75
100
AcDbEntity
  8
GRUNDRISS
  6
Continuous
100
AcDbLine
 10
45.23000000184098
 20
1.54954076667
 30
0.0
 11
46.43000000184154
 21
1.54954076667
 31
0.0
  0
LINE
  5
403
330
75
100
AcDbEntity
  8
GRUNDRISS
  6
Continuous
100
AcDbLine
 10
46.43000000184154
 20
1.54954076667
 30
0.0
 11
46.43000000184154
 21
1.289540766668696
 31
0.0
  0
LINE
  5
404
330
75
100
AcDbEntity
  8
GRUNDRISS
  6
Continuous
100
AcDbLine
 10
46.43000000184154
 20
1.54954076667
 30
0.0
 11
45.23000000184098
 21
1.54954076667
 31
0.0
  0
LINE
  5
405
330
75
100
AcDbEntity
  8
GRUNDRISS
  6
Continuous
100
AcDbLine
 10
45.23000000184098
 20
1.54954076667
 30
0.0
 11
45.23000000184098
 21
1.809540766668347
 31
0.0
  0
LINE
  5
406
330
75
100
AcDbEntity
  8
GRUNDRISS
  6
Continuous
100
AcDbLine
 10
45.23000000184098
 20
1.809540766668347
 30
0.0
 11
46.43000000184154
 21
1.809540766668347
 31
0.0
  0
LINE
  5
407
330
75
100
AcDbEntity
  8
GRUNDRISS
  6
Continuous
100
AcDbLine
 10
46.43000000184154
 20
1.809540766668347
 30
0.0
 11
46.43000000184154
 21
1.54954076667
 31
0.0
  0
LINE
  5
408
330
75
100
AcDbEntity
  8
GRUNDRISS
  6
Continuous
100
AcDbLine
 10
46.43000000184154
 20
1.809540766668347
 30
0.0
 11
45.23000000184098
 21
1.809540766668347
 31
0.0
  0
LINE
  5
409
330
75
100
AcDbEntity
  8
GRUNDRISS
  6
Continuous
100
AcDbLine
 10
45.23000000184098
 20
1.809540766668347
 30
0.0
 11
45.23000000184098
 21
2.069540766669651
 31
0.0
  0
LINE
  5
40A
330
75
100
AcDbEntity
  8
GRUNDRISS
  6
Continuous
100
AcDbLine
 10
45.23000000184098
 20
2.069540766669651
 30
0.0
 11
46.43000000184154
 21
2.069540766669651
 31
0.0
  0
LINE
  5
40B
330
75
100
AcDbEntity
  8
GRUNDRISS
  6
Continuous
100
AcDbLine
 10
46.43000000184154
 20
2.069540766669651
 30
0.0
 11
46.43000000184154
 21
1.809540766668347
 31
0.0
  0
LINE
  5
40C
330
75
100
AcDbEntity
  8
GRUNDRISS
  6
Continuous
100
AcDbLine
 10
46.43000000184154
 20
2.069540766669651
 30
0.0
 11
45.23000000184098
 21
2.069540766669651
 31
0.0
  0
LINE
  5
40D
330
75
100
AcDbEntity
  8
GRUNDRISS
  6
Continuous
100
AcDbLine
 10
45.23000000184098
 20
2.069540766669651
 30
0.0
 11
45.23000000184098
 21
2.329540766667998
 31
0.0
  0
LINE
  5
40E
330
75
100
AcDbEntity
  8
GRUNDRISS
  6
Continuous
100
AcDbLine
 10
45.23000000184098
 20
2.329540766667998
 30
0.0
 11
46.43000000184154
 21
2.329540766667998
 31
0.0
  0
LINE
  5
40F
330
75
100
AcDbEntity
  8
GRUNDRISS
  6
Continuous
100
AcDbLine
 10
46.43000000184154
 20
2.329540766667998
 30
0.0
 11
46.43000000184154
 21
2.069540766669651
 31
0.0
  0
LINE
  5
410
330
75
100
AcDbEntity
  8
GRUNDRISS
  6
Continuous
100
AcDbLine
 10
46.43000000184154
 20
2.329540766667998
 30
0.0
 11
45.23000000184098
 21
2.329540766667998
 31
0.0
  0
LINE
  5
411
330
75
100
AcDbEntity
  8
GRUNDRISS
  6
Continuous
100
AcDbLine
 10
45.23000000184098
 20
2.329540766667998
 30
0.0
 11
45.23000000184098
 21
2.589540766669302
 31
0.0
  0
LINE
  5
412
330
75
100
AcDbEntity
  8
GRUNDRISS
  6
Continuous
100
AcDbLine
 10
45.23000000184098
 20
2.589540766669302
 30
0.0
 11
46.43000000184154
 21
2.589540766669302
 31
0.0
  0
LINE
  5
413
330
75
100
AcDbEntity
  8
GRUNDRISS
  6
Continuous
100
AcDbLine
 10
46.43000000184154
 20
2.589540766669302
 30
0.0
 11
46.43000000184154
 21
2.329540766667998
 31
0.0
  0
LINE
  5
414
330
75
100
AcDbEntity
  8
GRUNDRISS
  6
Continuous
100
AcDbLine
 10
46.43000000184154
 20
2.589540766669302
 30
0.0
 11
45.23000000184098
 21
2.589540766669302
 31
0.0
  0
LINE
  5
415
330
75
100
AcDbEntity
  8
GRUNDRISS
  6
Continuous
100
AcDbLine
 10
45.23000000184098
 20
2.589540766669302
 30
0.0
 11
45.23000000184098
 21
2.849540766667649
 31
0.0
  0
LINE
  5
416
330
75
100
AcDbEntity
  8
GRUNDRISS
  6
Continuous
100
AcDbLine
 10
45.23000000184098
 20
2.849540766667649
 30
0.0
 11
46.43000000184154
 21
2.849540766667649
 31
0.0
  0
LINE
  5
417
330
75
100
AcDbEntity
  8
GRUNDRISS
  6
Continuous
100
AcDbLine
 10
46.43000000184154
 20
2.849540766667649
 30
0.0
 11
46.43000000184154
 21
2.589540766669302
 31
0.0
  0
LINE
  5
418
330
75
100
AcDbEntity
  8
GRUNDRISS
  6
Continuous
100
AcDbLine
 10
46.43000000184154
 20
2.849540766667649
 30
0.0
 11
45.23000000184098
 21
2.849540766667649
 31
0.0
  0
LINE
  5
419
330
75
100
AcDbEntity
  8
GRUNDRISS
  6
Continuous
100
AcDbLine
 10
45.23000000184098
 20
2.849540766667649
 30
0.0
 11
45.23000000184098
 21
3.109540766668953
 31
0.0
  0
LINE
  5
41A
330
75
100
AcDbEntity
  8
GRUNDRISS
  6
Continuous
100
AcDbLine
 10
45.23000000184098
 20
3.109540766668953
 30
0.0
 11
46.43000000184154
 21
3.109540766668953
 31
0.0
  0
LINE
  5
41B
330
75
100
AcDbEntity
  8
GRUNDRISS
  6
Continuous
100
AcDbLine
 10
46.43000000184154
 20
3.109540766668953
 30
0.0
 11
46.43000000184154
 21
2.849540766667649
 31
0.0
  0
LINE
  5
41C
330
75
100
AcDbEntity
  8
GRUNDRISS
  6
Continuous
100
AcDbLine
 10
46.43000000184154
 20
3.109540766668953
 30
0.0
 11
45.23000000184098
 21
3.109540766668953
 31
0.0
  0
LINE
  5
41D
330
75
100
AcDbEntity
  8
GRUNDRISS
  6
Continuous
100
AcDbLine
 10
45.23000000184098
 20
3.109540766668953
 30
0.0
 11
45.23000000184098
 21
3.369540766670256
 31
0.0
  0
LINE
  5
41E
330
75
100
AcDbEntity
  8
GRUNDRISS
  6
Continuous
100
AcDbLine
 10
45.23000000184098
 20
3.369540766670256
 30
0.0
 11
46.43000000184154
 21
3.369540766670256
 31
0.0
  0
LINE
  5
41F
330
75
100
AcDbEntity
  8
GRUNDRISS
  6
Continuous
100
AcDbLine
 10
46.43000000184154
 20
3.369540766670256
 30
0.0
 11
46.43000000184154
 21
3.109540766668953
 31
0.0
  0
LINE
  5
420
330
75
100
AcDbEntity
  8
GRUNDRISS
  6
Continuous
100
AcDbLine
 10
46.43000000184154
 20
3.369540766670256
 30
0.0
 11
45.23000000184098
 21
3.369540766670256
 31
0.0
  0
LINE
  5
421
330
75
100
AcDbEntity
  8
GRUNDRISS
  6
Continuous
100
AcDbLine
 10
45.23000000184098
 20
3.369540766670256
 30
0.0
 11
45.23000000184098
 21
3.629540766668603
 31
0.0
  0
LINE
  5
422
330
75
100
AcDbEntity
  8
GRUNDRISS
  6
Continuous
100
AcDbLine
 10
45.23000000184098
 20
3.629540766668603
 30
0.0
 11
46.43000000184154
 21
3.629540766668603
 31
0.0
  0
LINE
  5
423
330
75
100
AcDbEntity
  8
GRUNDRISS
  6
Continuous
100
AcDbLine
 10
46.43000000184154
 20
3.629540766668603
 30
0.0
 11
46.43000000184154
 21
3.369540766670256
 31
0.0
  0
LINE
  5
424
330
75
100
AcDbEntity
  8
GRUNDRISS
  6
Continuous
100
AcDbLine
 10
46.43000000184154
 20
3.629540766668603
 30
0.0
 11
45.23000000184098
 21
3.629540766668603
 31
0.0
  0
LINE
  5
425
330
75
100
AcDbEntity
  8
GRUNDRISS
  6
Continuous
100
AcDbLine
 10
45.23000000184098
 20
3.629540766668603
 30
0.0
 11
45.23000000184098
 21
3.889540766669907
 31
0.0
  0
LINE
  5
426
330
75
100
AcDbEntity
  8
GRUNDRISS
  6
Continuous
100
AcDbLine
 10
45.23000000184098
 20
3.889540766669907
 30
0.0
 11
46.43000000184154
 21
3.889540766669907
 31
0.0
  0
LINE
  5
427
330
75
100
AcDbEntity
  8
GRUNDRISS
  6
Continuous
100
AcDbLine
 10
46.43000000184154
 20
3.889540766669907
 30
0.0
 11
46.43000000184154
 21
3.629540766668603
 31
0.0
  0
LINE
  5
428
330
75
100
AcDbEntity
  8
GRUNDRISS
  6
Continuous
100
AcDbLine
 10
45.23000000184096
 20
-5.510459233331511
 30
0.0
 11
45.23000000184096
 21
-4.510459233331046
 31
0.0
  0
LINE
  5
429
330
75
100
AcDbEntity
  8
GRUNDRISS
  6
Continuous
100
AcDbLine
 10
45.23000000184096
 20
-25.51045923333195
 30
0.0
 11
45.23000000184096
 21
-24.51045923333149
 31
0.0
  0
LINE
  5
42A
330
75
100
AcDbEntity
  8
GRUNDRISS
  6
Continuous
100
AcDbLine
 10
-12.82999999815769
 20
3.489540766669738
 30
0.0
 11
-13.09999999816018
 21
3.489540766669738
 31
0.0
  0
LINE
  5
42B
330
75
100
AcDbEntity
  8
GRUNDRISS
  6
Continuous
100
AcDbLine
 10
-13.09999999816018
 20
3.489540766669738
 30
0.0
 11
-13.09999999816018
 21
4.68954076666734
 31
0.0
  0
LINE
  5
42C
330
75
100
AcDbEntity
  8
GRUNDRISS
  6
Continuous
100
AcDbLine
 10
-13.09999999816018
 20
4.68954076666734
 30
0.0
 11
-12.82999999815769
 21
4.68954076666734
 31
0.0
  0
LINE
  5
42D
330
75
100
AcDbEntity
  8
GRUNDRISS
  6
Continuous
100
AcDbLine
 10
-12.82999999815769
 20
4.68954076666734
 30
0.0
 11
-12.82999999815769
 21
3.489540766669738
 31
0.0
  0
LINE
  5
42E
330
75
100
AcDbEntity
  8
GRUNDRISS
  6
Continuous
100
AcDbLine
 10
-12.55999999815816
 20
3.489540766669738
 30
0.0
 11
-12.82999999815769
 21
3.489540766669738
 31
0.0
  0
LINE
  5
42F
330
75
100
AcDbEntity
  8
GRUNDRISS
  6
Continuous
100
AcDbLine
 10
-12.82999999815769
 20
3.489540766669738
 30
0.0
 11
-12.82999999815769
 21
4.68954076666734
 31
0.0
  0
LINE
  5
430
330
75
100
AcDbEntity
  8
GRUNDRISS
  6
Continuous
100
AcDbLine
 10
-12.82999999815769
 20
4.68954076666734
 30
0.0
 11
-12.55999999815816
 21
4.68954076666734
 31
0.0
  0
LINE
  5
431
330
75
100
AcDbEntity
  8
GRUNDRISS
  6
Continuous
100
AcDbLine
 10
-12.55999999815816
 20
4.68954076666734
 30
0.0
 11
-12.55999999815816
 21
3.489540766669738
 31
0.0
  0
LINE
  5
432
330
75
100
AcDbEntity
  8
GRUNDRISS
  6
Continuous
100
AcDbLine
 10
-12.28999999815862
 20
3.489540766669738
 30
0.0
 11
-12.55999999815816
 21
3.489540766669738
 31
0.0
  0
LINE
  5
433
330
75
100
AcDbEntity
  8
GRUNDRISS
  6
Continuous
100
AcDbLine
 10
-12.55999999815816
 20
3.489540766669738
 30
0.0
 11
-12.55999999815816
 21
4.68954076666734
 31
0.0
  0
LINE
  5
434
330
75
100
AcDbEntity
  8
GRUNDRISS
  6
Continuous
100
AcDbLine
 10
-12.55999999815816
 20
4.68954076666734
 30
0.0
 11
-12.28999999815862
 21
4.68954076666734
 31
0.0
  0
LINE
  5
435
330
75
100
AcDbEntity
  8
GRUNDRISS
  6
Continuous
100
AcDbLine
 10
-12.28999999815862
 20
4.68954076666734
 30
0.0
 11
-12.28999999815862
 21
3.489540766669738
 31
0.0
  0
LINE
  5
436
330
75
100
AcDbEntity
  8
GRUNDRISS
  6
Continuous
100
AcDbLine
 10
-12.01999999815909
 20
3.489540766669738
 30
0.0
 11
-12.28999999815862
 21
3.489540766669738
 31
0.0
  0
LINE
  5
437
330
75
100
AcDbEntity
  8
GRUNDRISS
  6
Continuous
100
AcDbLine
 10
-12.28999999815862
 20
3.489540766669738
 30
0.0
 11
-12.28999999815862
 21
4.68954076666734
 31
0.0
  0
LINE
  5
438
330
75
100
AcDbEntity
  8
GRUNDRISS
  6
Continuous
100
AcDbLine
 10
-12.28999999815862
 20
4.68954076666734
 30
0.0
 11
-12.01999999815909
 21
4.68954076666734
 31
0.0
  0
LINE
  5
439
330
75
100
AcDbEntity
  8
GRUNDRISS
  6
Continuous
100
AcDbLine
 10
-12.01999999815909
 20
4.68954076666734
 30
0.0
 11
-12.01999999815909
 21
3.489540766669738
 31
0.0
  0
LINE
  5
43A
330
75
100
AcDbEntity
  8
GRUNDRISS
  6
Continuous
100
AcDbLine
 10
-11.74999999815955
 20
3.489540766669738
 30
0.0
 11
-12.01999999815909
 21
3.489540766669738
 31
0.0
  0
LINE
  5
43B
330
75
100
AcDbEntity
  8
GRUNDRISS
  6
Continuous
100
AcDbLine
 10
-12.01999999815909
 20
3.489540766669738
 30
0.0
 11
-12.01999999815909
 21
4.68954076666734
 31
0.0
  0
LINE
  5
43C
330
75
100
AcDbEntity
  8
GRUNDRISS
  6
Continuous
100
AcDbLine
 10
-12.01999999815909
 20
4.68954076666734
 30
0.0
 11
-11.74999999815955
 21
4.68954076666734
 31
0.0
  0
LINE
  5
43D
330
75
100
AcDbEntity
  8
GRUNDRISS
  6
Continuous
100
AcDbLine
 10
-11.74999999815955
 20
4.68954076666734
 30
0.0
 11
-11.74999999815955
 21
3.489540766669738
 31
0.0
  0
LINE
  5
43E
330
75
100
AcDbEntity
  8
GRUNDRISS
  6
Continuous
100
AcDbLine
 10
-10.66999999815846
 20
3.489540766669738
 30
0.0
 11
-10.93999999815799
 21
3.489540766669738
 31
0.0
  0
LINE
  5
43F
330
75
100
AcDbEntity
  8
GRUNDRISS
  6
Continuous
100
AcDbLine
 10
-10.93999999815799
 20
3.489540766669738
 30
0.0
 11
-10.93999999815799
 21
4.68954076666734
 31
0.0
  0
LINE
  5
440
330
75
100
AcDbEntity
  8
GRUNDRISS
  6
Continuous
100
AcDbLine
 10
-10.93999999815799
 20
4.68954076666734
 30
0.0
 11
-10.66999999815846
 21
4.68954076666734
 31
0.0
  0
LINE
  5
441
330
75
100
AcDbEntity
  8
GRUNDRISS
  6
Continuous
100
AcDbLine
 10
-10.66999999815846
 20
4.68954076666734
 30
0.0
 11
-10.66999999815846
 21
3.489540766669738
 31
0.0
  0
LINE
  5
442
330
75
100
AcDbEntity
  8
GRUNDRISS
  6
Continuous
100
AcDbLine
 10
-10.39999999815892
 20
3.489540766669738
 30
0.0
 11
-10.66999999815846
 21
3.489540766669738
 31
0.0
  0
LINE
  5
443
330
75
100
AcDbEntity
  8
GRUNDRISS
  6
Continuous
100
AcDbLine
 10
-10.66999999815846
 20
3.489540766669738
 30
0.0
 11
-10.66999999815846
 21
4.68954076666734
 31
0.0
  0
LINE
  5
444
330
75
100
AcDbEntity
  8
GRUNDRISS
  6
Continuous
100
AcDbLine
 10
-10.66999999815846
 20
4.68954076666734
 30
0.0
 11
-10.39999999815892
 21
4.68954076666734
 31
0.0
  0
LINE
  5
445
330
75
100
AcDbEntity
  8
GRUNDRISS
  6
Continuous
100
AcDbLine
 10
-10.39999999815892
 20
4.68954076666734
 30
0.0
 11
-10.39999999815892
 21
3.489540766669738
 31
0.0
  0
LINE
  5
446
330
75
100
AcDbEntity
  8
GRUNDRISS
  6
Continuous
100
AcDbLine
 10
-10.12999999815939
 20
3.489540766669738
 30
0.0
 11
-10.39999999815892
 21
3.489540766669738
 31
0.0
  0
LINE
  5
447
330
75
100
AcDbEntity
  8
GRUNDRISS
  6
Continuous
100
AcDbLine
 10
-10.39999999815892
 20
3.489540766669738
 30
0.0
 11
-10.39999999815892
 21
4.68954076666734
 31
0.0
  0
LINE
  5
448
330
75
100
AcDbEntity
  8
GRUNDRISS
  6
Continuous
100
AcDbLine
 10
-10.39999999815892
 20
4.68954076666734
 30
0.0
 11
-10.12999999815939
 21
4.68954076666734
 31
0.0
  0
LINE
  5
449
330
75
100
AcDbEntity
  8
GRUNDRISS
  6
Continuous
100
AcDbLine
 10
-10.12999999815939
 20
4.68954076666734
 30
0.0
 11
-10.12999999815939
 21
3.489540766669738
 31
0.0
  0
LINE
  5
44A
330
75
100
AcDbEntity
  8
GRUNDRISS
  6
Continuous
100
AcDbLine
 10
-9.859999998159857
 20
3.489540766669738
 30
0.0
 11
-10.12999999815939
 21
3.489540766669738
 31
0.0
  0
LINE
  5
44B
330
75
100
AcDbEntity
  8
GRUNDRISS
  6
Continuous
100
AcDbLine
 10
-10.12999999815939
 20
3.489540766669738
 30
0.0
 11
-10.12999999815939
 21
4.68954076666734
 31
0.0
  0
LINE
  5
44C
330
75
100
AcDbEntity
  8
GRUNDRISS
  6
Continuous
100
AcDbLine
 10
-10.12999999815939
 20
4.68954076666734
 30
0.0
 11
-9.859999998159857
 21
4.68954076666734
 31
0.0
  0
LINE
  5
44D
330
75
100
AcDbEntity
  8
GRUNDRISS
  6
Continuous
100
AcDbLine
 10
-9.859999998159857
 20
4.68954076666734
 30
0.0
 11
-9.859999998159857
 21
3.489540766669738
 31
0.0
  0
LINE
  5
44E
330
75
100
AcDbEntity
  8
GRUNDRISS
  6
Continuous
100
AcDbLine
 10
-9.589999998160321
 20
3.489540766669738
 30
0.0
 11
-9.859999998159857
 21
3.489540766669738
 31
0.0
  0
LINE
  5
44F
330
75
100
AcDbEntity
  8
GRUNDRISS
  6
Continuous
100
AcDbLine
 10
-9.859999998159857
 20
3.489540766669738
 30
0.0
 11
-9.859999998159857
 21
4.68954076666734
 31
0.0
  0
LINE
  5
450
330
75
100
AcDbEntity
  8
GRUNDRISS
  6
Continuous
100
AcDbLine
 10
-9.859999998159857
 20
4.68954076666734
 30
0.0
 11
-9.589999998160321
 21
4.68954076666734
 31
0.0
  0
LINE
  5
451
330
75
100
AcDbEntity
  8
GRUNDRISS
  6
Continuous
100
AcDbLine
 10
-9.589999998160321
 20
4.68954076666734
 30
0.0
 11
-9.589999998160321
 21
3.489540766669738
 31
0.0
  0
LINE
  5
452
330
75
100
AcDbEntity
  8
GRUNDRISS
  6
Continuous
100
AcDbLine
 10
-9.39999999815846
 20
3.339540766669657
 30
0.0
 11
-13.09999999816018
 21
3.339540766669668
 31
0.0
  0
LINE
  5
453
330
75
100
AcDbEntity
  8
GRUNDRISS
  6
Continuous
100
AcDbLine
 10
-13.09999999816018
 20
3.339540766669668
 30
0.0
 11
-13.09999999816018
 21
3.489540766669738
 31
0.0
  0
LINE
  5
454
330
75
100
AcDbEntity
  8
GRUNDRISS
  6
Continuous
100
AcDbLine
 10
-13.09999999816018
 20
3.489540766669738
 30
0.0
 11
-9.39999999815846
 21
3.489540766669727
 31
0.0
  0
LINE
  5
455
330
75
100
AcDbEntity
  8
GRUNDRISS
  6
Continuous
100
AcDbLine
 10
-9.39999999815846
 20
3.489540766669727
 30
0.0
 11
-9.39999999815846
 21
3.339540766669657
 31
0.0
  0
LINE
  5
456
330
75
100
AcDbEntity
  8
GRUNDRISS
  6
Continuous
100
AcDbLine
 10
-8.121050680416157
 20
3.63774602321548
 30
0.0
 11
-8.121050680416157
 21
4.637746023215957
 31
0.0
  0
LINE
  5
457
330
75
100
AcDbEntity
  8
GRUNDRISS
  6
Continuous
100
AcDbLine
 10
-8.121050680416157
 20
4.637746023215957
 30
0.0
 11
-7.921050680416064
 21
4.637746023215957
 31
0.0
  0
LINE
  5
458
330
75
100
AcDbEntity
  8
GRUNDRISS
  6
Continuous
100
AcDbLine
 10
-7.921050680416064
 20
4.637746023215957
 30
0.0
 11
-7.921050680416064
 21
3.63774602321548
 31
0.0
  0
LINE
  5
459
330
75
100
AcDbEntity
  8
GRUNDRISS
  6
Continuous
100
AcDbLine
 10
-7.921050680416064
 20
3.63774602321548
 30
0.0
 11
-8.121050680416157
 21
3.63774602321548
 31
0.0
  0
LINE
  5
45A
330
75
100
AcDbEntity
  8
GRUNDRISS
  6
Continuous
100
AcDbLine
 10
-6.569999998159513
 20
-34.68545923333177
 30
0.0
 11
-7.569999998159978
 21
-34.68545923333177
 31
0.0
  0
LINE
  5
45B
330
75
100
AcDbEntity
  8
GRUNDRISS
  6
Continuous
100
AcDbLine
 10
-7.569999998159978
 20
-34.68545923333177
 30
0.0
 11
-7.569999998159978
 21
-34.48545923333168
 31
0.0
  0
LINE
  5
45C
330
75
100
AcDbEntity
  8
GRUNDRISS
  6
Continuous
100
AcDbLine
 10
-7.569999998159978
 20
-34.48545923333168
 30
0.0
 11
-6.569999998159513
 21
-34.48545923333168
 31
0.0
  0
LINE
  5
45D
330
75
100
AcDbEntity
  8
GRUNDRISS
  6
Continuous
100
AcDbLine
 10
-6.569999998159513
 20
-34.48545923333168
 30
0.0
 11
-6.569999998159513
 21
-34.68545923333177
 31
0.0
  0
LINE
  5
45E
330
75
100
AcDbEntity
  8
GRUNDRISS
  6
Continuous
100
AcDbLine
 10
43.16000000184058
 20
-34.68545923333179
 30
0.0
 11
42.16000000184012
 21
-34.68545923333179
 31
0.0
  0
LINE
  5
45F
330
75
100
AcDbEntity
  8
GRUNDRISS
  6
Continuous
100
AcDbLine
 10
42.16000000184012
 20
-34.68545923333179
 30
0.0
 11
42.16000000184012
 21
-34.48545923333169
 31
0.0
  0
LINE
  5
460
330
75
100
AcDbEntity
  8
GRUNDRISS
  6
Continuous
100
AcDbLine
 10
42.16000000184012
 20
-34.48545923333169
 30
0.0
 11
43.16000000184058
 21
-34.48545923333169
 31
0.0
  0
LINE
  5
461
330
75
100
AcDbEntity
  8
GRUNDRISS
  6
Continuous
100
AcDbLine
 10
43.16000000184058
 20
-34.48545923333169
 30
0.0
 11
43.16000000184058
 21
-34.68545923333179
 31
0.0
  0
LINE
  5
462
330
75
100
AcDbEntity
  8
GRUNDRISS
  6
Continuous
100
AcDbLine
 10
43.28000000184007
 20
4.464540766668696
 30
0.0
 11
42.28000000184256
 21
4.464540766668696
 31
0.0
  0
LINE
  5
463
330
75
100
AcDbEntity
  8
GRUNDRISS
  6
Continuous
100
AcDbLine
 10
42.28000000184256
 20
4.464540766668696
 30
0.0
 11
42.28000000184256
 21
4.66454076666879
 31
0.0
  0
LINE
  5
464
330
75
100
AcDbEntity
  8
GRUNDRISS
  6
Continuous
100
AcDbLine
 10
42.28000000184256
 20
4.66454076666879
 30
0.0
 11
43.28000000184007
 21
4.66454076666879
 31
0.0
  0
LINE
  5
465
330
75
100
AcDbEntity
  8
GRUNDRISS
  6
Continuous
100
AcDbLine
 10
43.28000000184007
 20
4.66454076666879
 30
0.0
 11
43.28000000184007
 21
4.464540766668696
 31
0.0
  0
LINE
  5
466
330
75
100
AcDbEntity
  8
GRUNDRISS
  6
Continuous
100
AcDbLine
 10
-14.46999999816023
 20
-26.42545923333266
 30
0.0
 11
-14.86999999816042
 21
-26.42545923333266
 31
0.0
  0
LINE
  5
467
330
75
100
AcDbEntity
  8
GRUNDRISS
  6
Continuous
100
AcDbLine
 10
-14.86999999816042
 20
-26.42545923333266
 30
0.0
 11
-14.86999999816042
 21
-26.09545923333192
 31
0.0
  0
LINE
  5
468
330
75
100
AcDbEntity
  8
GRUNDRISS
  6
Continuous
100
AcDbLine
 10
-14.86999999816042
 20
-26.09545923333192
 30
0.0
 11
-14.46999999816023
 21
-26.09545923333192
 31
0.0
  0
LINE
  5
469
330
75
100
AcDbEntity
  8
GRUNDRISS
  6
Continuous
100
AcDbLine
 10
-14.46999999816023
 20
-26.09545923333192
 30
0.0
 11
-14.46999999816023
 21
-26.42545923333266
 31
0.0
  0
LINE
  5
46A
330
75
100
AcDbEntity
  8
GRUNDRISS
  6
Continuous
100
AcDbLine
 10
45.14000000184212
 20
4.989540766667462
 30
0.0
 11
45.08000000184091
 21
4.989540766667462
 31
0.0
  0
LINE
  5
46B
330
75
100
AcDbEntity
  8
GRUNDRISS
  6
Continuous
100
AcDbLine
 10
45.08000000184091
 20
4.989540766667462
 30
0.0
 11
45.08000000184091
 21
5.039540766667486
 31
0.0
  0
LINE
  5
46C
330
75
100
AcDbEntity
  8
GRUNDRISS
  6
Continuous
100
AcDbLine
 10
45.08000000184091
 20
5.039540766667486
 30
0.0
 11
45.14000000184212
 21
5.039540766667486
 31
0.0
  0
LINE
  5
46D
330
75
100
AcDbEntity
  8
GRUNDRISS
  6
Continuous
100
AcDbLine
 10
45.14000000184212
 20
5.039540766667486
 30
0.0
 11
45.14000000184212
 21
4.989540766667462
 31
0.0
  0
LINE
  5
46E
330
75
100
AcDbEntity
  8
GRUNDRISS
  6
Continuous
100
AcDbLine
 10
-9.437999998158831
 20
4.989540766667468
 30
0.0
 11
-9.487999998158855
 21
4.989540766667468
 31
0.0
  0
LINE
  5
46F
330
75
100
AcDbEntity
  8
GRUNDRISS
  6
Continuous
100
AcDbLine
 10
-1.146999998159879
 20
4.989540766667468
 30
0.0
 11
-1.446999998160019
 21
4.989540766667468
 31
0.0
  0
LINE
  5
470
330
75
100
AcDbEntity
  8
GRUNDRISS
  6
Continuous
100
AcDbLine
 10
-1.446999998160019
 20
4.989540766667468
 30
0.0
 11
-1.446999998160019
 21
5.174540766670215
 31
0.0
  0
LINE
  5
471
330
75
100
AcDbEntity
  8
GRUNDRISS
  6
Continuous
100
AcDbLine
 10
-1.446999998160019
 20
5.174540766670215
 30
0.0
 11
-1.146999998159879
 21
5.174540766670215
 31
0.0
  0
LINE
  5
472
330
75
100
AcDbEntity
  8
GRUNDRISS
  6
Continuous
100
AcDbLine
 10
-1.146999998159879
 20
5.174540766670215
 30
0.0
 11
-1.146999998159879
 21
4.989540766667468
 31
0.0
  0
LINE
  5
473
330
75
100
AcDbEntity
  8
GRUNDRISS
  6
Continuous
100
AcDbLine
 10
5.464000001840678
 20
4.989540766667462
 30
0.0
 11
5.164000001840538
 21
4.989540766667462
 31
0.0
  0
LINE
  5
474
330
75
100
AcDbEntity
  8
GRUNDRISS
  6
Continuous
100
AcDbLine
 10
5.164000001840538
 20
4.989540766667462
 30
0.0
 11
5.164000001840538
 21
5.17454076667021
 31
0.0
  0
LINE
  5
475
330
75
100
AcDbEntity
  8
GRUNDRISS
  6
Continuous
100
AcDbLine
 10
5.164000001840538
 20
5.17454076667021
 30
0.0
 11
5.464000001840678
 21
5.17454076667021
 31
0.0
  0
LINE
  5
476
330
75
100
AcDbEntity
  8
GRUNDRISS
  6
Continuous
100
AcDbLine
 10
5.464000001840678
 20
5.17454076667021
 30
0.0
 11
5.464000001840678
 21
4.989540766667462
 31
0.0
  0
LINE
  5
477
330
75
100
AcDbEntity
  8
GRUNDRISS
  6
Continuous
100
AcDbLine
 10
25.29700000184229
 20
4.989540766667462
 30
0.0
 11
24.99700000184215
 21
4.989540766667462
 31
0.0
  0
LINE
  5
478
330
75
100
AcDbEntity
  8
GRUNDRISS
  6
Continuous
100
AcDbLine
 10
24.99700000184215
 20
4.989540766667462
 30
0.0
 11
24.99700000184215
 21
5.174540766667253
 31
0.0
  0
LINE
  5
479
330
75
100
AcDbEntity
  8
GRUNDRISS
  6
Continuous
100
AcDbLine
 10
24.99700000184215
 20
5.174540766667253
 30
0.0
 11
25.29700000184229
 21
5.174540766667253
 31
0.0
  0
LINE
  5
47A
330
75
100
AcDbEntity
  8
GRUNDRISS
  6
Continuous
100
AcDbLine
 10
25.29700000184229
 20
5.174540766667253
 30
0.0
 11
25.29700000184229
 21
4.989540766667462
 31
0.0
  0
LINE
  5
47B
330
75
100
AcDbEntity
  8
GRUNDRISS
  6
Continuous
100
AcDbLine
 10
31.90800000183987
 20
4.989540766667462
 30
0.0
 11
31.60800000183972
 21
4.989540766667462
 31
0.0
  0
LINE
  5
47C
330
75
100
AcDbEntity
  8
GRUNDRISS
  6
Continuous
100
AcDbLine
 10
31.60800000183972
 20
4.989540766667462
 30
0.0
 11
31.60800000183972
 21
5.174540766667253
 31
0.0
  0
LINE
  5
47D
330
75
100
AcDbEntity
  8
GRUNDRISS
  6
Continuous
100
AcDbLine
 10
31.60800000183972
 20
5.174540766667253
 30
0.0
 11
31.90800000183987
 21
5.174540766667253
 31
0.0
  0
LINE
  5
47E
330
75
100
AcDbEntity
  8
GRUNDRISS
  6
Continuous
100
AcDbLine
 10
31.90800000183987
 20
5.174540766667253
 30
0.0
 11
31.90800000183987
 21
4.989540766667462
 31
0.0
  0
LINE
  5
47F
330
75
100
AcDbEntity
  8
GRUNDRISS
  6
Continuous
100
AcDbLine
 10
-14.76999999816037
 20
-35.01045923333046
 30
0.0
 11
-14.76999999816037
 21
-34.76045923333033
 31
0.0
  0
LINE
  5
480
330
75
100
AcDbEntity
  8
GRUNDRISS
  6
Continuous
100
AcDbLine
 10
-14.76999999816037
 20
-30.54045923333192
 30
0.0
 11
-14.76999999816037
 21
-30.34045923333182
 31
0.0
  0
LINE
  5
481
330
75
100
AcDbEntity
  8
GRUNDRISS
  6
Continuous
100
AcDbLine
 10
-14.76895304124347
 20
-32.40645355688585
 30
0.0
 11
-14.76895304124347
 21
-32.14645355688455
 31
0.0
  0
LINE
  5
482
330
75
100
AcDbEntity
  8
GRUNDRISS
  6
Continuous
100
AcDbLine
 10
-14.76895304124347
 20
-32.6664535568842
 30
0.0
 11
-14.76895304124347
 21
-32.40645355688585
 31
0.0
  0
LINE
  5
483
330
75
100
AcDbEntity
  8
GRUNDRISS
  6
Continuous
100
AcDbLine
 10
-14.76895304124347
 20
-32.9264535568855
 30
0.0
 11
-14.76895304124347
 21
-32.6664535568842
 31
0.0
  0
LINE
  5
484
330
75
100
AcDbEntity
  8
GRUNDRISS
  6
Continuous
100
AcDbLine
 10
-14.76895304124347
 20
-33.18645355688385
 30
0.0
 11
-14.76895304124347
 21
-32.9264535568855
 31
0.0
  0
LINE
  5
485
330
75
100
AcDbEntity
  8
GRUNDRISS
  6
Continuous
100
AcDbLine
 10
-14.76895304124347
 20
-33.44645355688515
 30
0.0
 11
-14.76895304124347
 21
-33.18645355688385
 31
0.0
  0
LINE
  5
486
330
75
100
AcDbEntity
  8
GRUNDRISS
  6
Continuous
100
AcDbLine
 10
-14.76895304124347
 20
-33.70645355688349
 30
0.0
 11
-14.76895304124347
 21
-33.44645355688515
 31
0.0
  0
LINE
  5
487
330
75
100
AcDbEntity
  8
GRUNDRISS
  6
Continuous
100
AcDbLine
 10
-14.76895304124347
 20
-33.9664535568848
 30
0.0
 11
-14.76895304124347
 21
-33.70645355688349
 31
0.0
  0
LINE
  5
488
330
75
100
AcDbEntity
  8
GRUNDRISS
  6
Continuous
100
AcDbLine
 10
-14.76895304124347
 20
-34.22645355688315
 30
0.0
 11
-14.76895304124347
 21
-33.9664535568848
 31
0.0
  0
LINE
  5
489
330
75
100
AcDbEntity
  8
GRUNDRISS
  6
Continuous
100
AcDbLine
 10
-14.76895304124347
 20
-34.48645355688446
 30
0.0
 11
-14.76895304124347
 21
-34.22645355688315
 31
0.0
  0
LINE
  5
48A
330
75
100
AcDbEntity
  8
GRUNDRISS
  6
Continuous
100
AcDbLine
 10
-14.76895304124347
 20
-34.74645355688576
 30
0.0
 11
-14.76895304124347
 21
-34.48645355688446
 31
0.0
  0
LINE
  5
48B
330
75
100
AcDbEntity
  8
GRUNDRISS
  6
Continuous
100
AcDbLine
 10
-14.76895304124347
 20
-35.00645355688412
 30
0.0
 11
-14.76895304124347
 21
-34.74645355688576
 31
0.0
  0
LINE
  5
48C
330
75
100
AcDbEntity
  8
GRUNDRISS
  6
Continuous
100
AcDbLine
 10
-14.76999999816037
 20
-25.46045923333192
 30
0.0
 11
-14.76999999816037
 21
-25.38045923333129
 31
0.0
  0
LINE
  5
48D
330
75
100
AcDbEntity
  8
GRUNDRISS
  6
Continuous
100
AcDbLine
 10
-14.76999999816037
 20
-24.38045923333083
 30
0.0
 11
-14.76999999816037
 21
-24.3004592333302
 31
0.0
  0
LINE
  5
48E
330
75
100
AcDbEntity
  8
GRUNDRISS
  6
Continuous
100
AcDbLine
 10
45.81000000184183
 20
-5.59045923333214
 30
0.0
 11
45.81000000184183
 21
-4.430459233330418
 31
0.0
  0
LINE
  5
48F
330
75
100
AcDbEntity
  8
GRUNDRISS
  6
Continuous
100
AcDbLine
 10
45.81000000184183
 20
-4.430459233330418
 30
0.0
 11
45.23000000184096
 21
-4.430459233330418
 31
0.0
  0
LINE
  5
490
330
75
100
AcDbEntity
  8
GRUNDRISS
  6
Continuous
100
AcDbLine
 10
45.23000000184096
 20
-4.430459233330418
 30
0.0
 11
45.23000000184096
 21
-4.510459233331046
 31
0.0
  0
LINE
  5
491
330
75
100
AcDbEntity
  8
GRUNDRISS
  6
Continuous
100
AcDbLine
 10
45.23000000184096
 20
-4.510459233331046
 30
0.0
 11
45.7300000018412
 21
-4.510459233331046
 31
0.0
  0
LINE
  5
492
330
75
100
AcDbEntity
  8
GRUNDRISS
  6
Continuous
100
AcDbLine
 10
45.7300000018412
 20
-4.510459233331046
 30
0.0
 11
45.7300000018412
 21
-5.510459233331511
 31
0.0
  0
LINE
  5
493
330
75
100
AcDbEntity
  8
GRUNDRISS
  6
Continuous
100
AcDbLine
 10
45.7300000018412
 20
-5.510459233331511
 30
0.0
 11
45.23000000184096
 21
-5.510459233331511
 31
0.0
  0
LINE
  5
494
330
75
100
AcDbEntity
  8
GRUNDRISS
  6
Continuous
100
AcDbLine
 10
45.23000000184096
 20
-5.510459233331511
 30
0.0
 11
45.23000000184096
 21
-5.59045923333214
 31
0.0
  0
LINE
  5
495
330
75
100
AcDbEntity
  8
GRUNDRISS
  6
Continuous
100
AcDbLine
 10
45.23000000184096
 20
-5.59045923333214
 30
0.0
 11
45.81000000184183
 21
-5.59045923333214
 31
0.0
  0
LINE
  5
496
330
75
100
AcDbEntity
  8
GRUNDRISS
  6
Continuous
100
AcDbLine
 10
45.81000000184183
 20
-25.59045923333258
 30
0.0
 11
45.81000000184183
 21
-24.43045923333086
 31
0.0
  0
LINE
  5
497
330
75
100
AcDbEntity
  8
GRUNDRISS
  6
Continuous
100
AcDbLine
 10
45.81000000184183
 20
-24.43045923333086
 30
0.0
 11
45.23000000184096
 21
-24.43045923333086
 31
0.0
  0
LINE
  5
498
330
75
100
AcDbEntity
  8
GRUNDRISS
  6
Continuous
100
AcDbLine
 10
45.23000000184096
 20
-24.43045923333086
 30
0.0
 11
45.23000000184096
 21
-24.51045923333149
 31
0.0
  0
LINE
  5
499
330
75
100
AcDbEntity
  8
GRUNDRISS
  6
Continuous
100
AcDbLine
 10
45.23000000184096
 20
-24.51045923333149
 30
0.0
 11
45.7300000018412
 21
-24.51045923333149
 31
0.0
  0
LINE
  5
49A
330
75
100
AcDbEntity
  8
GRUNDRISS
  6
Continuous
100
AcDbLine
 10
45.7300000018412
 20
-24.51045923333149
 30
0.0
 11
45.7300000018412
 21
-25.51045923333195
 31
0.0
  0
LINE
  5
49B
330
75
100
AcDbEntity
  8
GRUNDRISS
  6
Continuous
100
AcDbLine
 10
45.7300000018412
 20
-25.51045923333195
 30
0.0
 11
45.23000000184096
 21
-25.51045923333195
 31
0.0
  0
LINE
  5
49C
330
75
100
AcDbEntity
  8
GRUNDRISS
  6
Continuous
100
AcDbLine
 10
45.23000000184096
 20
-25.51045923333195
 30
0.0
 11
45.23000000184096
 21
-25.59045923333258
 31
0.0
  0
LINE
  5
49D
330
75
100
AcDbEntity
  8
GRUNDRISS
  6
Continuous
100
AcDbLine
 10
45.23000000184096
 20
-25.59045923333258
 30
0.0
 11
45.81000000184183
 21
-25.59045923333258
 31
0.0
  0
LINE
  5
49E
330
75
100
AcDbEntity
  8
GRUNDRISS
  6
Continuous
100
AcDbLine
 10
-7.915094523747741
 20
4.68954076666734
 30
0.0
 11
-7.915094523747741
 21
0.0976926396196581
 31
0.0
  0
LINE
  5
49F
330
75
100
AcDbEntity
  8
GRUNDRISS
  6
Continuous
100
AcDbLine
 10
-8.065094523747811
 20
4.68954076666734
 30
0.0
 11
-8.065094523747811
 21
0.2476926396197279
 31
0.0
  0
LINE
  5
4A0
330
75
100
AcDbEntity
  8
GRUNDRISS
  6
Continuous
100
AcDbLine
 10
-9.476459950580178
 20
0.2476926396197395
 30
0.0
 11
-9.476459950580178
 21
0.0976926396196696
 31
0.0
  0
LINE
  5
4A1
330
75
100
AcDbEntity
  8
GRUNDRISS
  6
Continuous
100
AcDbLine
 10
-8.065094523747811
 20
0.2476926396197279
 30
0.0
 11
-9.24999999815839
 21
0.2476926396197279
 31
0.0
  0
LINE
  5
4A2
330
75
100
AcDbEntity
  8
GRUNDRISS
  6
Continuous
100
AcDbLine
 10
-9.39999999815846
 20
0.2476926396197279
 30
0.0
 11
-9.476459950580178
 21
0.2476926396197395
 31
0.0
  0
LINE
  5
4A3
330
75
100
AcDbEntity
  8
GRUNDRISS
  6
Continuous
100
AcDbLine
 10
-11.48761181940537
 20
0.2476926396197395
 30
0.0
 11
-14.26617215093689
 21
0.2476926396197395
 31
0.0
  0
LINE
  5
4A4
330
75
100
AcDbEntity
  8
GRUNDRISS
  6
Continuous
100
AcDbLine
 10
-14.14617215093447
 20
0.0976926396196696
 30
0.0
 11
-11.48761181940537
 21
0.0976926396196696
 31
0.0
  0
LINE
  5
4A5
330
75
100
AcDbEntity
  8
GRUNDRISS
  6
Continuous
100
AcDbLine
 10
-9.476459950580178
 20
0.0976926396196696
 30
0.0
 11
-7.915094523747741
 21
0.0976926396196581
 31
0.0
  0
LINE
  5
4A6
330
75
100
AcDbEntity
  8
GRUNDRISS
  6
Continuous
100
AcDbLine
 10
-11.48761181940537
 20
0.2476926396197395
 30
0.0
 11
-11.48761181940537
 21
0.0976926396196696
 31
0.0
  0
LINE
  5
4A7
330
75
100
AcDbEntity
  8
GRUNDRISS
  6
Continuous
100
AcDbLine
 10
-14.14617215093447
 20
-1.100236983037531
 30
0.0
 11
-14.14617215093447
 21
0.0976926396196696
 31
0.0
  0
LINE
  5
4A8
330
75
100
AcDbEntity
  8
GRUNDRISS
  6
Continuous
100
AcDbLine
 10
-14.26617215093689
 20
0.2476926396197395
 30
0.0
 11
-14.26617215093689
 21
-0.9802369830380669
 31
0.0
  0
LINE
  5
4A9
330
75
100
AcDbEntity
  8
GRUNDRISS
  6
Continuous
100
AcDbLine
 10
-14.46999999816023
 20
-15.01494319186693
 30
0.0
 11
-14.46999999816023
 21
-1.100236983037531
 31
0.0
  0
LINE
  5
4AA
330
75
100
AcDbEntity
  8
GRUNDRISS
  6
Continuous
100
AcDbLine
 10
-14.46999999816023
 20
-0.9802369830380669
 30
0.0
 11
-14.46999999816023
 21
4.68954076666734
 31
0.0
  0
LINE
  5
4AB
330
75
100
AcDbEntity
  8
GRUNDRISS
  6
Continuous
100
AcDbLine
 10
-14.26617215093689
 20
-0.9802369830380669
 30
0.0
 11
-14.46999999816023
 21
-0.9802369830380669
 31
0.0
  0
LINE
  5
4AC
330
75
100
AcDbEntity
  8
GRUNDRISS
  6
Continuous
100
AcDbLine
 10
-14.46999999816023
 20
-1.100236983037531
 30
0.0
 11
-14.14617215093447
 21
-1.100236983037531
 31
0.0
  0
LINE
  5
4AD
330
75
100
AcDbEntity
  8
GRUNDRISS
  6
Continuous
100
AcDbLine
 10
-9.24999999815839
 20
4.68954076666734
 30
0.0
 11
-8.065094523747811
 21
4.68954076666734
 31
0.0
  0
LINE
  5
4AE
330
75
100
AcDbEntity
  8
GRUNDRISS
  6
Continuous
100
AcDbLine
 10
-7.915094523747741
 20
4.68954076666734
 30
0.0
 11
-7.819999998160088
 21
4.68954076666734
 31
0.0
  0
LINE
  5
4AF
330
75
100
AcDbEntity
  8
GRUNDRISS
  6
Continuous
100
AcDbLine
 10
-14.55566514727644
 20
1.206439862234633
 30
0.0
 11
-14.55566514727644
 21
3.184815355467236
 31
0.0
  0
LINE
  5
4B0
330
75
100
AcDbEntity
  8
GRUNDRISS
  6
Continuous
100
AcDbLine
 10
-14.76999999816037
 20
-15.01494319186693
 30
0.0
 11
-14.76999999816037
 21
-6.650459233330843
 31
0.0
  0
LINE
  5
4B1
330
75
100
AcDbEntity
  8
GRUNDRISS
  6
Continuous
100
AcDbLine
 10
-14.76999999816037
 20
-28.80045923333229
 30
0.0
 11
-14.76999999816037
 21
-20.01854818369761
 31
0.0
  0
LINE
  5
4B2
330
75
100
AcDbEntity
  8
GRUNDRISS
  6
Continuous
100
AcDbLine
 10
-14.5899999981597
 20
-20.01604818369805
 30
0.0
 11
-14.5899999981597
 21
-15.01744319186649
 31
0.0
  0
LINE
  5
4B3
330
75
100
AcDbEntity
  8
GRUNDRISS
  6
Continuous
100
AcDbLine
 10
-9.476459950580178
 20
0.2476926396197395
 30
0.0
 11
-11.48761181940537
 21
0.2476926396197395
 31
0.0
  0
LINE
  5
4B4
330
75
100
AcDbEntity
  8
GRUNDRISS
  6
Continuous
100
AcDbLine
 10
-9.476459950580178
 20
0.168238817305831
 30
0.0
 11
-11.48761181940537
 21
0.168238817305831
 31
0.0
  0
LINE
  5
4B6
102
{ACAD_REACTORS
330
4B5
102
}
330
75
100
AcDbEntity
  8
GRUNDRISS
  6
Continuous
100
AcDbLine
 10
-9.855914396242583
 20
0.0870783642730652
 30
0.0
 11
-11.17425594670966
 21
0.0870783642730652
 31
0.0
  0
LINE
  5
4B7
102
{ACAD_REACTORS
330
4B5
102
}
330
75
100
AcDbEntity
  8
GRUNDRISS
  6
Continuous
100
AcDbLine
 10
-11.17425594670966
 20
0.0870783642730652
 30
0.0
 11
-11.07805264437743
 21
0.1442935562693695
 31
0.0
  0
LINE
  5
4B8
102
{ACAD_REACTORS
330
4B5
102
}
330
75
100
AcDbEntity
  8
GRUNDRISS
  6
Continuous
100
AcDbLine
 10
-11.17425594670966
 20
0.0870783642730652
 30
0.0
 11
-11.07805264437743
 21
0.0298631722770381
 31
0.0
  0
LINE
  5
4B9
102
{ACAD_REACTORS
330
4B5
102
}
330
75
100
AcDbEntity
  8
GRUNDRISS
  6
Continuous
100
AcDbLine
 10
-11.07805264437743
 20
0.0298631722770381
 30
0.0
 11
-11.07805264437743
 21
0.1442935562693695
 31
0.0
  0
LINE
  5
4BB
102
{ACAD_REACTORS
330
4BA
102
}
330
75
100
AcDbEntity
  8
GRUNDRISS
  6
Continuous
100
AcDbLine
 10
-14.75452252616255
 20
5.339048228195898
 30
0.0
 11
-14.75452252616255
 21
6.657389778662974
 31
0.0
  0
LINE
  5
4BC
102
{ACAD_REACTORS
330
4BA
102
}
330
75
100
AcDbEntity
  8
GRUNDRISS
  6
Continuous
100
AcDbLine
 10
-14.75452252616255
 20
6.657389778662974
 30
0.0
 11
-14.69730733416623
 21
6.561186476330751
 31
0.0
  0
LINE
  5
4BD
102
{ACAD_REACTORS
330
4BA
102
}
330
75
100
AcDbEntity
  8
GRUNDRISS
  6
Continuous
100
AcDbLine
 10
-14.75452252616255
 20
6.657389778662974
 30
0.0
 11
-14.81173771815856
 21
6.561186476330751
 31
0.0
  0
LINE
  5
4BE
102
{ACAD_REACTORS
330
4BA
102
}
330
75
100
AcDbEntity
  8
GRUNDRISS
  6
Continuous
100
AcDbLine
 10
-14.81173771815856
 20
6.561186476330751
 30
0.0
 11
-14.69730733416623
 21
6.561186476330751
 31
0.0
  0
LINE
  5
4C0
102
{ACAD_REACTORS
330
4BF
102
}
330
75
100
AcDbEntity
  8
HALLE_0_1_EG
  6
Continuous
100
AcDbLine
 10
-15.74035429419969
 20
-21.27027227580445
 30
0.0
 11
-15.74035429419969
 21
-21.60027227580444
 31
0.0
  0
LINE
  5
4C1
102
{ACAD_REACTORS
330
4BF
102
}
330
75
100
AcDbEntity
  8
HALLE_0_1_EG
  6
Continuous
100
AcDbLine
 10
-14.77035429419968
 20
-21.60027227580444
 30
0.0
 11
-15.74035429419969
 21
-21.60027227580444
 31
0.0
  0
LINE
  5
4C2
102
{ACAD_REACTORS
330
4BF
102
}
330
75
100
AcDbEntity
  8
HALLE_0_1_EG
  6
Continuous
100
AcDbLine
 10
-14.77035429419968
 20
-21.27027227580445
 30
0.0
 11
-15.74035429419969
 21
-21.27027227580445
 31
0.0
  0
LINE
  5
4C3
102
{ACAD_REACTORS
330
4BF
102
}
330
75
100
AcDbEntity
  8
HALLE_0_1_EG
  6
Continuous
100
AcDbLine
 10
-16.58035429419968
 20
-21.60027227580444
 30
0.0
 11
-19.2703542941997
 21
-21.60027227580444
 31
0.0
  0
LINE
  5
4C4
102
{ACAD_REACTORS
330
4BF
102
}
330
75
100
AcDbEntity
  8
HALLE_0_1_EG
  6
Continuous
100
AcDbLine
 10
-16.58035429419968
 20
-21.27027227580445
 30
0.0
 11
-19.60035429419971
 21
-21.27027227580445
 31
0.0
  0
LINE
  5
4C5
102
{ACAD_REACTORS
330
4BF
102
}
330
75
100
AcDbEntity
  8
HALLE_0_1_EG
  6
Continuous
100
AcDbLine
 10
-16.58035429419968
 20
-21.27027227580445
 30
0.0
 11
-16.58035429419968
 21
-21.60027227580444
 31
0.0
  0
LINE
  5
4C6
102
{ACAD_REACTORS
330
4BF
102
}
330
75
100
AcDbEntity
  8
HALLE_0_1_EG
  6
Continuous
100
AcDbLine
 10
-19.2703542941997
 20
-21.60027227580444
 30
0.0
 11
-19.2703542941997
 21
-28.94027227580444
 31
0.0
  0
LINE
  5
4C7
102
{ACAD_REACTORS
330
4BF
102
}
330
75
100
AcDbEntity
  8
HALLE_0_1_EG
  6
Continuous
100
AcDbLine
 10
-19.60035429419971
 20
-21.27027227580445
 30
0.0
 11
-19.60035429419971
 21
-29.27027227580444
 31
0.0
  0
LINE
  5
4C8
102
{ACAD_REACTORS
330
4BF
102
}
330
75
100
AcDbEntity
  8
HALLE_0_1_EG
  6
Continuous
100
AcDbLine
 10
-17.31035429419969
 20
-29.27027227580444
 30
0.0
 11
-17.31035429419969
 21
-28.94027227580444
 31
0.0
  0
LINE
  5
4C9
102
{ACAD_REACTORS
330
4BF
102
}
330
75
100
AcDbEntity
  8
HALLE_0_1_EG
  6
Continuous
100
AcDbLine
 10
-19.2703542941997
 20
-28.94027227580444
 30
0.0
 11
-17.31035429419969
 21
-28.94027227580444
 31
0.0
  0
LINE
  5
4CA
102
{ACAD_REACTORS
330
4BF
102
}
330
75
100
AcDbEntity
  8
HALLE_0_1_EG
  6
Continuous
100
AcDbLine
 10
-19.60035429419971
 20
-29.27027227580444
 30
0.0
 11
-17.31035429419969
 21
-29.27027227580444
 31
0.0
  0
LINE
  5
4CB
102
{ACAD_REACTORS
330
4BF
102
}
330
75
100
AcDbEntity
  8
HALLE_0_1_EG
  6
Continuous
100
AcDbLine
 10
-17.31035429419969
 20
-28.94027227580444
 30
0.0
 11
-16.04035429419969
 21
-28.94027227580444
 31
0.0
  0
LINE
  5
4CC
102
{ACAD_REACTORS
330
4BF
102
}
330
75
100
AcDbEntity
  8
HALLE_0_1_EG
  6
Continuous
100
AcDbLine
 10
-17.31035429419969
 20
-29.27027227580444
 30
0.0
 11
-16.04035429419969
 21
-29.27027227580444
 31
0.0
  0
LINE
  5
4CD
102
{ACAD_REACTORS
330
4BF
102
}
330
75
100
AcDbEntity
  8
HALLE_0_1_EG
  6
Continuous
100
AcDbLine
 10
-16.04035429419969
 20
-28.94027227580444
 30
0.0
 11
-14.77035429419968
 21
-28.94027227580444
 31
0.0
  0
LINE
  5
4CE
102
{ACAD_REACTORS
330
4BF
102
}
330
75
100
AcDbEntity
  8
HALLE_0_1_EG
  6
Continuous
100
AcDbLine
 10
-16.04035429419969
 20
-29.27027227580444
 30
0.0
 11
-14.77035429419968
 21
-29.27027227580445
 31
0.0
  0
LINE
  5
4CF
102
{ACAD_REACTORS
330
4BF
102
}
330
75
100
AcDbEntity
  8
HALLE_0_1_EG
  6
Continuous
100
AcDbLine
 10
-16.04035429419969
 20
-29.27027227580444
 30
0.0
 11
-16.04035429419969
 21
-28.94027227580444
 31
0.0
  0
ARC
  5
4D0
102
{ACAD_REACTORS
330
4BF
102
}
330
75
100
AcDbEntity
  8
HALLE_0_1_EG
  6
Continuous
100
AcDbCircle
 10
-15.74035429419969
 20
-21.27027227580445
 30
0.0
 40
0.84
100
AcDbArc
 50
90.0
 51
180.0
  0
LINE
  5
4D1
102
{ACAD_REACTORS
330
4BF
102
}
330
75
100
AcDbEntity
  8
HALLE_0_1_EG
  6
Continuous
100
AcDbLine
 10
-15.74035429419969
 20
-21.27027227580445
 30
0.0
 11
-15.74035429419969
 21
-20.43027227580445
 31
0.0
  0
ARC
  5
4D2
102
{ACAD_REACTORS
330
4BF
102
}
330
75
100
AcDbEntity
  8
HALLE_0_1_EG
  6
Continuous
100
AcDbCircle
 10
-16.04035429419969
 20
-29.27027227580444
 30
0.0
 40
1.27
100
AcDbArc
 50
180.0
 51
270.0
  0
LINE
  5
4D3
102
{ACAD_REACTORS
330
4BF
102
}
330
75
100
AcDbEntity
  8
HALLE_0_1_EG
  6
Continuous
100
AcDbLine
 10
-16.04035429419969
 20
-29.27027227580444
 30
0.0
 11
-16.04035429419969
 21
-30.54027227580443
 31
0.0
  0
LINE
  5
4D4
102
{ACAD_REACTORS
330
4BF
102
}
330
75
100
AcDbEntity
  8
HALLE_0_1_EG
  6
Continuous
100
AcDbLine
 10
-15.37035429419969
 20
-33.56027227580444
 30
0.0
 11
-15.37035429419969
 21
-30.44027227580445
 31
0.0
  0
LINE
  5
4D5
102
{ACAD_REACTORS
330
4BF
102
}
330
75
100
AcDbEntity
  8
HALLE_0_1_EG
  6
Continuous
100
AcDbLine
 10
-15.37035429419969
 20
-30.44027227580445
 30
0.0
 11
-15.97035429419969
 21
-30.70027227580443
 31
0.0
  0
LINE
  5
4D6
102
{ACAD_REACTORS
330
4BF
102
}
330
75
100
AcDbEntity
  8
HALLE_0_1_EG
  6
Continuous
100
AcDbLine
 10
-15.37035429419969
 20
-30.44027227580445
 30
0.0
 11
-14.77035429419968
 21
-30.70027227580445
 31
0.0
  0
LINE
  5
4D7
102
{ACAD_REACTORS
330
4BF
102
}
330
75
100
AcDbEntity
  8
HALLE_0_1_EG
  6
Continuous
100
AcDbLine
 10
-16.69035429419969
 20
-31.74027227580444
 30
0.0
 11
-16.69035429419969
 21
-33.56027227580444
 31
0.0
  0
LINE
  5
4D8
102
{ACAD_REACTORS
330
4BF
102
}
330
75
100
AcDbEntity
  8
HALLE_0_1_EG
  6
Continuous
100
AcDbLine
 10
-16.69035429419969
 20
-33.56027227580444
 30
0.0
 11
-16.09035429419969
 21
-33.30027227580445
 31
0.0
  0
LINE
  5
4D9
102
{ACAD_REACTORS
330
4BF
102
}
330
75
100
AcDbEntity
  8
HALLE_0_1_EG
  6
Continuous
100
AcDbLine
 10
-16.69035429419969
 20
-33.56027227580444
 30
0.0
 11
-17.29035429419969
 21
-33.30027227580445
 31
0.0
  0
LINE
  5
4DA
102
{ACAD_REACTORS
330
4BF
102
}
330
75
100
AcDbEntity
  8
HALLE_0_1_EG
  6
Continuous
100
AcDbLine
 10
-15.74035429419969
 20
-21.60027227580444
 30
0.0
 11
-16.58035429419968
 21
-21.60027227580444
 31
0.0
  0
LINE
  5
4DB
102
{ACAD_REACTORS
330
4BF
102
}
330
75
100
AcDbEntity
  8
HALLE_0_1_EG
  6
Continuous
100
AcDbLine
 10
-16.58035429419968
 20
-21.60027227580444
 30
0.0
 11
-16.58035429419968
 21
-21.27027227580445
 31
0.0
  0
LINE
  5
4DC
102
{ACAD_REACTORS
330
4BF
102
}
330
75
100
AcDbEntity
  8
HALLE_0_1_EG
  6
Continuous
100
AcDbLine
 10
-16.58035429419968
 20
-21.27027227580445
 30
0.0
 11
-15.74035429419969
 21
-21.27027227580445
 31
0.0
  0
LINE
  5
4DD
102
{ACAD_REACTORS
330
4BF
102
}
330
75
100
AcDbEntity
  8
HALLE_0_1_EG
  6
Continuous
100
AcDbLine
 10
-15.74035429419969
 20
-21.27027227580445
 30
0.0
 11
-15.74035429419969
 21
-21.60027227580444
 31
0.0
  0
LINE
  5
4DE
102
{ACAD_REACTORS
330
4BF
102
}
330
75
100
AcDbEntity
  8
HALLE_0_1_EG
  6
Continuous
100
AcDbLine
 10
-14.77035429419968
 20
-34.76027227580445
 30
0.0
 11
-17.29035429419969
 21
-34.76027227580445
 31
0.0
  0
LINE
  5
4DF
102
{ACAD_REACTORS
330
4BF
102
}
330
75
100
AcDbEntity
  8
HALLE_0_1_EG
  6
Continuous
100
AcDbLine
 10
-17.29035429419969
 20
-34.76027227580445
 30
0.0
 11
-17.29035429419969
 21
-30.54027227580443
 31
0.0
  0
LINE
  5
4E0
102
{ACAD_REACTORS
330
4BF
102
}
330
75
100
AcDbEntity
  8
HALLE_0_1_EG
  6
Continuous
100
AcDbLine
 10
-17.29035429419969
 20
-30.54027227580443
 30
0.0
 11
-14.77035429419968
 21
-30.54027227580445
 31
0.0
  0
LINE
  5
4E1
102
{ACAD_REACTORS
330
4BF
102
}
330
75
100
AcDbEntity
  8
HALLE_0_1_EG
  6
Continuous
100
AcDbLine
 10
-14.77035429419968
 20
-30.34027227580445
 30
0.0
 11
-17.49035429419969
 21
-30.34027227580443
 31
0.0
  0
LINE
  5
4E2
102
{ACAD_REACTORS
330
4BF
102
}
330
75
100
AcDbEntity
  8
HALLE_0_1_EG
  6
Continuous
100
AcDbLine
 10
-17.49035429419969
 20
-30.34027227580443
 30
0.0
 11
-17.49035429419969
 21
-35.01027227580445
 31
0.0
  0
LINE
  5
4E3
102
{ACAD_REACTORS
330
4BF
102
}
330
75
100
AcDbEntity
  8
HALLE_0_1_EG
  6
Continuous
100
AcDbLine
 10
-17.49035429419969
 20
-35.01027227580445
 30
0.0
 11
-14.77035429419968
 21
-35.01027227580445
 31
0.0
  0
LINE
  5
4E4
102
{ACAD_REACTORS
330
4BF
102
}
330
75
100
AcDbEntity
  8
HALLE_0_1_EG
  6
Continuous
100
AcDbLine
 10
-16.09035429419969
 20
-33.56027227580444
 30
0.0
 11
-17.29035429419969
 21
-33.56027227580444
 31
0.0
  0
LINE
  5
4E5
102
{ACAD_REACTORS
330
4BF
102
}
330
75
100
AcDbEntity
  8
HALLE_0_1_EG
  6
Continuous
100
AcDbLine
 10
-17.29035429419969
 20
-33.56027227580444
 30
0.0
 11
-17.29035429419969
 21
-33.30027227580445
 31
0.0
  0
LINE
  5
4E6
102
{ACAD_REACTORS
330
4BF
102
}
330
75
100
AcDbEntity
  8
HALLE_0_1_EG
  6
Continuous
100
AcDbLine
 10
-17.29035429419969
 20
-33.30027227580445
 30
0.0
 11
-16.09035429419969
 21
-33.30027227580445
 31
0.0
  0
LINE
  5
4E7
102
{ACAD_REACTORS
330
4BF
102
}
330
75
100
AcDbEntity
  8
HALLE_0_1_EG
  6
Continuous
100
AcDbLine
 10
-16.09035429419969
 20
-33.30027227580445
 30
0.0
 11
-16.09035429419969
 21
-33.56027227580444
 31
0.0
  0
LINE
  5
4E8
102
{ACAD_REACTORS
330
4BF
102
}
330
75
100
AcDbEntity
  8
HALLE_0_1_EG
  6
Continuous
100
AcDbLine
 10
-16.09035429419969
 20
-33.30027227580445
 30
0.0
 11
-17.29035429419969
 21
-33.30027227580445
 31
0.0
  0
LINE
  5
4E9
102
{ACAD_REACTORS
330
4BF
102
}
330
75
100
AcDbEntity
  8
HALLE_0_1_EG
  6
Continuous
100
AcDbLine
 10
-17.29035429419969
 20
-33.30027227580445
 30
0.0
 11
-17.29035429419969
 21
-33.04027227580443
 31
0.0
  0
LINE
  5
4EA
102
{ACAD_REACTORS
330
4BF
102
}
330
75
100
AcDbEntity
  8
HALLE_0_1_EG
  6
Continuous
100
AcDbLine
 10
-17.29035429419969
 20
-33.04027227580443
 30
0.0
 11
-16.09035429419969
 21
-33.04027227580444
 31
0.0
  0
LINE
  5
4EB
102
{ACAD_REACTORS
330
4BF
102
}
330
75
100
AcDbEntity
  8
HALLE_0_1_EG
  6
Continuous
100
AcDbLine
 10
-16.09035429419969
 20
-33.04027227580444
 30
0.0
 11
-16.09035429419969
 21
-33.30027227580445
 31
0.0
  0
LINE
  5
4EC
102
{ACAD_REACTORS
330
4BF
102
}
330
75
100
AcDbEntity
  8
HALLE_0_1_EG
  6
Continuous
100
AcDbLine
 10
-16.09035429419969
 20
-33.04027227580444
 30
0.0
 11
-17.29035429419969
 21
-33.04027227580443
 31
0.0
  0
LINE
  5
4ED
102
{ACAD_REACTORS
330
4BF
102
}
330
75
100
AcDbEntity
  8
HALLE_0_1_EG
  6
Continuous
100
AcDbLine
 10
-17.29035429419969
 20
-33.04027227580443
 30
0.0
 11
-17.29035429419969
 21
-32.78027227580444
 31
0.0
  0
LINE
  5
4EE
102
{ACAD_REACTORS
330
4BF
102
}
330
75
100
AcDbEntity
  8
HALLE_0_1_EG
  6
Continuous
100
AcDbLine
 10
-17.29035429419969
 20
-32.78027227580444
 30
0.0
 11
-16.09035429419969
 21
-32.78027227580444
 31
0.0
  0
LINE
  5
4EF
102
{ACAD_REACTORS
330
4BF
102
}
330
75
100
AcDbEntity
  8
HALLE_0_1_EG
  6
Continuous
100
AcDbLine
 10
-16.09035429419969
 20
-32.78027227580444
 30
0.0
 11
-16.09035429419969
 21
-33.04027227580444
 31
0.0
  0
LINE
  5
4F0
102
{ACAD_REACTORS
330
4BF
102
}
330
75
100
AcDbEntity
  8
HALLE_0_1_EG
  6
Continuous
100
AcDbLine
 10
-16.09035429419969
 20
-32.78027227580444
 30
0.0
 11
-17.29035429419969
 21
-32.78027227580444
 31
0.0
  0
LINE
  5
4F1
102
{ACAD_REACTORS
330
4BF
102
}
330
75
100
AcDbEntity
  8
HALLE_0_1_EG
  6
Continuous
100
AcDbLine
 10
-17.29035429419969
 20
-32.78027227580444
 30
0.0
 11
-17.29035429419969
 21
-32.52027227580444
 31
0.0
  0
LINE
  5
4F2
102
{ACAD_REACTORS
330
4BF
102
}
330
75
100
AcDbEntity
  8
HALLE_0_1_EG
  6
Continuous
100
AcDbLine
 10
-17.29035429419969
 20
-32.52027227580444
 30
0.0
 11
-16.09035429419969
 21
-32.52027227580445
 31
0.0
  0
LINE
  5
4F3
102
{ACAD_REACTORS
330
4BF
102
}
330
75
100
AcDbEntity
  8
HALLE_0_1_EG
  6
Continuous
100
AcDbLine
 10
-16.09035429419969
 20
-32.52027227580445
 30
0.0
 11
-16.09035429419969
 21
-32.78027227580444
 31
0.0
  0
LINE
  5
4F4
102
{ACAD_REACTORS
330
4BF
102
}
330
75
100
AcDbEntity
  8
HALLE_0_1_EG
  6
Continuous
100
AcDbLine
 10
-16.09035429419969
 20
-32.52027227580445
 30
0.0
 11
-17.29035429419969
 21
-32.52027227580444
 31
0.0
  0
LINE
  5
4F5
102
{ACAD_REACTORS
330
4BF
102
}
330
75
100
AcDbEntity
  8
HALLE_0_1_EG
  6
Continuous
100
AcDbLine
 10
-17.29035429419969
 20
-32.52027227580444
 30
0.0
 11
-17.29035429419969
 21
-32.26027227580444
 31
0.0
  0
LINE
  5
4F6
102
{ACAD_REACTORS
330
4BF
102
}
330
75
100
AcDbEntity
  8
HALLE_0_1_EG
  6
Continuous
100
AcDbLine
 10
-17.29035429419969
 20
-32.26027227580444
 30
0.0
 11
-16.09035429419969
 21
-32.26027227580445
 31
0.0
  0
LINE
  5
4F7
102
{ACAD_REACTORS
330
4BF
102
}
330
75
100
AcDbEntity
  8
HALLE_0_1_EG
  6
Continuous
100
AcDbLine
 10
-16.09035429419969
 20
-32.26027227580445
 30
0.0
 11
-16.09035429419969
 21
-32.52027227580445
 31
0.0
  0
LINE
  5
4F8
102
{ACAD_REACTORS
330
4BF
102
}
330
75
100
AcDbEntity
  8
HALLE_0_1_EG
  6
Continuous
100
AcDbLine
 10
-16.09035429419969
 20
-32.26027227580445
 30
0.0
 11
-17.29035429419969
 21
-32.26027227580444
 31
0.0
  0
LINE
  5
4F9
102
{ACAD_REACTORS
330
4BF
102
}
330
75
100
AcDbEntity
  8
HALLE_0_1_EG
  6
Continuous
100
AcDbLine
 10
-17.29035429419969
 20
-32.26027227580444
 30
0.0
 11
-17.29035429419969
 21
-32.00027227580444
 31
0.0
  0
LINE
  5
4FA
102
{ACAD_REACTORS
330
4BF
102
}
330
75
100
AcDbEntity
  8
HALLE_0_1_EG
  6
Continuous
100
AcDbLine
 10
-17.29035429419969
 20
-32.00027227580444
 30
0.0
 11
-16.09035429419969
 21
-32.00027227580444
 31
0.0
  0
LINE
  5
4FB
102
{ACAD_REACTORS
330
4BF
102
}
330
75
100
AcDbEntity
  8
HALLE_0_1_EG
  6
Continuous
100
AcDbLine
 10
-16.09035429419969
 20
-32.00027227580444
 30
0.0
 11
-16.09035429419969
 21
-32.26027227580445
 31
0.0
  0
LINE
  5
4FC
102
{ACAD_REACTORS
330
4BF
102
}
330
75
100
AcDbEntity
  8
HALLE_0_1_EG
  6
Continuous
100
AcDbLine
 10
-16.09035429419969
 20
-32.00027227580444
 30
0.0
 11
-17.29035429419969
 21
-32.00027227580444
 31
0.0
  0
LINE
  5
4FD
102
{ACAD_REACTORS
330
4BF
102
}
330
75
100
AcDbEntity
  8
HALLE_0_1_EG
  6
Continuous
100
AcDbLine
 10
-17.29035429419969
 20
-32.00027227580444
 30
0.0
 11
-17.29035429419969
 21
-31.74027227580444
 31
0.0
  0
LINE
  5
4FE
102
{ACAD_REACTORS
330
4BF
102
}
330
75
100
AcDbEntity
  8
HALLE_0_1_EG
  6
Continuous
100
AcDbLine
 10
-17.29035429419969
 20
-31.74027227580444
 30
0.0
 11
-16.09035429419969
 21
-31.74027227580444
 31
0.0
  0
LINE
  5
4FF
102
{ACAD_REACTORS
330
4BF
102
}
330
75
100
AcDbEntity
  8
HALLE_0_1_EG
  6
Continuous
100
AcDbLine
 10
-16.09035429419969
 20
-31.74027227580444
 30
0.0
 11
-16.09035429419969
 21
-32.00027227580444
 31
0.0
  0
LINE
  5
500
102
{ACAD_REACTORS
330
4BF
102
}
330
75
100
AcDbEntity
  8
HALLE_0_1_EG
  6
Continuous
100
AcDbLine
 10
-14.77035429419968
 20
-33.56027227580444
 30
0.0
 11
-15.97035429419969
 21
-33.56027227580444
 31
0.0
  0
LINE
  5
501
102
{ACAD_REACTORS
330
4BF
102
}
330
75
100
AcDbEntity
  8
HALLE_0_1_EG
  6
Continuous
100
AcDbLine
 10
-15.97035429419969
 20
-33.56027227580444
 30
0.0
 11
-15.97035429419969
 21
-33.30027227580445
 31
0.0
  0
LINE
  5
502
102
{ACAD_REACTORS
330
4BF
102
}
330
75
100
AcDbEntity
  8
HALLE_0_1_EG
  6
Continuous
100
AcDbLine
 10
-15.97035429419969
 20
-33.30027227580445
 30
0.0
 11
-14.77035429419968
 21
-33.30027227580445
 31
0.0
  0
LINE
  5
503
102
{ACAD_REACTORS
330
4BF
102
}
330
75
100
AcDbEntity
  8
HALLE_0_1_EG
  6
Continuous
100
AcDbLine
 10
-14.77035429419968
 20
-33.30027227580445
 30
0.0
 11
-15.97035429419969
 21
-33.30027227580445
 31
0.0
  0
LINE
  5
504
102
{ACAD_REACTORS
330
4BF
102
}
330
75
100
AcDbEntity
  8
HALLE_0_1_EG
  6
Continuous
100
AcDbLine
 10
-15.97035429419969
 20
-33.30027227580445
 30
0.0
 11
-15.97035429419969
 21
-33.04027227580444
 31
0.0
  0
LINE
  5
505
102
{ACAD_REACTORS
330
4BF
102
}
330
75
100
AcDbEntity
  8
HALLE_0_1_EG
  6
Continuous
100
AcDbLine
 10
-15.97035429419969
 20
-33.04027227580444
 30
0.0
 11
-14.77035429419968
 21
-33.04027227580444
 31
0.0
  0
LINE
  5
506
102
{ACAD_REACTORS
330
4BF
102
}
330
75
100
AcDbEntity
  8
HALLE_0_1_EG
  6
Continuous
100
AcDbLine
 10
-14.77035429419968
 20
-33.04027227580444
 30
0.0
 11
-15.97035429419969
 21
-33.04027227580444
 31
0.0
  0
LINE
  5
507
102
{ACAD_REACTORS
330
4BF
102
}
330
75
100
AcDbEntity
  8
HALLE_0_1_EG
  6
Continuous
100
AcDbLine
 10
-15.97035429419969
 20
-33.04027227580444
 30
0.0
 11
-15.97035429419969
 21
-32.78027227580444
 31
0.0
  0
LINE
  5
508
102
{ACAD_REACTORS
330
4BF
102
}
330
75
100
AcDbEntity
  8
HALLE_0_1_EG
  6
Continuous
100
AcDbLine
 10
-15.97035429419969
 20
-32.78027227580444
 30
0.0
 11
-14.77035429419968
 21
-32.78027227580444
 31
0.0
  0
LINE
  5
509
102
{ACAD_REACTORS
330
4BF
102
}
330
75
100
AcDbEntity
  8
HALLE_0_1_EG
  6
Continuous
100
AcDbLine
 10
-14.77035429419968
 20
-32.78027227580444
 30
0.0
 11
-15.97035429419969
 21
-32.78027227580444
 31
0.0
  0
LINE
  5
50A
102
{ACAD_REACTORS
330
4BF
102
}
330
75
100
AcDbEntity
  8
HALLE_0_1_EG
  6
Continuous
100
AcDbLine
 10
-15.97035429419969
 20
-32.78027227580444
 30
0.0
 11
-15.97035429419969
 21
-32.52027227580445
 31
0.0
  0
LINE
  5
50B
102
{ACAD_REACTORS
330
4BF
102
}
330
75
100
AcDbEntity
  8
HALLE_0_1_EG
  6
Continuous
100
AcDbLine
 10
-15.97035429419969
 20
-32.52027227580445
 30
0.0
 11
-14.77035429419968
 21
-32.52027227580445
 31
0.0
  0
LINE
  5
50C
102
{ACAD_REACTORS
330
4BF
102
}
330
75
100
AcDbEntity
  8
HALLE_0_1_EG
  6
Continuous
100
AcDbLine
 10
-14.77035429419968
 20
-32.52027227580445
 30
0.0
 11
-15.97035429419969
 21
-32.52027227580445
 31
0.0
  0
LINE
  5
50D
102
{ACAD_REACTORS
330
4BF
102
}
330
75
100
AcDbEntity
  8
HALLE_0_1_EG
  6
Continuous
100
AcDbLine
 10
-15.97035429419969
 20
-32.52027227580445
 30
0.0
 11
-15.97035429419969
 21
-32.26027227580445
 31
0.0
  0
LINE
  5
50E
102
{ACAD_REACTORS
330
4BF
102
}
330
75
100
AcDbEntity
  8
HALLE_0_1_EG
  6
Continuous
100
AcDbLine
 10
-15.97035429419969
 20
-32.26027227580445
 30
0.0
 11
-14.77035429419968
 21
-32.26027227580445
 31
0.0
  0
LINE
  5
50F
102
{ACAD_REACTORS
330
4BF
102
}
330
75
100
AcDbEntity
  8
HALLE_0_1_EG
  6
Continuous
100
AcDbLine
 10
-14.77035429419968
 20
-32.26027227580445
 30
0.0
 11
-15.97035429419969
 21
-32.26027227580445
 31
0.0
  0
LINE
  5
510
102
{ACAD_REACTORS
330
4BF
102
}
330
75
100
AcDbEntity
  8
HALLE_0_1_EG
  6
Continuous
100
AcDbLine
 10
-15.97035429419969
 20
-32.26027227580445
 30
0.0
 11
-15.97035429419969
 21
-32.00027227580444
 31
0.0
  0
LINE
  5
511
102
{ACAD_REACTORS
330
4BF
102
}
330
75
100
AcDbEntity
  8
HALLE_0_1_EG
  6
Continuous
100
AcDbLine
 10
-15.97035429419969
 20
-32.00027227580444
 30
0.0
 11
-14.77035429419968
 21
-32.00027227580444
 31
0.0
  0
LINE
  5
512
102
{ACAD_REACTORS
330
4BF
102
}
330
75
100
AcDbEntity
  8
HALLE_0_1_EG
  6
Continuous
100
AcDbLine
 10
-14.77035429419968
 20
-32.00027227580444
 30
0.0
 11
-15.97035429419969
 21
-32.00027227580444
 31
0.0
  0
LINE
  5
513
102
{ACAD_REACTORS
330
4BF
102
}
330
75
100
AcDbEntity
  8
HALLE_0_1_EG
  6
Continuous
100
AcDbLine
 10
-15.97035429419969
 20
-32.00027227580444
 30
0.0
 11
-15.97035429419969
 21
-31.74027227580444
 31
0.0
  0
LINE
  5
514
102
{ACAD_REACTORS
330
4BF
102
}
330
75
100
AcDbEntity
  8
HALLE_0_1_EG
  6
Continuous
100
AcDbLine
 10
-15.97035429419969
 20
-31.74027227580444
 30
0.0
 11
-14.77035429419968
 21
-31.74027227580444
 31
0.0
  0
LINE
  5
515
102
{ACAD_REACTORS
330
4BF
102
}
330
75
100
AcDbEntity
  8
HALLE_0_1_EG
  6
Continuous
100
AcDbLine
 10
-14.77035429419968
 20
-31.74027227580444
 30
0.0
 11
-15.97035429419969
 21
-31.74027227580444
 31
0.0
  0
LINE
  5
516
102
{ACAD_REACTORS
330
4BF
102
}
330
75
100
AcDbEntity
  8
HALLE_0_1_EG
  6
Continuous
100
AcDbLine
 10
-15.97035429419969
 20
-31.74027227580444
 30
0.0
 11
-15.97035429419969
 21
-31.48027227580444
 31
0.0
  0
LINE
  5
517
102
{ACAD_REACTORS
330
4BF
102
}
330
75
100
AcDbEntity
  8
HALLE_0_1_EG
  6
Continuous
100
AcDbLine
 10
-15.97035429419969
 20
-31.48027227580444
 30
0.0
 11
-14.77035429419968
 21
-31.48027227580444
 31
0.0
  0
LINE
  5
518
102
{ACAD_REACTORS
330
4BF
102
}
330
75
100
AcDbEntity
  8
HALLE_0_1_EG
  6
Continuous
100
AcDbLine
 10
-14.77035429419968
 20
-31.48027227580444
 30
0.0
 11
-15.97035429419969
 21
-31.48027227580444
 31
0.0
  0
LINE
  5
519
102
{ACAD_REACTORS
330
4BF
102
}
330
75
100
AcDbEntity
  8
HALLE_0_1_EG
  6
Continuous
100
AcDbLine
 10
-15.97035429419969
 20
-31.48027227580444
 30
0.0
 11
-15.97035429419969
 21
-31.22027227580444
 31
0.0
  0
LINE
  5
51A
102
{ACAD_REACTORS
330
4BF
102
}
330
75
100
AcDbEntity
  8
HALLE_0_1_EG
  6
Continuous
100
AcDbLine
 10
-15.97035429419969
 20
-31.22027227580444
 30
0.0
 11
-14.77035429419968
 21
-31.22027227580444
 31
0.0
  0
LINE
  5
51B
102
{ACAD_REACTORS
330
4BF
102
}
330
75
100
AcDbEntity
  8
HALLE_0_1_EG
  6
Continuous
100
AcDbLine
 10
-14.77035429419968
 20
-31.22027227580444
 30
0.0
 11
-15.97035429419969
 21
-31.22027227580444
 31
0.0
  0
LINE
  5
51C
102
{ACAD_REACTORS
330
4BF
102
}
330
75
100
AcDbEntity
  8
HALLE_0_1_EG
  6
Continuous
100
AcDbLine
 10
-15.97035429419969
 20
-31.22027227580444
 30
0.0
 11
-15.97035429419969
 21
-30.96027227580443
 31
0.0
  0
LINE
  5
51D
102
{ACAD_REACTORS
330
4BF
102
}
330
75
100
AcDbEntity
  8
HALLE_0_1_EG
  6
Continuous
100
AcDbLine
 10
-15.97035429419969
 20
-30.96027227580443
 30
0.0
 11
-14.77035429419968
 21
-30.96027227580445
 31
0.0
  0
LINE
  5
51E
102
{ACAD_REACTORS
330
4BF
102
}
330
75
100
AcDbEntity
  8
HALLE_0_1_EG
  6
Continuous
100
AcDbLine
 10
-14.77035429419968
 20
-30.96027227580445
 30
0.0
 11
-15.97035429419969
 21
-30.96027227580443
 31
0.0
  0
LINE
  5
51F
102
{ACAD_REACTORS
330
4BF
102
}
330
75
100
AcDbEntity
  8
HALLE_0_1_EG
  6
Continuous
100
AcDbLine
 10
-15.97035429419969
 20
-30.96027227580443
 30
0.0
 11
-15.97035429419969
 21
-30.70027227580443
 31
0.0
  0
LINE
  5
520
102
{ACAD_REACTORS
330
4BF
102
}
330
75
100
AcDbEntity
  8
HALLE_0_1_EG
  6
Continuous
100
AcDbLine
 10
-15.97035429419969
 20
-30.70027227580443
 30
0.0
 11
-14.77035429419968
 21
-30.70027227580445
 31
0.0
  0
LINE
  5
521
102
{ACAD_REACTORS
330
4BF
102
}
330
75
100
AcDbEntity
  8
HALLE_0_1_EG
  6
Continuous
100
AcDbLine
 10
-14.77035429419968
 20
-30.70027227580445
 30
0.0
 11
-15.97035429419969
 21
-30.70027227580443
 31
0.0
  0
LINE
  5
522
102
{ACAD_REACTORS
330
4BF
102
}
330
75
100
AcDbEntity
  8
HALLE_0_1_EG
  6
Continuous
100
AcDbLine
 10
-15.97035429419969
 20
-30.70027227580443
 30
0.0
 11
-15.97035429419969
 21
-30.44027227580444
 31
0.0
  0
LINE
  5
523
102
{ACAD_REACTORS
330
4BF
102
}
330
75
100
AcDbEntity
  8
HALLE_0_1_EG
  6
Continuous
100
AcDbLine
 10
-15.97035429419969
 20
-30.44027227580444
 30
0.0
 11
-14.77035429419968
 21
-30.44027227580445
 31
0.0
  0
LINE
  5
524
102
{ACAD_REACTORS
330
4BF
102
}
330
75
100
AcDbEntity
  8
HALLE_0_1_EG
  6
Continuous
100
AcDbLine
 10
-14.77035429419968
 20
-33.61027227580444
 30
0.0
 11
-16.02035429419969
 21
-33.61027227580444
 31
0.0
  0
LINE
  5
525
102
{ACAD_REACTORS
330
4BF
102
}
330
75
100
AcDbEntity
  8
HALLE_0_1_EG
  6
Continuous
100
AcDbLine
 10
-16.02035429419969
 20
-33.61027227580444
 30
0.0
 11
-16.02035429419969
 21
-30.44027227580444
 31
0.0
  0
LINE
  5
526
102
{ACAD_REACTORS
330
4BF
102
}
330
75
100
AcDbEntity
  8
HALLE_0_1_EG
  6
Continuous
100
AcDbLine
 10
-16.02035429419969
 20
-30.44027227580444
 30
0.0
 11
-14.77035429419968
 21
-30.44027227580445
 31
0.0
  0
LINE
  5
528
102
{ACAD_REACTORS
330
527
102
}
330
75
100
AcDbEntity
  8
GRUNDRISS
  6
Continuous
100
AcDbLine
 10
-14.75452252616225
 20
2.854798384084472
 30
0.0
 11
-14.75452252616225
 21
1.536456833617397
 31
0.0
  0
LINE
  5
529
102
{ACAD_REACTORS
330
527
102
}
330
75
100
AcDbEntity
  8
GRUNDRISS
  6
Continuous
100
AcDbLine
 10
-14.75452252616225
 20
1.536456833617397
 30
0.0
 11
-14.81173771815856
 21
1.632660135949619
 31
0.0
  0
LINE
  5
52A
102
{ACAD_REACTORS
330
527
102
}
330
75
100
AcDbEntity
  8
GRUNDRISS
  6
Continuous
100
AcDbLine
 10
-14.75452252616225
 20
1.536456833617397
 30
0.0
 11
-14.69730733416623
 21
1.632660135949619
 31
0.0
  0
LINE
  5
52B
102
{ACAD_REACTORS
330
527
102
}
330
75
100
AcDbEntity
  8
GRUNDRISS
  6
Continuous
100
AcDbLine
 10
-14.69730733416623
 20
1.632660135949619
 30
0.0
 11
-14.81173771815856
 21
1.632660135949619
 31
0.0
  0
LINE
  5
52D
102
{ACAD_REACTORS
330
52C
102
}
330
75
100
AcDbEntity
  8
GRUNDRISS
  6
Continuous
100
AcDbLine
 10
-13.95183628141908
 20
10.78965418076131
 30
0.0
 11
-12.63349473095201
 21
10.78965418076131
 31
0.0
  0
LINE
  5
52E
102
{ACAD_REACTORS
330
52C
102
}
330
75
100
AcDbEntity
  8
GRUNDRISS
  6
Continuous
100
AcDbLine
 10
-12.63349473095201
 20
10.78965418076131
 30
0.0
 11
-12.72969803328423
 21
10.732438988765
 31
0.0
  0
LINE
  5
52F
102
{ACAD_REACTORS
330
52C
102
}
330
75
100
AcDbEntity
  8
GRUNDRISS
  6
Continuous
100
AcDbLine
 10
-12.63349473095201
 20
10.78965418076131
 30
0.0
 11
-12.72969803328423
 21
10.84686937275733
 31
0.0
  0
LINE
  5
530
102
{ACAD_REACTORS
330
52C
102
}
330
75
100
AcDbEntity
  8
GRUNDRISS
  6
Continuous
100
AcDbLine
 10
-12.72969803328423
 20
10.84686937275733
 30
0.0
 11
-12.72969803328423
 21
10.732438988765
 31
0.0
  0
LINE
  5
531
330
75
100
AcDbEntity
  8
HALLE_0_1_EG
  6
Continuous
100
AcDbLine
 10
-14.58266550618554
 20
13.98954076388988
 30
0.0
 11
-14.58266550618554
 21
17.98954076388993
 31
0.0
  0
LINE
  5
533
102
{ACAD_REACTORS
330
532
102
}
330
75
100
AcDbEntity
  8
GRUNDRISS
  6
Continuous
100
AcDbLine
 10
-14.6692740730579
 20
16.30693898903713
 30
0.0
 11
-14.6692740730579
 21
17.6252805395042
 31
0.0
  0
LINE
  5
534
102
{ACAD_REACTORS
330
532
102
}
330
75
100
AcDbEntity
  8
GRUNDRISS
  6
Continuous
100
AcDbLine
 10
-14.6692740730579
 20
17.6252805395042
 30
0.0
 11
-14.61205888106158
 21
17.52907723717198
 31
0.0
  0
LINE
  5
535
102
{ACAD_REACTORS
330
532
102
}
330
75
100
AcDbEntity
  8
GRUNDRISS
  6
Continuous
100
AcDbLine
 10
-14.6692740730579
 20
17.6252805395042
 30
0.0
 11
-14.72648926505391
 21
17.52907723717198
 31
0.0
  0
LINE
  5
536
102
{ACAD_REACTORS
330
532
102
}
330
75
100
AcDbEntity
  8
GRUNDRISS
  6
Continuous
100
AcDbLine
 10
-14.72648926505391
 20
17.52907723717198
 30
0.0
 11
-14.61205888106158
 21
17.52907723717198
 31
0.0
  0
LINE
  5
538
102
{ACAD_REACTORS
330
537
102
}
330
75
100
AcDbEntity
  8
GRUNDRISS
  6
Continuous
100
AcDbLine
 10
-14.6692740730576
 20
15.69220984805494
 30
0.0
 11
-14.6692740730576
 21
14.37386829758787
 31
0.0
  0
LINE
  5
539
102
{ACAD_REACTORS
330
537
102
}
330
75
100
AcDbEntity
  8
GRUNDRISS
  6
Continuous
100
AcDbLine
 10
-14.6692740730576
 20
14.37386829758787
 30
0.0
 11
-14.72648926505392
 21
14.47007159992009
 31
0.0
  0
LINE
  5
53A
102
{ACAD_REACTORS
330
537
102
}
330
75
100
AcDbEntity
  8
GRUNDRISS
  6
Continuous
100
AcDbLine
 10
-14.6692740730576
 20
14.37386829758787
 30
0.0
 11
-14.61205888106159
 21
14.47007159992009
 31
0.0
  0
LINE
  5
53B
102
{ACAD_REACTORS
330
537
102
}
330
75
100
AcDbEntity
  8
GRUNDRISS
  6
Continuous
100
AcDbLine
 10
-14.61205888106159
 20
14.47007159992009
 30
0.0
 11
-14.72648926505392
 21
14.47007159992009
 31
0.0
  0
LINE
  5
53C
330
75
100
AcDbEntity
  8
HALLE_0_1_EG
  6
Continuous
100
AcDbLine
 10
-11.27956728316631
 20
24.9895407638899
 30
0.0
 11
-11.27956728316632
 21
24.66954076388991
 31
0.0
  0
LINE
  5
53D
330
75
100
AcDbEntity
  8
HALLE_0_1_EG
  6
Continuous
100
AcDbLine
 10
-11.28585901802494
 20
24.75582422926088
 30
0.0
 11
-13.39100000061302
 21
24.75582422926088
 31
0.0
  0
LINE
  5
53F
102
{ACAD_REACTORS
330
53E
102
}
330
75
100
AcDbEntity
  8
GRUNDRISS
  6
Continuous
100
AcDbLine
 10
-12.97359708430796
 20
24.85962233362827
 30
0.0
 11
-11.65525553384089
 21
24.85962233362827
 31
0.0
  0
LINE
  5
540
102
{ACAD_REACTORS
330
53E
102
}
330
75
100
AcDbEntity
  8
GRUNDRISS
  6
Continuous
100
AcDbLine
 10
-11.65525553384089
 20
24.85962233362827
 30
0.0
 11
-11.75145883617311
 21
24.80240714163196
 31
0.0
  0
LINE
  5
541
102
{ACAD_REACTORS
330
53E
102
}
330
75
100
AcDbEntity
  8
GRUNDRISS
  6
Continuous
100
AcDbLine
 10
-11.65525553384089
 20
24.85962233362827
 30
0.0
 11
-11.75145883617311
 21
24.91683752562429
 31
0.0
  0
LINE
  5
542
102
{ACAD_REACTORS
330
53E
102
}
330
75
100
AcDbEntity
  8
GRUNDRISS
  6
Continuous
100
AcDbLine
 10
-11.75145883617311
 20
24.91683752562429
 30
0.0
 11
-11.75145883617311
 21
24.80240714163196
 31
0.0
  0
LINE
  5
543
330
75
100
AcDbEntity
  8
UMRISS10
 62
     7
100
AcDbLine
 10
34.1493695132921
 20
23.01632279134645
 30
0.000000000254
 11
34.14936951329208
 21
24.66954076388986
 31
0.0
  0
LINE
  5
544
330
75
100
AcDbEntity
  8
UMRISS10
 62
     7
100
AcDbLine
 10
34.29936951329209
 20
23.18035483296095
 30
0.000000000254
 11
34.29936951329208
 21
24.66954076388986
 31
0.0
  0
LINE
  5
545
330
75
100
AcDbEntity
  8
UMRISS10
 62
     7
100
AcDbLine
 10
34.29936951329209
 20
23.18035483296095
 30
0.000000000254
 11
38.26382992093961
 21
23.18035483296096
 31
0.000000000254
  0
LINE
  5
546
330
75
100
AcDbEntity
  8
UMRISS10
 62
     7
100
AcDbLine
 10
34.44108456615764
 20
23.01632279134645
 30
0.000000000254
 11
34.44108456615764
 21
23.18035483296095
 31
0.000000000254
  0
LINE
  5
547
330
75
100
AcDbEntity
  8
MOEBEL
 62
     7
100
AcDbLine
 10
34.49108456615764
 20
23.18725875746036
 30
0.000000000254
 11
34.49108456615764
 21
24.18224619456698
 31
0.000000000254
  0
ARC
  5
548
330
75
100
AcDbEntity
  8
MOEBEL
 62
     7
100
AcDbCircle
 10
34.59108456615764
 20
23.18725875746036
 30
0.000000000254
 40
0.9999999999999998
100
AcDbArc
 50
0.000000000000007
 51
95.73917047726679
  0
LINE
  5
549
330
75
100
AcDbEntity
  8
UMRISS10
 62
     7
100
AcDbLine
 10
35.64108456615765
 20
23.01632279134645
 30
0.000000000254
 11
35.64108456615765
 21
23.18035483296096
 31
0.000000000254
  0
LINE
  5
54A
330
75
100
AcDbEntity
  8
UMRISS10
 62
     7
100
AcDbLine
 10
34.1493695132921
 20
23.01632279134645
 30
0.000000000254
 11
38.1138299209396
 21
23.01632279134645
 31
0.000000000254
  0
LINE
  5
54B
330
75
100
AcDbEntity
  8
UMRISS10
 62
     7
100
AcDbLine
 10
38.11382992093963
 20
20.67919225443244
 30
0.000000000254
 11
38.1138299209396
 21
23.01632279134645
 31
0.000000000254
  0
LINE
  5
54C
330
75
100
AcDbEntity
  8
UMRISS10
 62
     7
100
AcDbLine
 10
38.26382992093963
 20
20.84322429604694
 30
0.000000000254
 11
38.26382992093961
 21
23.18035483296096
 31
0.000000000254
  0
LINE
  5
54D
330
75
100
AcDbEntity
  8
UMRISS10
 62
     7
100
AcDbLine
 10
38.26382992093963
 20
20.84322429604694
 30
0.000000000254
 11
39.84999999938715
 21
20.84322429604695
 31
0.0
  0
LINE
  5
54E
330
75
100
AcDbEntity
  8
UMRISS10
 62
     7
100
AcDbLine
 10
38.11382992093963
 20
20.67919225443244
 30
0.000000000254
 11
40.52982711060743
 21
20.67919225443244
 31
0.000000000254
  0
LINE
  5
54F
330
75
100
AcDbEntity
  8
HALLE_0_1_EG
  6
Continuous
100
AcDbLine
 10
34.46349999938716
 20
24.66954076388986
 30
0.0
 11
34.29936951329208
 21
24.66954076388986
 31
0.0
  0
LINE
  5
550
330
75
100
AcDbEntity
  8
HALLE_0_1_EG
  6
Continuous
100
AcDbLine
 10
34.14936951329208
 20
24.66954076388986
 30
0.0
 11
10.61949999938696
 21
24.66954076388986
 31
0.0
  0
ENDSEC
  0
SECTION
  2
OBJECTS
  0
DICTIONARY
  5
C
330
0
100
AcDbDictionary
281
     1
  3
ACAD_COLOR
350
6B
  3
ACAD_GROUP
350
D
  3
ACAD_LAYOUT
350
6A
  3
ACAD_MATERIAL
350
10
  3
ACAD_MLEADERSTYLE
350
6E
  3
ACAD_MLINESTYLE
350
67
  3
ACAD_PLOTSETTINGS
350
69
  3
ACAD_PLOTSTYLENAME
350
E
  3
ACAD_SCALELIST
350
3A
  3
ACAD_TABLESTYLE
350
6C
  3
ACAD_VISUALSTYLE
350
29
  3
ACDB_RECOMPOSE_DATA
350
557
  3
AcDbVariableDictionary
350
551
  0
DICTIONARY
  5
6B
102
{ACAD_REACTORS
330
C
102
}
330
C
100
AcDbDictionary
281
     1
  0
DICTIONARY
  5
D
102
{ACAD_REACTORS
330
C
102
}
330
C
100
AcDbDictionary
281
     1
  3
*A1
350
4B5
  3
*A2
350
4BA
  3
*A3
350
4BF
  3
*A4
350
527
  3
*A5
350
52C
  3
*A6
350
532
  3
*A7
350
537
  3
*A8
350
53E
  0
DICTIONARY
  5
6A
102
{ACAD_REACTORS
330
C
102
}
330
C
100
AcDbDictionary
281
     1
  3
Layout1
350
74
  3
Layout2
350
7C
  3
Model
350
78
  0
DICTIONARY
  5
10
102
{ACAD_REACTORS
330
C
102
}
330
C
100
AcDbDictionary
281
     1
  3
ByBlock
350
19
  3
ByLayer
350
11
  3
Global
350
21
  0
DICTIONARY
  5
6E
102
{ACAD_REACTORS
330
C
102
}
330
C
100
AcDbDictionary
281
     1
  3
Standard
350
6F
  0
DICTIONARY
  5
67
102
{ACAD_REACTORS
330
C
102
}
330
C
100
AcDbDictionary
281
     1
  3
Standard
350
68
  0
DICTIONARY
  5
69
102
{ACAD_REACTORS
330
C
102
}
330
C
100
AcDbDictionary
281
     1
  0
ACDBDICTIONARYWDFLT
  5
E
102
{ACAD_REACTORS
330
C
102
}
330
C
100
AcDbDictionary
281
     1
  3
Normal
350
F
100
AcDbDictionaryWithDefault
340
F
  0
DICTIONARY
  5
3A
102
{ACAD_REACTORS
330
C
102
}
330
C
100
AcDbDictionary
281
     1
  3
A0
350
3B
  3
A1
350
3C
  3
A2
350
3D
  3
A3
350
3E
  3
A4
350
3F
  3
A5
350
40
  3
A6
350
41
  3
A7
350
42
  3
A8
350
43
  3
A9
350
44
  3
B0
350
45
  3
B1
350
46
  3
B2
350
47
  3
B3
350
48
  3
B4
350
49
  3
B5
350
4A
  3
B6
350
4B
  3
B7
350
4C
  3
B8
350
4D
  3
B9
350
4E
  3
C0
350
4F
  3
C1
350
50
  3
C2
350
51
  3
C3
350
52
  3
C4
350
53
  3
C5
350
54
  3
C6
350
55
  3
C7
350
56
  3
C8
350
57
  3
C9
350
58
  3
D0
350
59
  3
D1
350
5A
  3
D2
350
5B
  0
DICTIONARY
  5
6C
102
{ACAD_REACTORS
330
C
102
}
330
C
100
AcDbDictionary
281
     1
  3
Standard
350
6D
  0
DICTIONARY
  5
29
102
{ACAD_REACTORS
330
C
102
}
330
C
100
AcDbDictionary
281
     1
  3
2dWireframe
350
2F
  3
3D Hidden
350
31
  3
3dWireframe
350
30
  3
Basic
350
2E
  3
Brighten
350
35
  3
ColorChange
350
39
  3
Conceptual
350
32
  3
Dim
350
34
  3
Facepattern
350
38
  3
Flat
350
2A
  3
FlatWithEdges
350
2B
  3
Gouraud
350
2C
  3
GouraudWithEdges
350
2D
  3
Linepattern
350
37
  3
Realistic
350
33
  3
Thicken
350
36
  0
XRECORD
  5
557
102
{ACAD_REACTORS
330
C
102
}
330
C
100
AcDbXrecord
280
     1
 90
        1
330
6D
  0
DICTIONARY
  5
551
102
{ACAD_REACTORS
330
C
102
}
330
C
100
AcDbDictionary
281
     1
  3
CANNOSCALE
350
554
  3
CMLEADERSTYLE
350
553
  3
CTABLESTYLE
350
552
  0
GROUP
  5
4B5
102
{ACAD_REACTORS
330
D
102
}
330
D
100
AcDbGroup
300

 70
     0
 71
     1
340
4B6
340
4B7
340
4B8
340
4B9
  0
GROUP
  5
4BA
102
{ACAD_REACTORS
330
D
102
}
330
D
100
AcDbGroup
300

 70
     0
 71
     1
340
4BB
340
4BC
340
4BD
340
4BE
  0
GROUP
  5
4BF
102
{ACAD_REACTORS
330
D
102
}
330
D
100
AcDbGroup
300

 70
     0
 71
     1
340
4C0
340
4C1
340
4C2
340
4C3
340
4C4
340
4C5
340
4C6
340
4C7
340
4C8
340
4C9
340
4CA
340
4CB
340
4CC
340
4CD
340
4CE
340
4CF
340
4D0
340
4D1
340
4D2
340
4D3
340
4D4
340
4D5
340
4D6
340
4D7
340
4D8
340
4D9
340
4DA
340
4DB
340
4DC
340
4DD
340
4DE
340
4DF
340
4E0
340
4E1
340
4E2
340
4E3
340
4E4
340
4E5
340
4E6
340
4E7
340
4E8
340
4E9
340
4EA
340
4EB
340
4EC
340
4ED
340
4EE
340
4EF
340
4F0
340
4F1
340
4F2
340
4F3
340
4F4
340
4F5
340
4F6
340
4F7
340
4F8
340
4F9
340
4FA
340
4FB
340
4FC
340
4FD
340
4FE
340
4FF
340
500
340
501
340
502
340
503
340
504
340
505
340
506
340
507
340
508
340
509
340
50A
340
50B
340
50C
340
50D
340
50E
340
50F
340
510
340
511
340
512
340
513
340
514
340
515
340
516
340
517
340
518
340
519
340
51A
340
51B
340
51C
340
51D
340
51E
340
51F
340
520
340
521
340
522
340
523
340
524
340
525
340
526
  0
GROUP
  5
527
102
{ACAD_REACTORS
330
D
102
}
330
D
100
AcDbGroup
300

 70
     0
 71
     1
340
528
340
529
340
52A
340
52B
  0
GROUP
  5
52C
102
{ACAD_REACTORS
330
D
102
}
330
D
100
AcDbGroup
300

 70
     0
 71
     1
340
52D
340
52E
340
52F
340
530
  0
GROUP
  5
532
102
{ACAD_REACTORS
330
D
102
}
330
D
100
AcDbGroup
300

 70
     0
 71
     1
340
533
340
534
340
535
340
536
  0
GROUP
  5
537
102
{ACAD_REACTORS
330
D
102
}
330
D
100
AcDbGroup
300

 70
     0
 71
     1
340
538
340
539
340
53A
340
53B
  0
GROUP
  5
53E
102
{ACAD_REACTORS
330
D
102
}
330
D
100
AcDbGroup
300

 70
     0
 71
     1
340
53F
340
540
340
541
340
542
  0
LAYOUT
  5
74
102
{ACAD_REACTORS
330
6A
102
}
330
6A
100
AcDbPlotSettings
  1

  2

  4

  6

 40
0.0
 41
0.0
 42
0.0
 43
0.0
 44
0.0
 45
0.0
 46
0.0
 47
0.0
 48
0.0
 49
0.0
140
0.0
141
0.0
142
1.0
143
1.0
 70
   688
 72
     0
 73
     0
 74
     5
  7

 75
    16
147
1.0
 76
     0
 77
     2
 78
   300
148
0.0
149
0.0
100
AcDbLayout
  1
Layout1
 70
     1
 71
     1
 10
0.0
 20
0.0
 11
12.0
 21
9.0
 12
0.0
 22
0.0
 32
0.0
 14
0.0
 24
0.0
 34
0.0
 15
0.0
 25
0.0
 35
0.0
146
0.0
 13
0.0
 23
0.0
 33
0.0
 16
1.0
 26
0.0
 36
0.0
 17
0.0
 27
1.0
 37
0.0
 76
     0
330
71
  0
LAYOUT
  5
7C
102
{ACAD_REACTORS
330
6A
102
}
330
6A
100
AcDbPlotSettings
  1

  2

  4

  6

 40
0.0
 41
0.0
 42
0.0
 43
0.0
 44
0.0
 45
0.0
 46
0.0
 47
0.0
 48
0.0
 49
0.0
140
0.0
141
0.0
142
1.0
143
1.0
 70
   688
 72
     0
 73
     0
 74
     5
  7

 75
    16
147
1.0
 76
     0
 77
     2
 78
   300
148
0.0
149
0.0
100
AcDbLayout
  1
Layout2
 70
     1
 71
     2
 10
0.0
 20
0.0
 11
12.0
 21
9.0
 12
0.0
 22
0.0
 32
0.0
 14
0.0
 24
0.0
 34
0.0
 15
0.0
 25
0.0
 35
0.0
146
0.0
 13
0.0
 23
0.0
 33
0.0
 16
1.0
 26
0.0
 36
0.0
 17
0.0
 27
1.0
 37
0.0
 76
     0
330
79
  0
LAYOUT
  5
78
102
{ACAD_REACTORS
330
6A
102
}
330
6A
100
AcDbPlotSettings
  1

  2

  4

  6

 40
0.0
 41
0.0
 42
0.0
 43
0.0
 44
0.0
 45
0.0
 46
0.0
 47
0.0
 48
0.0
 49
0.0
140
0.0
141
0.0
142
1.0
143
1.0
 70
  1712
 72
     0
 73
     0
 74
     0
  7

 75
     0
147
1.0
 76
     0
 77
     2
 78
   300
148
0.0
149
0.0
100
AcDbLayout
  1
Model
 70
     1
 71
     0
 10
0.0
 20
0.0
 11
12.0
 21
9.0
 12
0.0
 22
0.0
 32
0.0
 14
0.0
 24
0.0
 34
0.0
 15
0.0
 25
0.0
 35
0.0
146
0.0
 13
0.0
 23
0.0
 33
0.0
 16
1.0
 26
0.0
 36
0.0
 17
0.0
 27
1.0
 37
0.0
 76
     0
330
75
  0
MATERIAL
  5
19
102
{ACAD_XDICTIONARY
360
1A
102
}
102
{ACAD_REACTORS
330
10
102
}
330
10
100
AcDbMaterial
  1
ByBlock
 72
     0
 43
0.0208333333333333
 43
0.0
 43
0.0
 43
0.0
 43
0.0
 43
0.0208333333333333
 43
0.0
 43
0.0
 43
0.0
 43
0.0
 43
1.0
 43
0.0
 43
0.0
 43
0.0
 43
0.0
 43
1.0
 77
     0
 47
0.0208333333333333
 47
0.0
 47
0.0
 47
0.0
 47
0.0
 47
0.0208333333333333
 47
0.0
 47
0.0
 47
0.0
 47
0.0
 47
1.0
 47
0.0
 47
0.0
 47
0.0
 47
0.0
 47
1.0
171
     0
 49
0.0208333333333333
 49
0.0
 49
0.0
 49
0.0
 49
0.0
 49
0.0208333333333333
 49
0.0
 49
0.0
 49
0.0
 49
0.0
 49
1.0
 49
0.0
 49
0.0
 49
0.0
 49
0.0
 49
1.0
175
     0
142
0.0208333333333333
142
0.0
142
0.0
142
0.0
142
0.0
142
0.0208333333333333
142
0.0
142
0.0
142
0.0
142
0.0
142
1.0
142
0.0
142
0.0
142
0.0
142
0.0
142
1.0
179
     0
144
0.0208333333333333
144
0.0
144
0.0
144
0.0
144
0.0
144
0.0208333333333333
144
0.0
144
0.0
144
0.0
144
0.0
144
1.0
144
0.0
144
0.0
144
0.0
144
0.0
144
1.0
147
0.0208333333333333
147
0.0
147
0.0
147
0.0
147
0.0
147
0.0208333333333333
147
0.0
147
0.0
147
0.0
147
0.0
147
1.0
147
0.0
147
0.0
147
0.0
147
0.0
147
1.0
  0
MATERIAL
  5
11
102
{ACAD_XDICTIONARY
360
12
102
}
102
{ACAD_REACTORS
330
10
102
}
330
10
100
AcDbMaterial
  1
ByLayer
 72
     0
 43
0.0208333333333333
 43
0.0
 43
0.0
 43
0.0
 43
0.0
 43
0.0208333333333333
 43
0.0
 43
0.0
 43
0.0
 43
0.0
 43
1.0
 43
0.0
 43
0.0
 43
0.0
 43
0.0
 43
1.0
 77
     0
 47
0.0208333333333333
 47
0.0
 47
0.0
 47
0.0
 47
0.0
 47
0.0208333333333333
 47
0.0
 47
0.0
 47
0.0
 47
0.0
 47
1.0
 47
0.0
 47
0.0
 47
0.0
 47
0.0
 47
1.0
171
     0
 49
0.0208333333333333
 49
0.0
 49
0.0
 49
0.0
 49
0.0
 49
0.0208333333333333
 49
0.0
 49
0.0
 49
0.0
 49
0.0
 49
1.0
 49
0.0
 49
0.0
 49
0.0
 49
0.0
 49
1.0
175
     0
142
0.0208333333333333
142
0.0
142
0.0
142
0.0
142
0.0
142
0.0208333333333333
142
0.0
142
0.0
142
0.0
142
0.0
142
1.0
142
0.0
142
0.0
142
0.0
142
0.0
142
1.0
179
     0
144
0.0208333333333333
144
0.0
144
0.0
144
0.0
144
0.0
144
0.0208333333333333
144
0.0
144
0.0
144
0.0
144
0.0
144
1.0
144
0.0
144
0.0
144
0.0
144
0.0
144
1.0
147
0.0208333333333333
147
0.0
147
0.0
147
0.0
147
0.0
147
0.0208333333333333
147
0.0
147
0.0
147
0.0
147
0.0
147
1.0
147
0.0
147
0.0
147
0.0
147
0.0
147
1.0
  0
MATERIAL
  5
21
102
{ACAD_XDICTIONARY
360
22
102
}
102
{ACAD_REACTORS
330
10
102
}
330
10
100
AcDbMaterial
  1
Global
 72
     0
 43
0.0208333333333333
 43
0.0
 43
0.0
 43
0.0
 43
0.0
 43
0.0208333333333333
 43
0.0
 43
0.0
 43
0.0
 43
0.0
 43
1.0
 43
0.0
 43
0.0
 43
0.0
 43
0.0
 43
1.0
 77
     0
 47
0.0208333333333333
 47
0.0
 47
0.0
 47
0.0
 47
0.0
 47
0.0208333333333333
 47
0.0
 47
0.0
 47
0.0
 47
0.0
 47
1.0
 47
0.0
 47
0.0
 47
0.0
 47
0.0
 47
1.0
171
     0
 49
0.0208333333333333
 49
0.0
 49
0.0
 49
0.0
 49
0.0
 49
0.0208333333333333
 49
0.0
 49
0.0
 49
0.0
 49
0.0
 49
1.0
 49
0.0
 49
0.0
 49
0.0
 49
0.0
 49
1.0
175
     0
142
0.0208333333333333
142
0.0
142
0.0
142
0.0
142
0.0
142
0.0208333333333333
142
0.0
142
0.0
142
0.0
142
0.0
142
1.0
142
0.0
142
0.0
142
0.0
142
0.0
142
1.0
179
     0
144
0.0208333333333333
144
0.0
144
0.0
144
0.0
144
0.0
144
0.0208333333333333
144
0.0
144
0.0
144
0.0
144
0.0
144
1.0
144
0.0
144
0.0
144
0.0
144
0.0
144
1.0
147
0.0208333333333333
147
0.0
147
0.0
147
0.0
147
0.0
147
0.0208333333333333
147
0.0
147
0.0
147
0.0
147
0.0
147
1.0
147
0.0
147
0.0
147
0.0
147
0.0
147
1.0
  0
MLEADERSTYLE
  5
6F
102
{ACAD_REACTORS
330
6E
102
}
330
6E
100
AcDbMLeaderStyle
170
     2
171
     1
172
     0
 90
        2
 40
0.0
 41
0.0
173
     1
 91
-1056964608
340
63
 92
       -2
290
     1
 42
0.09
291
     1
 43
0.36
  3
Standard
 44
0.18
300

342
5D
174
     1
178
     6
175
     1
176
     0
 93
-1056964608
 45
0.18
292
     0
297
     0
 46
0.18
 94
-1056964608
 47
1.0
 49
1.0
140
1.0
293
     1
141
0.0
294
     1
177
     0
142
1.0
295
     1
296
     0
143
0.125
1001
ACAD_MLEADERVER
1070
     2
  0
MLINESTYLE
  5
68
102
{ACAD_REACTORS
330
67
102
}
330
67
100
AcDbMlineStyle
  2
STANDARD
 70
     0
  3

 62
   256
 51
90.0
 52
90.0
 71
     2
 49
0.5
 62
   256
  6
BYLAYER
 49
-0.5
 62
   256
  6
BYLAYER
  0
ACDBPLACEHOLDER
  5
F
102
{ACAD_REACTORS
330
E
102
}
330
E
  0
SCALE
  5
3B
102
{ACAD_REACTORS
330
3A
102
}
330
3A
100
AcDbScale
 70
     0
300
1:1
140
1.0
141
1.0
290
     1
  0
SCALE
  5
3C
102
{ACAD_REACTORS
330
3A
102
}
330
3A
100
AcDbScale
 70
     0
300
1:2
140
1.0
141
2.0
290
     0
  0
SCALE
  5
3D
102
{ACAD_REACTORS
330
3A
102
}
330
3A
100
AcDbScale
 70
     0
300
1:4
140
1.0
141
4.0
290
     0
  0
SCALE
  5
3E
102
{ACAD_REACTORS
330
3A
102
}
330
3A
100
AcDbScale
 70
     0
300
1:5
140
1.0
141
5.0
290
     0
  0
SCALE
  5
3F
102
{ACAD_REACTORS
330
3A
102
}
330
3A
100
AcDbScale
 70
     0
300
1:8
140
1.0
141
8.0
290
     0
  0
SCALE
  5
40
102
{ACAD_REACTORS
330
3A
102
}
330
3A
100
AcDbScale
 70
     0
300
1:10
140
1.0
141
10.0
290
     0
  0
SCALE
  5
41
102
{ACAD_REACTORS
330
3A
102
}
330
3A
100
AcDbScale
 70
     0
300
1:16
140
1.0
141
16.0
290
     0
  0
SCALE
  5
42
102
{ACAD_REACTORS
330
3A
102
}
330
3A
100
AcDbScale
 70
     0
300
1:20
140
1.0
141
20.0
290
     0
  0
SCALE
  5
43
102
{ACAD_REACTORS
330
3A
102
}
330
3A
100
AcDbScale
 70
     0
300
1:30
140
1.0
141
30.0
290
     0
  0
SCALE
  5
44
102
{ACAD_REACTORS
330
3A
102
}
330
3A
100
AcDbScale
 70
     0
300
1:40
140
1.0
141
40.0
290
     0
  0
SCALE
  5
45
102
{ACAD_REACTORS
330
3A
102
}
330
3A
100
AcDbScale
 70
     0
300
1:50
140
1.0
141
50.0
290
     0
  0
SCALE
  5
46
102
{ACAD_REACTORS
330
3A
102
}
330
3A
100
AcDbScale
 70
     0
300
1:100
140
1.0
141
100.0
290
     0
  0
SCALE
  5
47
102
{ACAD_REACTORS
330
3A
102
}
330
3A
100
AcDbScale
 70
     0
300
2:1
140
2.0
141
1.0
290
     0
  0
SCALE
  5
48
102
{ACAD_REACTORS
330
3A
102
}
330
3A
100
AcDbScale
 70
     0
300
4:1
140
4.0
141
1.0
290
     0
  0
SCALE
  5
49
102
{ACAD_REACTORS
330
3A
102
}
330
3A
100
AcDbScale
 70
     0
300
8:1
140
8.0
141
1.0
290
     0
  0
SCALE
  5
4A
102
{ACAD_REACTORS
330
3A
102
}
330
3A
100
AcDbScale
 70
     0
300
10:1
140
10.0
141
1.0
290
     0
  0
SCALE
  5
4B
102
{ACAD_REACTORS
330
3A
102
}
330
3A
100
AcDbScale
 70
     0
300
100:1
140
100.0
141
1.0
290
     0
  0
SCALE
  5
4C
102
{ACAD_REACTORS
330
3A
102
}
330
3A
100
AcDbScale
 70
     0
300
1/128" = 1'-0"
140
0.0078125
141
12.0
290
     0
  0
SCALE
  5
4D
102
{ACAD_REACTORS
330
3A
102
}
330
3A
100
AcDbScale
 70
     0
300
1/64" = 1'-0"
140
0.015625
141
12.0
290
     0
  0
SCALE
  5
4E
102
{ACAD_REACTORS
330
3A
102
}
330
3A
100
AcDbScale
 70
     0
300
1/32" = 1'-0"
140
0.03125
141
12.0
290
     0
  0
SCALE
  5
4F
102
{ACAD_REACTORS
330
3A
102
}
330
3A
100
AcDbScale
 70
     0
300
1/16" = 1'-0"
140
0.0625
141
12.0
290
     0
  0
SCALE
  5
50
102
{ACAD_REACTORS
330
3A
102
}
330
3A
100
AcDbScale
 70
     0
300
3/32" = 1'-0"
140
0.09375
141
12.0
290
     0
  0
SCALE
  5
51
102
{ACAD_REACTORS
330
3A
102
}
330
3A
100
AcDbScale
 70
     0
300
1/8" = 1'-0"
140
0.125
141
12.0
290
     0
  0
SCALE
  5
52
102
{ACAD_REACTORS
330
3A
102
}
330
3A
100
AcDbScale
 70
     0
300
3/16" = 1'-0"
140
0.1875
141
12.0
290
     0
  0
SCALE
  5
53
102
{ACAD_REACTORS
330
3A
102
}
330
3A
100
AcDbScale
 70
     0
300
1/4" = 1'-0"
140
0.25
141
12.0
290
     0
  0
SCALE
  5
54
102
{ACAD_REACTORS
330
3A
102
}
330
3A
100
AcDbScale
 70
     0
300
3/8" = 1'-0"
140
0.375
141
12.0
290
     0
  0
SCALE
  5
55
102
{ACAD_REACTORS
330
3A
102
}
330
3A
100
AcDbScale
 70
     0
300
1/2" = 1'-0"
140
0.5
141
12.0
290
     0
  0
SCALE
  5
56
102
{ACAD_REACTORS
330
3A
102
}
330
3A
100
AcDbScale
 70
     0
300
3/4" = 1'-0"
140
0.75
141
12.0
290
     0
  0
SCALE
  5
57
102
{ACAD_REACTORS
330
3A
102
}
330
3A
100
AcDbScale
 70
     0
300
1" = 1'-0"
140
1.0
141
12.0
290
     0
  0
SCALE
  5
58
102
{ACAD_REACTORS
330
3A
102
}
330
3A
100
AcDbScale
 70
     0
300
1-1/2" = 1'-0"
140
1.5
141
12.0
290
     0
  0
SCALE
  5
59
102
{ACAD_REACTORS
330
3A
102
}
330
3A
100
AcDbScale
 70
     0
300
3" = 1'-0"
140
3.0
141
12.0
290
     0
  0
SCALE
  5
5A
102
{ACAD_REACTORS
330
3A
102
}
330
3A
100
AcDbScale
 70
     0
300
6" = 1'-0"
140
6.0
141
12.0
290
     0
  0
SCALE
  5
5B
102
{ACAD_REACTORS
330
3A
102
}
330
3A
100
AcDbScale
 70
     0
300
1'-0" = 1'-0"
140
12.0
141
12.0
290
     0
  0
TABLESTYLE
  5
6D
102
{ACAD_XDICTIONARY
360
555
102
}
102
{ACAD_REACTORS
330
6C
102
}
330
6C
100
AcDbTableStyle
  3
Standard
 70
     0
 71
     0
 40
0.06
 41
0.06
280
     0
281
     0
  7
Standard
140
0.18
170
     2
 62
     0
 63
     7
283
     0
 90
      512
 91
        0
  1

274
    -2
284
     1
 64
     0
275
    -2
285
     1
 65
     0
276
    -2
286
     1
 66
     0
277
    -2
287
     1
 67
     0
278
    -2
288
     1
 68
     0
279
    -2
289
     1
 69
     0
  7
Standard
140
0.25
170
     5
 62
     0
 63
     7
283
     0
 90
      512
 91
        0
  1

274
    -2
284
     1
 64
     0
275
    -2
285
     1
 65
     0
276
    -2
286
     1
 66
     0
277
    -2
287
     1
 67
     0
278
    -2
288
     1
 68
     0
279
    -2
289
     1
 69
     0
  7
Standard
140
0.18
170
     5
 62
     0
 63
     7
283
     0
 90
      512
 91
        0
  1

274
    -2
284
     1
 64
     0
275
    -2
285
     1
 65
     0
276
    -2
286
     1
 66
     0
277
    -2
287
     1
 67
     0
278
    -2
288
     1
 68
     0
279
    -2
289
     1
 69
     0
  0
VISUALSTYLE
  5
2F
102
{ACAD_REACTORS
330
29
102
}
330
29
100
AcDbVisualStyle
  2
2dWireframe
 70
     4
 71
     0
 72
     2
 73
     0
 90
        0
 40
-0.6
 41
-30.0
 62
     5
 63
     7
421
 16777215
 74
     1
 91
        4
 64
     7
 65
   257
 75
     1
175
     1
 42
1.0
 92
        0
 66
   257
 43
1.0
 76
     1
 77
     6
 78
     2
 67
     7
 79
     5
170
     0
171
     0
290
     0
174
     0
 93
        1
 44
0.0
173
     0
291
     0
 45
0.0
  0
VISUALSTYLE
  5
31
102
{ACAD_REACTORS
330
29
102
}
330
29
100
AcDbVisualStyle
  2
3D Hidden
 70
     6
 71
     1
 72
     2
 73
     2
 90
        0
 40
-0.6
 41
-30.0
 62
     5
 63
     7
421
 16777215
 74
     2
 91
        2
 64
     7
 65
   257
 75
     2
175
     1
 42
40.0
 92
        0
 66
   257
 43
1.0
 76
     1
 77
     6
 78
     2
 67
     7
 79
     3
170
     0
171
     0
290
     0
174
     0
 93
        1
 44
0.0
173
     0
291
     0
 45
0.0
  0
VISUALSTYLE
  5
30
102
{ACAD_REACTORS
330
29
102
}
330
29
100
AcDbVisualStyle
  2
3dWireframe
 70
     5
 71
     0
 72
     2
 73
     0
 90
        0
 40
-0.6
 41
-30.0
 62
     5
 63
     7
421
 16777215
 74
     1
 91
        4
 64
     7
 65
   257
 75
     1
175
     1
 42
1.0
 92
        0
 66
   257
 43
1.0
 76
     1
 77
     6
 78
     2
 67
     7
 79
     5
170
     0
171
     0
290
     0
174
     0
 93
        1
 44
0.0
173
     0
291
     0
 45
0.0
  0
VISUALSTYLE
  5
2E
102
{ACAD_REACTORS
330
29
102
}
330
29
100
AcDbVisualStyle
  2
Basic
 70
     7
 71
     1
 72
     0
 73
     1
 90
        0
 40
-0.6
 41
-30.0
 62
     5
 63
     7
421
 16777215
 74
     0
 91
        4
 64
     7
 65
   257
 75
     1
175
     1
 42
1.0
 92
        8
 66
     7
 43
1.0
 76
     1
 77
     6
 78
     2
 67
     7
 79
     5
170
     0
171
     0
290
     0
174
     0
 93
        1
 44
0.0
173
     0
291
     1
 45
0.0
  0
VISUALSTYLE
  5
35
102
{ACAD_REACTORS
330
29
102
}
330
29
100
AcDbVisualStyle
  2
Brighten
 70
    12
 71
     2
 72
     2
 73
     0
 90
        0
 40
-0.6
 41
-30.0
 62
     5
 63
     7
421
 16777215
 74
     1
 91
        4
 64
     7
 65
   257
 75
     1
175
     1
 42
1.0
 92
        8
 66
     7
 43
1.0
 76
     1
 77
     6
 78
     2
 67
     7
 79
     5
170
     0
171
     0
290
     0
174
     0
 93
        1
 44
50.0
173
     0
291
     1
 45
0.0
  0
VISUALSTYLE
  5
39
102
{ACAD_REACTORS
330
29
102
}
330
29
100
AcDbVisualStyle
  2
ColorChange
 70
    16
 71
     2
 72
     2
 73
     3
 90
        0
 40
-0.6
 41
-30.0
 62
     5
 63
     8
421
  8421504
 74
     1
 91
        4
 64
     7
 65
   257
 75
     1
175
     1
 42
1.0
 92
        8
 66
     8
424
  8421504
 43
1.0
 76
     1
 77
     6
 78
     2
 67
     7
 79
     5
170
     0
171
     0
290
     0
174
     0
 93
        1
 44
0.0
173
     0
291
     1
 45
0.0
  0
VISUALSTYLE
  5
32
102
{ACAD_REACTORS
330
29
102
}
330
29
100
AcDbVisualStyle
  2
Conceptual
 70
     9
 71
     3
 72
     2
 73
     0
 90
        0
 40
-0.6
 41
-30.0
 62
     5
 63
     7
421
 16777215
 74
     2
 91
        2
 64
     7
 65
   257
 75
     1
175
     1
 42
40.0
 92
        8
 66
     7
 43
1.0
 76
     1
 77
     6
 78
     2
 67
     7
 79
     3
170
     0
171
     0
290
     0
174
     0
 93
        1
 44
0.0
173
     0
291
     0
 45
0.0
  0
VISUALSTYLE
  5
34
102
{ACAD_REACTORS
330
29
102
}
330
29
100
AcDbVisualStyle
  2
Dim
 70
    11
 71
     2
 72
     2
 73
     0
 90
        0
 40
-0.6
 41
-30.0
 62
     5
 63
     7
421
 16777215
 74
     1
 91
        4
 64
     7
 65
   257
 75
     1
175
     1
 42
1.0
 92
        8
 66
     7
 43
1.0
 76
     1
 77
     6
 78
     2
 67
     7
 79
     5
170
     0
171
     0
290
     0
174
     0
 93
        1
 44
-50.0
173
     0
291
     1
 45
0.0
  0
VISUALSTYLE
  5
38
102
{ACAD_REACTORS
330
29
102
}
330
29
100
AcDbVisualStyle
  2
Facepattern
 70
    15
 71
     2
 72
     2
 73
     0
 90
        0
 40
-0.6
 41
-30.0
 62
     5
 63
     7
421
 16777215
 74
     1
 91
        4
 64
     7
 65
   257
 75
     1
175
     1
 42
1.0
 92
        8
 66
     7
 43
1.0
 76
     1
 77
     6
 78
     2
 67
     7
 79
     5
170
     0
171
     0
290
     0
174
     0
 93
        1
 44
0.0
173
     0
291
     1
 45
0.0
  0
VISUALSTYLE
  5
2A
102
{ACAD_REACTORS
330
29
102
}
330
29
100
AcDbVisualStyle
  2
Flat
 70
     0
 71
     2
 72
     1
 73
     1
 90
        2
 40
-0.6
 41
30.0
 62
     5
 63
     7
421
 16777215
 74
     0
 91
        4
 64
     7
 65
   257
 75
     1
175
     1
 42
1.0
 92
        8
 66
     7
 43
1.0
 76
     1
 77
     6
 78
     2
 67
     7
 79
     5
170
     0
171
     0
290
     0
174
     0
 93
       13
 44
0.0
173
     0
291
     1
 45
0.0
  0
VISUALSTYLE
  5
2B
102
{ACAD_REACTORS
330
29
102
}
330
29
100
AcDbVisualStyle
  2
FlatWithEdges
 70
     1
 71
     2
 72
     1
 73
     1
 90
        2
 40
-0.6
 41
30.0
 62
     5
 63
     7
421
 16777215
 74
     1
 91
        4
 64
     7
 65
   257
 75
     1
175
     1
 42
1.0
 92
        0
 66
   257
 43
1.0
 76
     1
 77
     6
 78
     2
 67
     7
 79
     5
170
     0
171
     0
290
     0
174
     0
 93
       13
 44
0.0
173
     0
291
     1
 45
0.0
  0
VISUALSTYLE
  5
2C
102
{ACAD_REACTORS
330
29
102
}
330
29
100
AcDbVisualStyle
  2
Gouraud
 70
     2
 71
     2
 72
     2
 73
     1
 90
        2
 40
-0.6
 41
30.0
 62
     5
 63
     7
421
 16777215
 74
     0
 91
        4
 64
     7
 65
   257
 75
     1
175
     1
 42
1.0
 92
        0
 66
     7
 43
1.0
 76
     1
 77
     6
 78
     2
 67
     7
 79
     5
170
     0
171
     0
290
     0
174
     0
 93
       13
 44
0.0
173
     0
291
     1
 45
0.0
  0
VISUALSTYLE
  5
2D
102
{ACAD_REACTORS
330
29
102
}
330
29
100
AcDbVisualStyle
  2
GouraudWithEdges
 70
     3
 71
     2
 72
     2
 73
     1
 90
        2
 40
-0.6
 41
30.0
 62
     5
 63
     7
421
 16777215
 74
     1
 91
        4
 64
     7
 65
   257
 75
     1
175
     1
 42
1.0
 92
        0
 66
   257
 43
1.0
 76
     1
 77
     6
 78
     2
 67
     7
 79
     5
170
     0
171
     0
290
     0
174
     0
 93
       13
 44
0.0
173
     0
291
     1
 45
0.0
  0
VISUALSTYLE
  5
37
102
{ACAD_REACTORS
330
29
102
}
330
29
100
AcDbVisualStyle
  2
Linepattern
 70
    14
 71
     2
 72
     2
 73
     0
 90
        0
 40
-0.6
 41
-30.0
 62
     5
 63
     7
421
 16777215
 74
     1
 91
        4
 64
     7
 65
   257
 75
     7
175
     7
 42
1.0
 92
        8
 66
     7
 43
1.0
 76
     1
 77
     6
 78
     2
 67
     7
 79
     5
170
     0
171
     0
290
     0
174
     0
 93
        1
 44
0.0
173
     0
291
     1
 45
0.0
  0
VISUALSTYLE
  5
33
102
{ACAD_REACTORS
330
29
102
}
330
29
100
AcDbVisualStyle
  2
Realistic
 70
     8
 71
     2
 72
     2
 73
     0
 90
        0
 40
-0.6
 41
-30.0
 62
     5
 63
     7
421
 16777215
 74
     1
 91
        0
 64
     7
 65
   257
 75
     1
175
     1
 42
1.0
 92
        8
 66
     8
424
  7895160
 43
1.0
 76
     1
 77
     6
 78
     2
 67
     7
 79
     5
170
     0
171
     0
290
     0
174
     0
 93
       13
 44
0.0
173
     0
291
     0
 45
0.0
  0
VISUALSTYLE
  5
36
102
{ACAD_REACTORS
330
29
102
}
330
29
100
AcDbVisualStyle
  2
Thicken
 70
    13
 71
     2
 72
     2
 73
     0
 90
        0
 40
-0.6
 41
-30.0
 62
     5
 63
     7
421
 16777215
 74
     1
 91
        4
 64
     7
 65
   257
 75
     1
175
     1
 42
1.0
 92
       12
 66
     7
 43
1.0
 76
     1
 77
     6
 78
     2
 67
     7
 79
     5
170
     0
171
     0
290
     0
174
     0
 93
        1
 44
0.0
173
     0
291
     1
 45
0.0
  0
DICTIONARYVAR
  5
554
102
{ACAD_REACTORS
330
551
102
}
330
551
100
DictionaryVariables
280
     0
  1
1:1
  0
DICTIONARYVAR
  5
553
102
{ACAD_REACTORS
330
551
102
}
330
551
100
DictionaryVariables
280
     0
  1
STANDARD
  0
DICTIONARYVAR
  5
552
102
{ACAD_REACTORS
330
551
102
}
330
551
100
DictionaryVariables
280
     0
  1
STANDARD
  0
DICTIONARY
  5
1A
330
19
100
AcDbDictionary
280
     1
281
     1
  3
BUMPTILE
360
1C
  3
DIFFUSETILE
360
1B
  3
OPACITYTILE
360
1F
  3
REFLECTIONTILE
360
1E
  3
REFRACTIONTILE
360
20
  3
SPECULARTILE
360
1D
  0
DICTIONARY
  5
12
330
11
100
AcDbDictionary
280
     1
281
     1
  3
BUMPTILE
360
14
  3
DIFFUSETILE
360
13
  3
OPACITYTILE
360
17
  3
REFLECTIONTILE
360
16
  3
REFRACTIONTILE
360
18
  3
SPECULARTILE
360
15
  0
DICTIONARY
  5
22
330
21
100
AcDbDictionary
280
     1
281
     1
  3
BUMPTILE
360
24
  3
DIFFUSETILE
360
23
  3
OPACITYTILE
360
27
  3
REFLECTIONTILE
360
26
  3
REFRACTIONTILE
360
28
  3
SPECULARTILE
360
25
  0
DICTIONARY
  5
555
330
6D
100
AcDbDictionary
280
     1
281
     1
  3
ACAD_ROUNDTRIP_2008_TABLESTYLE_CELLSTYLEMAP
360
556
  0
XRECORD
  5
1C
102
{ACAD_REACTORS
330
1A
102
}
330
1A
100
AcDbXrecord
280
     1
270
     1
271
     1
  0
XRECORD
  5
1B
102
{ACAD_REACTORS
330
1A
102
}
330
1A
100
AcDbXrecord
280
     1
270
     1
271
     1
  0
XRECORD
  5
1F
102
{ACAD_REACTORS
330
1A
102
}
330
1A
100
AcDbXrecord
280
     1
270
     1
271
     1
  0
XRECORD
  5
1E
102
{ACAD_REACTORS
330
1A
102
}
330
1A
100
AcDbXrecord
280
     1
270
     1
271
     1
  0
XRECORD
  5
20
102
{ACAD_REACTORS
330
1A
102
}
330
1A
100
AcDbXrecord
280
     1
270
     1
271
     1
  0
XRECORD
  5
1D
102
{ACAD_REACTORS
330
1A
102
}
330
1A
100
AcDbXrecord
280
     1
270
     1
271
     1
  0
XRECORD
  5
14
102
{ACAD_REACTORS
330
12
102
}
330
12
100
AcDbXrecord
280
     1
270
     1
271
     1
  0
XRECORD
  5
13
102
{ACAD_REACTORS
330
12
102
}
330
12
100
AcDbXrecord
280
     1
270
     1
271
     1
  0
XRECORD
  5
17
102
{ACAD_REACTORS
330
12
102
}
330
12
100
AcDbXrecord
280
     1
270
     1
271
     1
  0
XRECORD
  5
16
102
{ACAD_REACTORS
330
12
102
}
330
12
100
AcDbXrecord
280
     1
270
     1
271
     1
  0
XRECORD
  5
18
102
{ACAD_REACTORS
330
12
102
}
330
12
100
AcDbXrecord
280
     1
270
     1
271
     1
  0
XRECORD
  5
15
102
{ACAD_REACTORS
330
12
102
}
330
12
100
AcDbXrecord
280
     1
270
     1
271
     1
  0
XRECORD
  5
24
102
{ACAD_REACTORS
330
22
102
}
330
22
100
AcDbXrecord
280
     1
270
     1
271
     1
  0
XRECORD
  5
23
102
{ACAD_REACTORS
330
22
102
}
330
22
100
AcDbXrecord
280
     1
270
     1
271
     1
  0
XRECORD
  5
27
102
{ACAD_REACTORS
330
22
102
}
330
22
100
AcDbXrecord
280
     1
270
     1
271
     1
  0
XRECORD
  5
26
102
{ACAD_REACTORS
330
22
102
}
330
22
100
AcDbXrecord
280
     1
270
     1
271
     1
  0
XRECORD
  5
28
102
{ACAD_REACTORS
330
22
102
}
330
22
100
AcDbXrecord
280
     1
270
     1
271
     1
  0
XRECORD
  5
25
102
{ACAD_REACTORS
330
22
102
}
330
22
100
AcDbXrecord
280
     1
270
     1
271
     1
  0
CELLSTYLEMAP
  5
556
102
{ACAD_REACTORS
330
555
102
}
330
555
100
AcDbCellStyleMap
 90
        3
300
CELLSTYLE
  1
TABLEFORMAT_BEGIN
 90
        5
170
     1
 91
        0
 92
    32768
 62
   257
 93
        1
300
CONTENTFORMAT
  1
CONTENTFORMAT_BEGIN
 90
        0
 91
        0
 92
      512
 93
        0
300

 40
0.0
140
1.0
 94
        5
 62
     0
340
5D
144
0.25
309
CONTENTFORMAT_END
171
     0
 94
        0
309
TABLEFORMAT_END
  1
CELLSTYLE_BEGIN
 90
        1
 91
        1
300
_TITLE
309
CELLSTYLE_END
300
CELLSTYLE
  1
TABLEFORMAT_BEGIN
 90
        5
170
     1
 91
        0
 92
        0
 62
   257
 93
        1
300
CONTENTFORMAT
  1
CONTENTFORMAT_BEGIN
 90
        0
 91
        0
 92
      512
 93
        0
300

 40
0.0
140
1.0
 94
        5
 62
     0
340
5D
144
0.18
309
CONTENTFORMAT_END
171
     0
 94
        0
309
TABLEFORMAT_END
  1
CELLSTYLE_BEGIN
 90
        2
 91
        1
300
_HEADER
309
CELLSTYLE_END
300
CELLSTYLE
  1
TABLEFORMAT_BEGIN
 90
        5
170
     1
 91
        0
 92
        0
 62
   257
 93
        1
300
CONTENTFORMAT
  1
CONTENTFORMAT_BEGIN
 90
        0
 91
        0
 92
      512
 93
        0
300

 40
0.0
140
1.0
 94
        2
 62
     0
340
5D
144
0.18
309
CONTENTFORMAT_END
171
     0
 94
        0
309
TABLEFORMAT_END
  1
CELLSTYLE_BEGIN
 90
        3
 91
        2
300
_DATA
309
CELLSTYLE_END
  0
ENDSEC
  0
EOF
