  0
SECTION
  2
HEADER
  9
$ACADVER
  1
AC1021
  9
$ACADMAINTVER
 70
    50
  9
$DWGCODEPAGE
  3
ANSI_1252
  9
$INSBASE
 10
0.0
 20
0.0
 30
0.0
  9
$EXTMIN
 10
-21.2887414199801
 20
-64.78946660298387
 30
-0.00000001
  9
$EXTMAX
 10
52.64219870570876
 20
29.35638755995827
 30
0.000000010254
  9
$LIMMIN
 10
-899.9919059237598
 20
-2723.456671526969
  9
$LIMMAX
 10
1993.708881477814
 20
1369.063013512401
  9
$ORTHOMODE
 70
     0
  9
$REGENMODE
 70
     1
  9
$FILLMODE
 70
     1
  9
$QTEXTMODE
 70
     0
  9
$MIRRTEXT
 70
     0
  9
$LTSCALE
 40
0.254
  9
$ATTMODE
 70
     1
  9
$TEXTSIZE
 40
1.75
  9
$TRACEWID
 40
0.05
  9
$TEXTSTYLE
  7
Standard
  9
$CLAYER
  8
0
  9
$CELTYPE
  6
ByLayer
  9
$CECOLOR
 62
   256
  9
$CELTSCALE
 40
1.0
  9
$DISPSILH
 70
     0
  9
$DIMSCALE
 40
1.0
  9
$DIMASZ
 40
0.18
  9
$DIMEXO
 40
0.0625
  9
$DIMDLI
 40
0.38
  9
$DIMRND
 40
0.0
  9
$DIMDLE
 40
0.0
  9
$DIMEXE
 40
0.18
  9
$DIMTP
 40
0.0
  9
$DIMTM
 40
0.0
  9
$DIMTXT
 40
55.11811023622048
  9
$DIMCEN
 40
0.09
  9
$DIMTSZ
 40
0.0
  9
$DIMTOL
 70
     0
  9
$DIMLIM
 70
     0
  9
$DIMTIH
 70
     1
  9
$DIMTOH
 70
     1
  9
$DIMSE1
 70
     0
  9
$DIMSE2
 70
     0
  9
$DIMTAD
 70
     0
  9
$DIMZIN
 70
     0
  9
$DIMBLK
  1

  9
$DIMASO
 70
     1
  9
$DIMSHO
 70
     1
  9
$DIMPOST
  1

  9
$DIMAPOST
  1

  9
$DIMALT
 70
     0
  9
$DIMALTD
 70
     2
  9
$DIMALTF
 40
25.4
  9
$DIMLFAC
 40
1.0
  9
$DIMTOFL
 70
     0
  9
$DIMTVP
 40
0.0
  9
$DIMTIX
 70
     0
  9
$DIMSOXD
 70
     0
  9
$DIMSAH
 70
     0
  9
$DIMBLK1
  1

  9
$DIMBLK2
  1

  9
$DIMSTYLE
  2
Standard
  9
$DIMCLRD
 70
     0
  9
$DIMCLRE
 70
     0
  9
$DIMCLRT
 70
     0
  9
$DIMTFAC
 40
1.0
  9
$DIMGAP
 40
0.09
  9
$DIMJUST
 70
     0
  9
$DIMSD1
 70
     0
  9
$DIMSD2
 70
     0
  9
$DIMTOLJ
 70
     1
  9
$DIMTZIN
 70
     0
  9
$DIMALTZ
 70
     0
  9
$DIMALTTZ
 70
     0
  9
$DIMUPT
 70
     0
  9
$DIMDEC
 70
     1
  9
$DIMTDEC
 70
     4
  9
$DIMALTU
 70
     2
  9
$DIMALTTD
 70
     2
  9
$DIMTXSTY
  7
Standard
  9
$DIMAUNIT
 70
     1
  9
$DIMADEC
 70
     0
  9
$DIMALTRND
 40
0.0
  9
$DIMAZIN
 70
     0
  9
$DIMDSEP
 70
    46
  9
$DIMATFIT
 70
     3
  9
$DIMFRAC
 70
     0
  9
$DIMLDRBLK
  1

  9
$DIMLUNIT
 70
     4
  9
$DIMLWD
 70
    -2
  9
$DIMLWE
 70
    -2
  9
$DIMTMOVE
 70
     0
  9
$DIMFXL
 40
1.0
  9
$DIMFXLON
 70
     0
  9
$DIMJOGANG
 40
0.7853981633974483
  9
$DIMTFILL
 70
     0
  9
$DIMTFILLCLR
 70
     0
  9
$DIMARCSYM
 70
     0
  9
$DIMLTYPE
  6

  9
$DIMLTEX1
  6

  9
$DIMLTEX2
  6

  9
$LUNITS
 70
     2
  9
$LUPREC
 70
     1
  9
$SKETCHINC
 40
0.1
  9
$FILLETRAD
 40
0.005
  9
$AUNITS
 70
     0
  9
$AUPREC
 70
     0
  9
$MENU
  1
.
  9
$ELEVATION
 40
0.0
  9
$PELEVATION
 40
0.0
  9
$THICKNESS
 40
0.0
  9
$LIMCHECK
 70
     0
  9
$CHAMFERA
 40
0.005
  9
$CHAMFERB
 40
0.005
  9
$CHAMFERC
 40
0.0
  9
$CHAMFERD
 40
0.0
  9
$SKPOLY
 70
     0
  9
$TDCREATE
 40
2458886.827314907
  9
$TDUCREATE
 40
2458886.785648241
  9
$TDUPDATE
 40
2458886.827314907
  9
$TDUUPDATE
 40
2458886.785648241
  9
$TDINDWG
 40
0.0000002778
  9
$TDUSRTIMER
 40
0.0000002778
  9
$USRTIMER
 70
     1
  9
$ANGBASE
 50
0.0
  9
$ANGDIR
 70
     0
  9
$PDMODE
 70
     0
  9
$PDSIZE
 40
0.0
  9
$PLINEWID
 40
0.0
  9
$SPLFRAME
 70
     0
  9
$SPLINETYPE
 70
     6
  9
$SPLINESEGS
 70
     8
  9
$HANDSEED
  5
5A9
  9
$SURFTAB1
 70
     6
  9
$SURFTAB2
 70
     6
  9
$SURFTYPE
 70
     6
  9
$SURFU
 70
     6
  9
$SURFV
 70
     6
  9
$UCSBASE
  2

  9
$UCSNAME
  2

  9
$UCSORG
 10
0.0
 20
0.0
 30
0.0
  9
$UCSXDIR
 10
1.0
 20
0.0
 30
0.0
  9
$UCSYDIR
 10
0.0
 20
1.0
 30
0.0
  9
$UCSORTHOREF
  2

  9
$UCSORTHOVIEW
 70
     0
  9
$UCSORGTOP
 10
0.0
 20
0.0
 30
0.0
  9
$UCSORGBOTTOM
 10
0.0
 20
0.0
 30
0.0
  9
$UCSORGLEFT
 10
0.0
 20
0.0
 30
0.0
  9
$UCSORGRIGHT
 10
0.0
 20
0.0
 30
0.0
  9
$UCSORGFRONT
 10
0.0
 20
0.0
 30
0.0
  9
$UCSORGBACK
 10
0.0
 20
0.0
 30
0.0
  9
$PUCSBASE
  2

  9
$PUCSNAME
  2

  9
$PUCSORG
 10
0.0
 20
0.0
 30
0.0
  9
$PUCSXDIR
 10
1.0
 20
0.0
 30
0.0
  9
$PUCSYDIR
 10
0.0
 20
1.0
 30
0.0
  9
$PUCSORTHOREF
  2

  9
$PUCSORTHOVIEW
 70
     0
  9
$PUCSORGTOP
 10
0.0
 20
0.0
 30
0.0
  9
$PUCSORGBOTTOM
 10
0.0
 20
0.0
 30
0.0
  9
$PUCSORGLEFT
 10
0.0
 20
0.0
 30
0.0
  9
$PUCSORGRIGHT
 10
0.0
 20
0.0
 30
0.0
  9
$PUCSORGFRONT
 10
0.0
 20
0.0
 30
0.0
  9
$PUCSORGBACK
 10
0.0
 20
0.0
 30
0.0
  9
$USERI1
 70
     0
  9
$USERI2
 70
     0
  9
$USERI3
 70
     0
  9
$USERI4
 70
     0
  9
$USERI5
 70
     0
  9
$USERR1
 40
0.0
  9
$USERR2
 40
0.0
  9
$USERR3
 40
0.0
  9
$USERR4
 40
0.0
  9
$USERR5
 40
0.0
  9
$WORLDVIEW
 70
     1
  9
$SHADEDGE
 70
     3
  9
$SHADEDIF
 70
    70
  9
$TILEMODE
 70
     1
  9
$MAXACTVP
 70
    64
  9
$PINSBASE
 10
0.0
 20
0.0
 30
0.0
  9
$PLIMCHECK
 70
     0
  9
$PEXTMIN
 10
1.000000000000000E+20
 20
1.000000000000000E+20
 30
1.000000000000000E+20
  9
$PEXTMAX
 10
-1.000000000000000E+20
 20
-1.000000000000000E+20
 30
-1.000000000000000E+20
  9
$PLIMMIN
 10
0.0
 20
0.0
  9
$PLIMMAX
 10
12.0
 20
9.0
  9
$UNITMODE
 70
     0
  9
$VISRETAIN
 70
     1
  9
$PLINEGEN
 70
     0
  9
$PSLTSCALE
 70
     1
  9
$TREEDEPTH
 70
  3020
  9
$CMLSTYLE
  2
Standard
  9
$CMLJUST
 70
     0
  9
$CMLSCALE
 40
1.0
  9
$PROXYGRAPHICS
 70
     1
  9
$MEASUREMENT
 70
     1
  9
$CELWEIGHT
370
    -1
  9
$ENDCAPS
280
     0
  9
$JOINSTYLE
280
     0
  9
$LWDISPLAY
290
     0
  9
$INSUNITS
 70
     0
  9
$HYPERLINKBASE
  1

  9
$STYLESHEET
  1

  9
$XEDIT
290
     1
  9
$CEPSNTYPE
380
     0
  9
$PSTYLEMODE
290
     1
  9
$FINGERPRINTGUID
  2
{BC8361B1-4CD4-4EEB-9C2F-E37E0C070F78}
  9
$VERSIONGUID
  2
{F2297170-0BE6-4E5A-896F-6C9BC345B29F}
  9
$EXTNAMES
290
     1
  9
$PSVPSCALE
 40
0.0
  9
$OLESTARTUP
290
     0
  9
$SORTENTS
280
   127
  9
$INDEXCTL
280
     0
  9
$HIDETEXT
280
     1
  9
$XCLIPFRAME
290
     0
  9
$HALOGAP
280
     0
  9
$OBSCOLOR
 70
   257
  9
$OBSLTYPE
280
     0
  9
$INTERSECTIONDISPLAY
280
     0
  9
$INTERSECTIONCOLOR
 70
   257
  9
$DIMASSOC
280
     2
  9
$PROJECTNAME
  1

  9
$CAMERADISPLAY
290
     0
  9
$LENSLENGTH
 40
50.0
  9
$CAMERAHEIGHT
 40
0.0
  9
$STEPSPERSEC
 40
2.0
  9
$STEPSIZE
 40
6.0
  9
$3DDWFPREC
 40
2.0
  9
$PSOLWIDTH
 40
0.25
  9
$PSOLHEIGHT
 40
4.0
  9
$LOFTANG1
 40
1.570796326794896
  9
$LOFTANG2
 40
1.570796326794896
  9
$LOFTMAG1
 40
0.0
  9
$LOFTMAG2
 40
0.0
  9
$LOFTPARAM
 70
     7
  9
$LOFTNORMALS
280
     1
  9
$LATITUDE
 40
37.795
  9
$LONGITUDE
 40
-122.394
  9
$NORTHDIRECTION
 40
0.0
  9
$TIMEZONE
 70
 -8000
  9
$LIGHTGLYPHDISPLAY
280
     1
  9
$TILEMODELIGHTSYNCH
280
     1
  9
$CMATERIAL
347
11
  9
$SOLIDHIST
280
     1
  9
$SHOWHIST
280
     1
  9
$DWFFRAME
280
     2
  9
$DGNFRAME
280
     0
  9
$REALWORLDSCALE
290
     1
  9
$INTERFERECOLOR
 62
     1
  9
$INTERFEREOBJVS
345
33
  9
$INTERFEREVPVS
346
30
  9
$CSHADOW
280
     0
  9
$SHADOWPLANELOCATION
 40
0.0
  0
ENDSEC
  0
SECTION
  2
CLASSES
  0
CLASS
  1
ACDBDICTIONARYWDFLT
  2
AcDbDictionaryWithDefault
  3
ObjectDBX Classes
 90
        0
 91
        1
280
     0
281
     0
  0
CLASS
  1
MATERIAL
  2
AcDbMaterial
  3
ObjectDBX Classes
 90
     1153
 91
        3
280
     0
281
     0
  0
CLASS
  1
VISUALSTYLE
  2
AcDbVisualStyle
  3
ObjectDBX Classes
 90
     4095
 91
       16
280
     0
281
     0
  0
CLASS
  1
SCALE
  2
AcDbScale
  3
ObjectDBX Classes
 90
     1153
 91
       33
280
     0
281
     0
  0
CLASS
  1
TABLESTYLE
  2
AcDbTableStyle
  3
ObjectDBX Classes
 90
     4095
 91
        1
280
     0
281
     0
  0
CLASS
  1
MLEADERSTYLE
  2
AcDbMLeaderStyle
  3
ACDB_MLEADERSTYLE_CLASS
 90
     4095
 91
        1
280
     0
281
     0
  0
CLASS
  1
DICTIONARYVAR
  2
AcDbDictionaryVar
  3
ObjectDBX Classes
 90
        0
 91
        3
280
     0
281
     0
  0
CLASS
  1
CELLSTYLEMAP
  2
AcDbCellStyleMap
  3
ObjectDBX Classes
 90
     1152
 91
        1
280
     0
281
     0
  0
ENDSEC
  0
SECTION
  2
TABLES
  0
TABLE
  2
VPORT
  5
8
330
0
100
AcDbSymbolTable
 70
     1
  0
VPORT
  5
5F
330
8
100
AcDbSymbolTableRecord
100
AcDbViewportTableRecord
  2
*Active
 70
     0
 10
0.0
 20
0.0
 11
1.0
 21
1.0
 12
96.86253481514757
 22
-2038.925164770768
 13
0.0
 23
0.0
 14
1.0
 24
1.0
 15
0.0
 25
0.0
 16
0.0
 26
0.0
 36
1.0
 17
0.0
 27
0.0
 37
0.0
 40
1369.063013512401
 41
1.456257938312752
 42
50.0
 43
0.0
 44
0.0
 50
0.0
 51
0.0
 71
     0
 72
   100
 73
     1
 74
     1
 75
     0
 76
     0
 77
     0
 78
     0
281
     0
 65
     1
110
0.0
120
0.0
130
0.0
111
1.0
121
0.0
131
0.0
112
0.0
122
1.0
132
0.0
 79
     0
146
0.0
 60
     3
 61
     5
292
     1
282
     1
141
0.0
142
0.0
 63
   250
421
  3355443
  0
ENDTAB
  0
TABLE
  2
LTYPE
  5
5
330
0
100
AcDbSymbolTable
 70
    40
  0
LTYPE
  5
63
330
5
100
AcDbSymbolTableRecord
100
AcDbLinetypeTableRecord
  2
ByBlock
 70
     0
  3

 72
    65
 73
     0
 40
0.0
  0
LTYPE
  5
64
330
5
100
AcDbSymbolTableRecord
100
AcDbLinetypeTableRecord
  2
ByLayer
 70
     0
  3

 72
    65
 73
     0
 40
0.0
  0
LTYPE
  5
65
330
5
100
AcDbSymbolTableRecord
100
AcDbLinetypeTableRecord
  2
Continuous
 70
     0
  3
Solid line
 72
    65
 73
     0
 40
0.0
  0
LTYPE
  5
7D
330
5
100
AcDbSymbolTableRecord
100
AcDbLinetypeTableRecord
  2
HIDDEN
 70
     0
  3
_ _ _ _ _ _ _ _ _ _ _ _ _ _ 
 72
    65
 73
     2
 40
0.009525
 49
0.00635
 74
     0
 49
-0.003175
 74
     0
  0
LTYPE
  5
7E
330
5
100
AcDbSymbolTableRecord
100
AcDbLinetypeTableRecord
  2
DASHED
 70
     0
  3
__ __ __ __ __ __ __ __ __ 
 72
    65
 73
     2
 40
0.01905
 49
0.0127
 74
     0
 49
-0.00635
 74
     0
  0
LTYPE
  5
7F
330
5
100
AcDbSymbolTableRecord
100
AcDbLinetypeTableRecord
  2
CENTER
 70
     0
  3
____ _ ____ _ ____ _ ____ _ 
 72
    65
 73
     4
 40
0.0508
 49
0.03175
 74
     0
 49
-0.00635
 74
     0
 49
0.00635
 74
     0
 49
-0.00635
 74
     0
  0
LTYPE
  5
80
330
5
100
AcDbSymbolTableRecord
100
AcDbLinetypeTableRecord
  2
PHANTOM
 70
     0
  3
_____ _ _ _____ _ _ _____ _ _ 
 72
    65
 73
     6
 40
0.0635
 49
0.03175
 74
     0
 49
-0.00635
 74
     0
 49
0.00635
 74
     0
 49
-0.00635
 74
     0
 49
0.00635
 74
     0
 49
-0.00635
 74
     0
  0
LTYPE
  5
81
330
5
100
AcDbSymbolTableRecord
100
AcDbLinetypeTableRecord
  2
DOT
 70
     0
  3
...........................
 72
    65
 73
     2
 40
0.00635
 49
0.0
 74
     0
 49
-0.00635
 74
     0
  0
LTYPE
  5
82
330
5
100
AcDbSymbolTableRecord
100
AcDbLinetypeTableRecord
  2
DASHDOT
 70
     0
  3
__ . __ . __ . __ . __ . __ . 
 72
    65
 73
     4
 40
0.0254
 49
0.0127
 74
     0
 49
-0.00635
 74
     0
 49
0.0
 74
     0
 49
-0.00635
 74
     0
  0
LTYPE
  5
83
330
5
100
AcDbSymbolTableRecord
100
AcDbLinetypeTableRecord
  2
DIVIDE
 70
     0
  3
__ . . __ . . __ . . __ . . 
 72
    65
 73
     6
 40
0.03175
 49
0.0127
 74
     0
 49
-0.00635
 74
     0
 49
0.0
 74
     0
 49
-0.00635
 74
     0
 49
0.0
 74
     0
 49
-0.00635
 74
     0
  0
LTYPE
  5
84
330
5
100
AcDbSymbolTableRecord
100
AcDbLinetypeTableRecord
  2
BORDER
 70
     0
  3
__ __ . __ __ . __ __ . __ __ .
 72
    65
 73
     6
 40
0.04445
 49
0.0127
 74
     0
 49
-0.00635
 74
     0
 49
0.0127
 74
     0
 49
-0.00635
 74
     0
 49
0.0
 74
     0
 49
-0.00635
 74
     0
  0
LTYPE
  5
85
330
5
100
AcDbSymbolTableRecord
100
AcDbLinetypeTableRecord
  2
BORDER2
 70
     0
  3
Border (.5x) __.__.__.__.__.__.
 72
    65
 73
     6
 40
0.875
 49
0.25
 74
     0
 49
-0.125
 74
     0
 49
0.25
 74
     0
 49
-0.125
 74
     0
 49
0.0
 74
     0
 49
-0.125
 74
     0
  0
LTYPE
  5
86
330
5
100
AcDbSymbolTableRecord
100
AcDbLinetypeTableRecord
  2
BORDERX2
 70
     0
  3
Border (2x) ____  ____  .  ____
 72
    65
 73
     6
 40
3.5
 49
1.0
 74
     0
 49
-0.5
 74
     0
 49
1.0
 74
     0
 49
-0.5
 74
     0
 49
0.0
 74
     0
 49
-0.5
 74
     0
  0
LTYPE
  5
87
330
5
100
AcDbSymbolTableRecord
100
AcDbLinetypeTableRecord
  2
CENTER2
 70
     0
  3
Center (.5x) ___ _ ___ _ ___ _ 
 72
    65
 73
     4
 40
1.125
 49
0.7500000000000001
 74
     0
 49
-0.125
 74
     0
 49
0.125
 74
     0
 49
-0.125
 74
     0
  0
LTYPE
  5
88
330
5
100
AcDbSymbolTableRecord
100
AcDbLinetypeTableRecord
  2
CENTERX2
 70
     0
  3
Center (2x) ________  __  _____
 72
    65
 73
     4
 40
4.0
 49
2.5
 74
     0
 49
-0.5
 74
     0
 49
0.5
 74
     0
 49
-0.5
 74
     0
  0
LTYPE
  5
89
330
5
100
AcDbSymbolTableRecord
100
AcDbLinetypeTableRecord
  2
DASHDOT2
 70
     0
  3
Dash dot (.5x) _._._._._._._._.
 72
    65
 73
     4
 40
0.5
 49
0.25
 74
     0
 49
-0.125
 74
     0
 49
0.0
 74
     0
 49
-0.125
 74
     0
  0
LTYPE
  5
8A
330
5
100
AcDbSymbolTableRecord
100
AcDbLinetypeTableRecord
  2
DASHDOTX2
 70
     0
  3
Dash dot (2x) ____  .  ____  . 
 72
    65
 73
     4
 40
2.0
 49
1.0
 74
     0
 49
-0.5
 74
     0
 49
0.0
 74
     0
 49
-0.5
 74
     0
  0
LTYPE
  5
8B
330
5
100
AcDbSymbolTableRecord
100
AcDbLinetypeTableRecord
  2
DASHED2
 70
     0
  3
Dashed (.5x) _ _ _ _ _ _ _ _ _ 
 72
    65
 73
     2
 40
0.375
 49
0.25
 74
     0
 49
-0.125
 74
     0
  0
LTYPE
  5
8C
330
5
100
AcDbSymbolTableRecord
100
AcDbLinetypeTableRecord
  2
DASHEDX2
 70
     0
  3
Dashed (2x) ____  ____  ____  _
 72
    65
 73
     2
 40
1.5
 49
1.0
 74
     0
 49
-0.5
 74
     0
  0
LTYPE
  5
8D
330
5
100
AcDbSymbolTableRecord
100
AcDbLinetypeTableRecord
  2
DIVIDE2
 70
     0
  3
Divide (.5x) __..__..__..__..__
 72
    65
 73
     6
 40
0.625
 49
0.25
 74
     0
 49
-0.125
 74
     0
 49
0.0
 74
     0
 49
-0.125
 74
     0
 49
0.0
 74
     0
 49
-0.125
 74
     0
  0
LTYPE
  5
8E
330
5
100
AcDbSymbolTableRecord
100
AcDbLinetypeTableRecord
  2
DIVIDEX2
 70
     0
  3
Divide (2x) ________  .  .  ___
 72
    65
 73
     6
 40
2.5
 49
1.0
 74
     0
 49
-0.5
 74
     0
 49
0.0
 74
     0
 49
-0.5
 74
     0
 49
0.0
 74
     0
 49
-0.5
 74
     0
  0
LTYPE
  5
8F
330
5
100
AcDbSymbolTableRecord
100
AcDbLinetypeTableRecord
  2
DOT2
 70
     0
  3
Dot (.5x) .....................
 72
    65
 73
     2
 40
0.125
 49
0.0
 74
     0
 49
-0.125
 74
     0
  0
LTYPE
  5
90
330
5
100
AcDbSymbolTableRecord
100
AcDbLinetypeTableRecord
  2
DOTX2
 70
     0
  3
Dot (2x) .  .  .  .  .  .  .  .
 72
    65
 73
     2
 40
0.5
 49
0.0
 74
     0
 49
-0.5
 74
     0
  0
LTYPE
  5
91
330
5
100
AcDbSymbolTableRecord
100
AcDbLinetypeTableRecord
  2
HIDDEN2
 70
     0
  3
Hidden (.5x) _ _ _ _ _ _ _ _ _ 
 72
    65
 73
     2
 40
0.1875
 49
0.125
 74
     0
 49
-0.0625
 74
     0
  0
LTYPE
  5
92
330
5
100
AcDbSymbolTableRecord
100
AcDbLinetypeTableRecord
  2
HIDDENX2
 70
     0
  3
Hidden (2x) ____ ____ ____ ____
 72
    65
 73
     2
 40
0.75
 49
0.5
 74
     0
 49
-0.25
 74
     0
  0
LTYPE
  5
93
330
5
100
AcDbSymbolTableRecord
100
AcDbLinetypeTableRecord
  2
PHANTOM2
 70
     0
  3
Phantom (.5x) ___ _ _ ___ _ _ _
 72
    65
 73
     6
 40
1.25
 49
0.6250000000000001
 74
     0
 49
-0.125
 74
     0
 49
0.125
 74
     0
 49
-0.125
 74
     0
 49
0.125
 74
     0
 49
-0.125
 74
     0
  0
LTYPE
  5
94
330
5
100
AcDbSymbolTableRecord
100
AcDbLinetypeTableRecord
  2
PHANTOMX2
 70
     0
  3
Phantom (2x) ____________    __
 72
    65
 73
     6
 40
5.0
 49
2.5
 74
     0
 49
-0.5
 74
     0
 49
0.5
 74
     0
 49
-0.5
 74
     0
 49
0.5
 74
     0
 49
-0.5
 74
     0
  0
LTYPE
  5
95
330
5
100
AcDbSymbolTableRecord
100
AcDbLinetypeTableRecord
  2
DOTS
 70
     0
  3
Dots - - - - - - - - - - - - - 
 72
    65
 73
     2
 40
0.1
 49
0.05
 74
     0
 49
-0.05
 74
     0
  0
LTYPE
  5
96
330
5
100
AcDbSymbolTableRecord
100
AcDbLinetypeTableRecord
  2
ACAD_ISO02W100
 70
     0
  3
__ __ __ __ __ __ __ __ __ __ _
 72
    65
 73
     2
 40
15.0
 49
12.0
 74
     0
 49
-3.0
 74
     0
  0
LTYPE
  5
97
330
5
100
AcDbSymbolTableRecord
100
AcDbLinetypeTableRecord
  2
ACAD_ISO03W100
 70
     0
  3
__    __    __    __    __    _
 72
    65
 73
     2
 40
30.0
 49
12.0
 74
     0
 49
-18.0
 74
     0
  0
LTYPE
  5
98
330
5
100
AcDbSymbolTableRecord
100
AcDbLinetypeTableRecord
  2
ACAD_ISO04W100
 70
     0
  3
____ . ____ . ____ . ____ . ___
 72
    65
 73
     4
 40
30.5
 49
24.0
 74
     0
 49
-3.0
 74
     0
 49
0.5
 74
     0
 49
-3.0
 74
     0
  0
LTYPE
  5
99
330
5
100
AcDbSymbolTableRecord
100
AcDbLinetypeTableRecord
  2
ACAD_ISO05W100
 70
     0
  3
____ .. ____ .. ____ .. ____ ..
 72
    65
 73
     6
 40
34.0
 49
24.0
 74
     0
 49
-3.0
 74
     0
 49
0.5
 74
     0
 49
-3.0
 74
     0
 49
0.5
 74
     0
 49
-3.0
 74
     0
  0
LTYPE
  5
9A
330
5
100
AcDbSymbolTableRecord
100
AcDbLinetypeTableRecord
  2
ACAD_ISO06W100
 70
     0
  3
____ ... ____ ... ____ ... ____
 72
    65
 73
     6
 40
34.0
 49
24.0
 74
     0
 49
-3.0
 74
     0
 49
0.5
 74
     0
 49
-3.0
 74
     0
 49
0.5
 74
     0
 49
-3.0
 74
     0
  0
LTYPE
  5
9B
330
5
100
AcDbSymbolTableRecord
100
AcDbLinetypeTableRecord
  2
ACAD_ISO07W100
 70
     0
  3
. . . . . . . . . . . . . . . .
 72
    65
 73
     2
 40
3.5
 49
0.5
 74
     0
 49
-3.0
 74
     0
  0
LTYPE
  5
9C
330
5
100
AcDbSymbolTableRecord
100
AcDbLinetypeTableRecord
  2
ACAD_ISO08W100
 70
     0
  3
____ __ ____ __ ____ __ ____ __
 72
    65
 73
     4
 40
36.0
 49
24.0
 74
     0
 49
-3.0
 74
     0
 49
6.0
 74
     0
 49
-3.0
 74
     0
  0
LTYPE
  5
9D
330
5
100
AcDbSymbolTableRecord
100
AcDbLinetypeTableRecord
  2
ACAD_ISO09W100
 70
     0
  3
____ __ __ ____ __ __ ____ __ _
 72
    65
 73
     6
 40
45.0
 49
24.0
 74
     0
 49
-3.0
 74
     0
 49
6.0
 74
     0
 49
-3.0
 74
     0
 49
6.0
 74
     0
 49
-3.0
 74
     0
  0
LTYPE
  5
9E
330
5
100
AcDbSymbolTableRecord
100
AcDbLinetypeTableRecord
  2
ACAD_ISO10W100
 70
     0
  3
__ . __ . __ . __ . __ . __ . _
 72
    65
 73
     4
 40
18.5
 49
12.0
 74
     0
 49
-3.0
 74
     0
 49
0.5
 74
     0
 49
-3.0
 74
     0
  0
LTYPE
  5
9F
330
5
100
AcDbSymbolTableRecord
100
AcDbLinetypeTableRecord
  2
ACAD_ISO11W100
 70
     0
  3
__ __ . __ __ . __ __ . __ __ .
 72
    65
 73
     6
 40
33.5
 49
12.0
 74
     0
 49
-3.0
 74
     0
 49
12.0
 74
     0
 49
-3.0
 74
     0
 49
0.5
 74
     0
 49
-3.0
 74
     0
  0
LTYPE
  5
A0
330
5
100
AcDbSymbolTableRecord
100
AcDbLinetypeTableRecord
  2
ACAD_ISO12W100
 70
     0
  3
__ . . __ . . __ . . __ . . __ 
 72
    65
 73
     6
 40
22.0
 49
12.0
 74
     0
 49
-3.0
 74
     0
 49
0.5
 74
     0
 49
-3.0
 74
     0
 49
0.5
 74
     0
 49
-3.0
 74
     0
  0
LTYPE
  5
A1
330
5
100
AcDbSymbolTableRecord
100
AcDbLinetypeTableRecord
  2
ACAD_ISO13W100
 70
     0
  3
__ __ . . __ __ . . __ __ . . _
 72
    65
 73
     6
 40
33.5
 49
12.0
 74
     0
 49
-3.0
 74
     0
 49
12.0
 74
     0
 49
-3.0
 74
     0
 49
0.5
 74
     0
 49
-3.0
 74
     0
  0
LTYPE
  5
A2
330
5
100
AcDbSymbolTableRecord
100
AcDbLinetypeTableRecord
  2
ACAD_ISO14W100
 70
     0
  3
__ . . . __ . . . __ . . . __ .
 72
    65
 73
     6
 40
22.0
 49
12.0
 74
     0
 49
-3.0
 74
     0
 49
0.5
 74
     0
 49
-3.0
 74
     0
 49
0.5
 74
     0
 49
-3.0
 74
     0
  0
LTYPE
  5
A3
330
5
100
AcDbSymbolTableRecord
100
AcDbLinetypeTableRecord
  2
ACAD_ISO15W100
 70
     0
  3
__ __ . . . __ __ . . . __ __ .
 72
    65
 73
     6
 40
33.5
 49
12.0
 74
     0
 49
-3.0
 74
     0
 49
12.0
 74
     0
 49
-3.0
 74
     0
 49
0.5
 74
     0
 49
-3.0
 74
     0
  0
ENDTAB
  0
TABLE
  2
LAYER
  5
2
330
0
100
AcDbSymbolTable
 70
     6
  0
LAYER
  5
5C
330
2
100
AcDbSymbolTableRecord
100
AcDbLayerTableRecord
  2
0
 70
     0
 62
     7
  6
Continuous
370
    -3
390
F
347
21
  0
LAYER
  5
A4
330
2
100
AcDbSymbolTableRecord
100
AcDbLayerTableRecord
  2
GRUNDRISS
 70
     0
 62
     7
  6
Continuous
370
    -3
390
F
347
21
  0
LAYER
  5
A5
330
2
100
AcDbSymbolTableRecord
100
AcDbLayerTableRecord
  2
HALLE_0_1_EG
 70
     0
 62
     7
  6
Continuous
370
    -3
390
F
347
21
  0
LAYER
  5
A6
330
2
100
AcDbSymbolTableRecord
100
AcDbLayerTableRecord
  2
MOEBEL
 70
     0
 62
     5
  6
Continuous
370
    -3
390
F
347
21
  0
LAYER
  5
A7
330
2
100
AcDbSymbolTableRecord
100
AcDbLayerTableRecord
  2
SW_HALLENWAND
 70
     1
 62
    30
  6
Continuous
370
    -3
390
F
347
21
  0
LAYER
  5
A8
330
2
100
AcDbSymbolTableRecord
100
AcDbLayerTableRecord
  2
UMRISS10
 70
     0
 62
     4
  6
Continuous
370
    -3
390
F
347
21
  0
ENDTAB
  0
TABLE
  2
STYLE
  5
3
330
0
100
AcDbSymbolTable
 70
     7
  0
STYLE
  5
5D
330
3
100
AcDbSymbolTableRecord
100
AcDbTextStyleTableRecord
  2
Standard
 70
     0
 40
0.0
 41
1.0
 50
0.0
 71
     0
 42
1.75
  3
txt
  4

  0
STYLE
  5
62
330
3
100
AcDbSymbolTableRecord
100
AcDbTextStyleTableRecord
  2
Annotative
 70
     0
 40
0.0
 41
1.0
 50
0.0
 71
     0
 42
0.2
  3
txt
  4

1001
AcadAnnotative
1000
AnnotativeData
1002
{
1070
     1
1070
     1
1002
}
  0
STYLE
  5
A9
330
3
100
AcDbSymbolTableRecord
100
AcDbTextStyleTableRecord
  2
ITALIC
 70
     0
 40
0.0
 41
1.0
 50
0.0
 71
     0
 42
1.75
  3
ITALIC
  4

  0
STYLE
  5
AA
330
3
100
AcDbSymbolTableRecord
100
AcDbTextStyleTableRecord
  2
SIMPLEX
 70
     0
 40
0.0
 41
1.0
 50
0.0
 71
     0
 42
1.75
  3
SIMPLEX
  4

  0
STYLE
  5
AB
330
3
100
AcDbSymbolTableRecord
100
AcDbTextStyleTableRecord
  2
COMPLEX
 70
     0
 40
0.0
 41
1.0
 50
0.0
 71
     0
 42
1.75
  3
COMPLEX
  4

  0
STYLE
  5
15B
330
3
100
AcDbSymbolTableRecord
100
AcDbTextStyleTableRecord
  2
ARIALB
 70
     0
 40
0.0
 41
1.0
 50
0.0
 71
     0
 42
1.75
  3

  4

1001
ACAD
1000
Arial
1071
 33554432
  0
STYLE
  5
539
330
3
100
AcDbSymbolTableRecord
100
AcDbTextStyleTableRecord
  2
ARIAL
 70
     0
 40
0.0
 41
1.0
 50
0.0
 71
     0
 42
1.75
  3
arial.ttf
  4

1001
ACAD
1000
Arial
1071
        0
  0
ENDTAB
  0
TABLE
  2
VIEW
  5
6
330
0
100
AcDbSymbolTable
 70
     0
  0
ENDTAB
  0
TABLE
  2
UCS
  5
7
330
0
100
AcDbSymbolTable
 70
     0
  0
ENDTAB
  0
TABLE
  2
APPID
  5
9
330
0
100
AcDbSymbolTable
 70
     3
  0
APPID
  5
5E
330
9
100
AcDbSymbolTableRecord
100
AcDbRegAppTableRecord
  2
ACAD
 70
     0
  0
APPID
  5
66
330
9
100
AcDbSymbolTableRecord
100
AcDbRegAppTableRecord
  2
AcadAnnotative
 70
     0
  0
APPID
  5
70
330
9
100
AcDbSymbolTableRecord
100
AcDbRegAppTableRecord
  2
ACAD_MLEADERVER
 70
     0
  0
ENDTAB
  0
TABLE
  2
DIMSTYLE
  5
A
330
0
100
AcDbSymbolTable
 70
     2
100
AcDbDimStyleTable
 71
     0
  0
DIMSTYLE
105
60
330
A
100
AcDbSymbolTableRecord
100
AcDbDimStyleTableRecord
  2
Standard
 70
     0
340
5D
  0
DIMSTYLE
105
61
330
A
100
AcDbSymbolTableRecord
100
AcDbDimStyleTableRecord
  2
Annotative
 70
     0
340
5D
1001
AcadAnnotative
1000
AnnotativeData
1002
{
1070
     1
1070
     1
1002
}
  0
ENDTAB
  0
TABLE
  2
BLOCK_RECORD
  5
1
330
0
100
AcDbSymbolTable
 70
     2
  0
BLOCK_RECORD
  5
75
330
1
100
AcDbSymbolTableRecord
100
AcDbBlockTableRecord
  2
*Model_Space
340
78
 70
     0
280
     1
281
     0
  0
BLOCK_RECORD
  5
71
330
1
100
AcDbSymbolTableRecord
100
AcDbBlockTableRecord
  2
*Paper_Space
340
74
 70
     0
280
     1
281
     0
  0
BLOCK_RECORD
  5
79
330
1
100
AcDbSymbolTableRecord
100
AcDbBlockTableRecord
  2
*Paper_Space0
340
7C
 70
     0
280
     1
281
     0
  0
BLOCK_RECORD
  5
540
330
1
100
AcDbSymbolTableRecord
100
AcDbBlockTableRecord
  2
LONGARROW
340
0
102
{BLKREFS
331
545
331
546
331
54C
331
54D
331
553
331
554
331
55A
331
55B
331
561
331
562
331
568
331
569
331
56F
331
570
102
}
 70
     0
280
     1
281
     0
  0
ENDTAB
  0
ENDSEC
  0
SECTION
  2
BLOCKS
  0
BLOCK
  5
76
330
75
100
AcDbEntity
  8
0
100
AcDbBlockBegin
  2
*Model_Space
 70
     0
 10
0.0
 20
0.0
 30
0.0
  3
*Model_Space
  1

  0
ENDBLK
  5
77
330
75
100
AcDbEntity
  8
0
100
AcDbBlockEnd
  0
BLOCK
  5
72
330
71
100
AcDbEntity
 67
     1
  8
0
100
AcDbBlockBegin
  2
*Paper_Space
 70
     0
 10
0.0
 20
0.0
 30
0.0
  3
*Paper_Space
  1

  0
ENDBLK
  5
73
330
71
100
AcDbEntity
 67
     1
  8
0
100
AcDbBlockEnd
  0
BLOCK
  5
7A
330
79
100
AcDbEntity
 67
     1
  8
0
100
AcDbBlockBegin
  2
*Paper_Space0
 70
     0
 10
0.0
 20
0.0
 30
0.0
  3
*Paper_Space0
  1

  0
ENDBLK
  5
7B
330
79
100
AcDbEntity
 67
     1
  8
0
100
AcDbBlockEnd
  0
BLOCK
  5
543
330
540
100
AcDbEntity
  8
0
100
AcDbBlockBegin
  2
LONGARROW
 70
     0
 10
0.0
 20
0.0
 30
0.0
  3
LONGARROW
  1

  0
LWPOLYLINE
  5
541
102
{ACAD_REACTORS
330
542
102
}
330
540
100
AcDbEntity
  8
0
  6
Continuous
 62
     0
100
AcDbPolyline
 90
        3
 70
     1
 43
0.0
 10
0.0
 20
0.0
 10
0.0508
 20
-0.00635
 10
0.0508
 20
0.00635
  0
HATCH
  5
542
330
540
100
AcDbEntity
  8
0
  6
Continuous
 62
     0
100
AcDbHatch
 10
0.0
 20
0.0
 30
0.0
210
0.0
220
0.0
230
1.0
  2
SOLID
 70
     1
 71
     1
 91
        1
 92
        1
 93
        3
 72
     1
 10
0.0
 20
0.0
 11
0.0508
 21
-0.00635
 72
     1
 10
0.0508
 20
-0.00635
 11
0.0508
 21
0.00635
 72
     1
 10
0.0508
 20
0.00635
 11
0.0
 21
0.0
 97
        1
330
541
 75
     0
 76
     1
 98
        1
 10
0.0
 20
0.0
450
        0
451
        0
460
0.0
461
0.0
452
        0
462
0.0
453
        0
470

  0
ENDBLK
  5
544
330
540
100
AcDbEntity
  8
0
100
AcDbBlockEnd
  0
ENDSEC
  0
SECTION
  2
ENTITIES
  0
LINE
  5
AC
330
75
100
AcDbEntity
  8
HALLE_0_1_EG
  6
Continuous
100
AcDbLine
 10
-16.45838712639342
 20
9.35638754995832
 30
0.0
 11
-16.45838712639342
 21
9.61638754995833
 31
0.0
  0
LINE
  5
AD
330
75
100
AcDbEntity
  8
HALLE_0_1_EG
  6
Continuous
100
AcDbLine
 10
-16.23838712639343
 20
9.35638754995832
 30
0.0
 11
-16.23838712639343
 21
9.61638754995833
 31
0.0
  0
LINE
  5
AE
330
75
100
AcDbEntity
  8
HALLE_0_1_EG
  6
Continuous
100
AcDbLine
 10
-16.23838712639343
 20
9.35638754995832
 30
0.0
 11
-16.45838712639342
 21
9.35638754995832
 31
0.0
  0
LINE
  5
AF
330
75
100
AcDbEntity
  8
HALLE_0_1_EG
  6
Continuous
100
AcDbLine
 10
43.32161287360674
 20
9.356387549958274
 30
0.0
 11
43.54161287360676
 21
9.356387549958274
 31
0.0
  0
LINE
  5
B0
330
75
100
AcDbEntity
  8
HALLE_0_1_EG
  6
Continuous
100
AcDbLine
 10
43.54161287360676
 20
9.616387549958274
 30
0.0
 11
43.54161287360676
 21
9.356387549958274
 31
0.0
  0
LINE
  5
B1
330
75
100
AcDbEntity
  8
HALLE_0_1_EG
  6
Continuous
100
AcDbLine
 10
43.32161287360674
 20
9.616387549958274
 30
0.0
 11
43.32161287360674
 21
9.356387549958274
 31
0.0
  0
LINE
  5
B2
330
75
100
AcDbEntity
  8
HALLE_0_1_EG
  6
Continuous
100
AcDbLine
 10
36.63061287360675
 20
9.606387549958276
 30
0.0
 11
36.63061287360675
 21
10.79638754995828
 31
0.0
  0
LINE
  5
B3
330
75
100
AcDbEntity
  8
HALLE_0_1_EG
  6
Continuous
100
AcDbLine
 10
36.78061287360674
 20
9.606387549958276
 30
0.0
 11
36.78061287360674
 21
10.94638754995828
 31
0.0
  0
LINE
  5
B4
330
75
100
AcDbEntity
  8
HALLE_0_1_EG
  6
Continuous
100
AcDbLine
 10
36.67061287360674
 20
9.37638754995827
 30
0.0
 11
30.05961287360674
 21
9.376387549958293
 31
0.0
  0
LINE
  5
B5
330
75
100
AcDbEntity
  8
HALLE_0_1_EG
  6
Continuous
100
AcDbLine
 10
32.22061287360674
 20
9.526387549958293
 30
0.0
 11
30.05961287360674
 21
9.526387549958293
 31
0.0
  0
LINE
  5
B6
330
75
100
AcDbEntity
  8
HALLE_0_1_EG
  6
Continuous
100
AcDbLine
 10
36.67061287360674
 20
9.52638754995827
 30
0.0
 11
32.37061287360675
 21
9.526387549958293
 31
0.0
  0
LINE
  5
B7
330
75
100
AcDbEntity
  8
HALLE_0_1_EG
  6
Continuous
100
AcDbLine
 10
40.4216128736067
 20
-32.34361245004173
 30
0.0
 11
40.4216128736067
 21
-32.64361245004173
 31
0.0
  0
LINE
  5
B8
330
75
100
AcDbEntity
  8
HALLE_0_1_EG
  6
Continuous
100
AcDbLine
 10
43.54161287360671
 20
-32.64361245004174
 30
0.0
 11
40.4216128736067
 21
-32.64361245004173
 31
0.0
  0
LINE
  5
B9
330
75
100
AcDbEntity
  8
HALLE_0_1_EG
  6
Continuous
100
AcDbLine
 10
43.24161287360671
 20
-32.34361245004173
 30
0.0
 11
40.4216128736067
 21
-32.34361245004173
 31
0.0
  0
LINE
  5
BA
330
75
100
AcDbEntity
  8
HALLE_0_1_EG
  6
Continuous
100
AcDbLine
 10
-5.20838712639343
 20
-32.34361245004168
 30
0.0
 11
-5.20838712639343
 21
-32.64361245004169
 31
0.0
  0
LINE
  5
BB
330
75
100
AcDbEntity
  8
HALLE_0_1_EG
  6
Continuous
100
AcDbLine
 10
37.42161287360671
 20
-32.64361245004172
 30
0.0
 11
-5.20838712639343
 21
-32.64361245004169
 31
0.0
  0
LINE
  5
BC
330
75
100
AcDbEntity
  8
HALLE_0_1_EG
  6
Continuous
100
AcDbLine
 10
37.42161287360671
 20
-32.34361245004172
 30
0.0
 11
-5.20838712639343
 21
-32.34361245004168
 31
0.0
  0
LINE
  5
BD
330
75
100
AcDbEntity
  8
HALLE_0_1_EG
  6
Continuous
100
AcDbLine
 10
37.42161287360671
 20
-32.34361245004172
 30
0.0
 11
37.42161287360671
 21
-32.64361245004172
 31
0.0
  0
LINE
  5
BE
330
75
100
AcDbEntity
  8
HALLE_0_1_EG
  6
Continuous
100
AcDbLine
 10
-8.208387126393475
 20
-32.64361245004169
 30
0.0
 11
-16.45838712639347
 21
-32.64361245004167
 31
0.0
  0
LINE
  5
BF
330
75
100
AcDbEntity
  8
HALLE_0_1_EG
  6
Continuous
100
AcDbLine
 10
-8.208387126393475
 20
-32.34361245004168
 30
0.0
 11
-16.15838712639347
 21
-32.34361245004166
 31
0.0
  0
LINE
  5
C0
330
75
100
AcDbEntity
  8
HALLE_0_1_EG
  6
Continuous
100
AcDbLine
 10
-8.208387126393475
 20
-32.34361245004168
 30
0.0
 11
-8.208387126393475
 21
-32.64361245004169
 31
0.0
  0
LINE
  5
C1
330
75
100
AcDbEntity
  8
HALLE_0_1_EG
  6
Continuous
100
AcDbLine
 10
-16.15838712639346
 20
-10.14361245004168
 30
0.0
 11
-16.15838712639342
 21
4.406387549958325
 31
0.0
  0
LINE
  5
C2
330
75
100
AcDbEntity
  8
HALLE_0_1_EG
  6
Continuous
100
AcDbLine
 10
-16.45838712639342
 20
5.676387549958314
 30
0.0
 11
-16.45838712639342
 21
7.356387549958314
 31
0.0
  0
LINE
  5
C3
330
75
100
AcDbEntity
  8
HALLE_0_1_EG
  6
Continuous
100
AcDbLine
 10
-16.15838712639342
 20
5.676387549958314
 30
0.0
 11
-16.15838712639342
 21
7.056387549958324
 31
0.0
  0
LINE
  5
C4
330
75
100
AcDbEntity
  8
HALLE_0_1_EG
  6
Continuous
100
AcDbLine
 10
-9.508387126393445
 20
7.056387549958312
 30
0.0
 11
-9.508387126393445
 21
7.356387549958314
 31
0.0
  0
LINE
  5
C5
330
75
100
AcDbEntity
  8
HALLE_0_1_EG
  6
Continuous
100
AcDbLine
 10
-16.45838712639342
 20
7.356387549958314
 30
0.0
 11
-9.508387126393445
 21
7.356387549958314
 31
0.0
  0
LINE
  5
C6
330
75
100
AcDbEntity
  8
HALLE_0_1_EG
  6
Continuous
100
AcDbLine
 10
-10.93838712639344
 20
7.056387549958312
 30
0.0
 11
-9.508387126393445
 21
7.056387549958312
 31
0.0
  0
LINE
  5
C7
330
75
100
AcDbEntity
  8
HALLE_0_1_EG
  6
Continuous
100
AcDbLine
 10
-16.15838712639342
 20
7.056387549958324
 30
0.0
 11
-11.08838712639343
 21
7.056387549958312
 31
0.0
  0
LINE
  5
C8
330
75
100
AcDbEntity
  8
HALLE_0_1_EG
  6
Continuous
100
AcDbLine
 10
37.54161287360676
 20
7.056387549958277
 30
0.0
 11
37.54161287360676
 21
7.356387549958268
 31
0.0
  0
LINE
  5
C9
330
75
100
AcDbEntity
  8
HALLE_0_1_EG
  6
Continuous
100
AcDbLine
 10
-6.508387126393389
 20
7.356387549958314
 30
0.0
 11
37.54161287360676
 21
7.356387549958268
 31
0.0
  0
LINE
  5
CA
330
75
100
AcDbEntity
  8
HALLE_0_1_EG
  6
Continuous
100
AcDbLine
 10
-6.508387126393389
 20
7.056387549958312
 30
0.0
 11
37.54161287360676
 21
7.056387549958277
 31
0.0
  0
LINE
  5
CB
330
75
100
AcDbEntity
  8
HALLE_0_1_EG
  6
Continuous
100
AcDbLine
 10
-6.508387126393389
 20
7.056387549958312
 30
0.0
 11
-6.508387126393389
 21
7.356387549958314
 31
0.0
  0
LINE
  5
CC
330
75
100
AcDbEntity
  8
HALLE_0_1_EG
  6
Continuous
100
AcDbLine
 10
40.54161287360673
 20
7.356387549958268
 30
0.0
 11
43.54161287360674
 21
7.356387549958268
 31
0.0
  0
LINE
  5
CD
330
75
100
AcDbEntity
  8
HALLE_0_1_EG
  6
Continuous
100
AcDbLine
 10
40.54161287360673
 20
7.056387549958277
 30
0.0
 11
43.24161287360674
 21
7.056387549958266
 31
0.0
  0
LINE
  5
CE
330
75
100
AcDbEntity
  8
HALLE_0_1_EG
  6
Continuous
100
AcDbLine
 10
40.54161287360673
 20
7.056387549958277
 30
0.0
 11
40.54161287360673
 21
7.356387549958268
 31
0.0
  0
LINE
  5
CF
330
75
100
AcDbEntity
  8
HALLE_0_1_EG
  6
Continuous
100
AcDbLine
 10
43.54161287360674
 20
7.356387549958268
 30
0.0
 11
43.54161287360672
 21
-10.14361245004172
 31
0.0
  0
LINE
  5
D0
330
75
100
AcDbEntity
  8
HALLE_0_1_EG
  6
Continuous
100
AcDbLine
 10
43.24161287360674
 20
7.056387549958266
 30
0.0
 11
43.24161287360673
 21
-10.14361245004172
 31
0.0
  0
LINE
  5
D1
330
75
100
AcDbEntity
  8
HALLE_0_1_EG
  6
Continuous
100
AcDbLine
 10
43.54161287360672
 20
-15.14361245004172
 30
0.0
 11
43.54161287360671
 21
-32.64361245004174
 31
0.0
  0
LINE
  5
D2
330
75
100
AcDbEntity
  8
HALLE_0_1_EG
  6
Continuous
100
AcDbLine
 10
43.24161287360673
 20
-15.14361245004172
 30
0.0
 11
43.24161287360671
 21
-32.34361245004173
 31
0.0
  0
LINE
  5
D3
330
75
100
AcDbEntity
  8
HALLE_0_1_EG
  6
Continuous
100
AcDbLine
 10
44.14161287360673
 20
1.056387549958267
 30
0.0
 11
44.14161287360673
 21
6.256387549958263
 31
0.0
  0
LINE
  5
D4
330
75
100
AcDbEntity
  8
HALLE_0_1_EG
  6
Continuous
100
AcDbLine
 10
44.14161287360673
 20
6.256387549958263
 30
0.0
 11
43.54161287360674
 21
5.996387549958264
 31
0.0
  0
LINE
  5
D5
330
75
100
AcDbEntity
  8
HALLE_0_1_EG
  6
Continuous
100
AcDbLine
 10
44.14161287360673
 20
6.256387549958263
 30
0.0
 11
44.74161287360675
 21
5.996387549958264
 31
0.0
  0
LINE
  5
D6
330
75
100
AcDbEntity
  8
HALLE_0_1_EG
  6
Continuous
100
AcDbLine
 10
-13.16838712639342
 20
7.056387549958312
 30
0.0
 11
-13.16838712639342
 21
5.988733831915879
 31
0.0
  0
LINE
  5
D7
330
75
100
AcDbEntity
  8
HALLE_0_1_EG
  6
Continuous
100
AcDbLine
 10
-13.43838712639344
 20
7.056387549958312
 30
0.0
 11
-13.16838712639342
 21
7.056387549958312
 31
0.0
  0
LINE
  5
D8
330
75
100
AcDbEntity
  8
HALLE_0_1_EG
  6
Continuous
100
AcDbLine
 10
-13.43838712639344
 20
5.856387549958308
 30
0.0
 11
-13.43838712639344
 21
7.056387549958312
 31
0.0
  0
LINE
  5
D9
330
75
100
AcDbEntity
  8
HALLE_0_1_EG
  6
Continuous
100
AcDbLine
 10
-12.89838712639345
 20
7.056387549958312
 30
0.0
 11
-12.89838712639345
 21
6.45638754995831
 31
0.0
  0
LINE
  5
DA
330
75
100
AcDbEntity
  8
HALLE_0_1_EG
  6
Continuous
100
AcDbLine
 10
-13.16838712639342
 20
7.056387549958312
 30
0.0
 11
-12.89838712639345
 21
7.056387549958312
 31
0.0
  0
LINE
  5
DB
330
75
100
AcDbEntity
  8
HALLE_0_1_EG
  6
Continuous
100
AcDbLine
 10
-12.62838712639343
 20
7.056387549958312
 30
0.0
 11
-12.62838712639343
 21
5.856387549958308
 31
0.0
  0
LINE
  5
DC
330
75
100
AcDbEntity
  8
HALLE_0_1_EG
  6
Continuous
100
AcDbLine
 10
-12.89838712639345
 20
7.056387549958312
 30
0.0
 11
-12.62838712639343
 21
7.056387549958312
 31
0.0
  0
LINE
  5
DD
330
75
100
AcDbEntity
  8
HALLE_0_1_EG
  6
Continuous
100
AcDbLine
 10
-14.78838712639343
 20
6.45638754995831
 30
0.0
 11
-14.51838712639344
 21
7.056387549958312
 31
0.0
  0
LINE
  5
DE
330
75
100
AcDbEntity
  8
HALLE_0_1_EG
  6
Continuous
100
AcDbLine
 10
43.54161287360676
 20
16.35638754995827
 30
0.0
 11
43.22161287360673
 21
16.35638754995827
 31
0.0
  0
LINE
  5
DF
330
75
100
AcDbEntity
  8
HALLE_0_1_EG
  6
Continuous
100
AcDbLine
 10
43.22161287360673
 20
9.616387549958274
 30
0.0
 11
43.22161287360673
 21
16.35638754995827
 31
0.0
  0
LINE
  5
E0
330
75
100
AcDbEntity
  8
HALLE_0_1_EG
  6
Continuous
100
AcDbLine
 10
43.54161287360676
 20
9.616387549958274
 30
0.0
 11
43.54161287360676
 21
16.35638754995827
 31
0.0
  0
LINE
  5
E1
330
75
100
AcDbEntity
  8
HALLE_0_1_EG
  6
Continuous
100
AcDbLine
 10
43.22161287360676
 20
23.19638754995829
 30
0.0
 11
43.22161287360676
 21
27.10638754995827
 31
0.0
  0
LINE
  5
E2
330
75
100
AcDbEntity
  8
HALLE_0_1_EG
  6
Continuous
100
AcDbLine
 10
43.54161287360676
 20
20.35638754995829
 30
0.0
 11
43.54161287360676
 21
27.35638754995827
 31
0.0
  0
LINE
  5
E3
330
75
100
AcDbEntity
  8
HALLE_0_1_EG
  6
Continuous
100
AcDbLine
 10
43.22161287360676
 20
20.35638754995829
 30
0.0
 11
43.22161287360676
 21
23.0463875499583
 31
0.0
  0
LINE
  5
E4
330
75
100
AcDbEntity
  8
HALLE_0_1_EG
  6
Continuous
100
AcDbLine
 10
43.54161287360676
 20
20.35638754995829
 30
0.0
 11
43.22161287360676
 21
20.35638754995829
 31
0.0
  0
LINE
  5
E5
330
75
100
AcDbEntity
  8
HALLE_0_1_EG
  6
Continuous
100
AcDbLine
 10
33.97511287360677
 20
27.35638754995827
 30
0.0
 11
33.97511287360677
 21
27.0363875499583
 31
0.0
  0
LINE
  5
E6
330
75
100
AcDbEntity
  8
HALLE_0_1_EG
  6
Continuous
100
AcDbLine
 10
38.16161287360676
 20
27.0363875499583
 30
0.0
 11
33.97511287360677
 21
27.0363875499583
 31
0.0
  0
LINE
  5
E7
330
75
100
AcDbEntity
  8
HALLE_0_1_EG
  6
Continuous
100
AcDbLine
 10
43.54161287360676
 20
27.35638754995827
 30
0.0
 11
33.97511287360677
 21
27.35638754995827
 31
0.0
  0
LINE
  5
E8
330
75
100
AcDbEntity
  8
HALLE_0_1_EG
  6
Continuous
100
AcDbLine
 10
40.20411287360676
 20
27.0363875499583
 30
0.0
 11
38.46161287360676
 21
27.0363875499583
 31
0.0
  0
LINE
  5
E9
330
75
100
AcDbEntity
  8
HALLE_0_1_EG
  6
Continuous
100
AcDbLine
 10
43.29161287360675
 20
27.0363875499583
 30
0.0
 11
40.35411287360676
 21
27.0363875499583
 31
0.0
  0
LINE
  5
EA
330
75
100
AcDbEntity
  8
HALLE_0_1_EG
  6
Continuous
100
AcDbLine
 10
8.931112873606567
 20
27.35638754995827
 30
0.0
 11
8.931112873606567
 21
27.0363875499583
 31
0.0
  0
LINE
  5
EB
330
75
100
AcDbEntity
  8
HALLE_0_1_EG
  6
Continuous
100
AcDbLine
 10
32.77511287360676
 20
27.35638754995827
 30
0.0
 11
8.931112873606567
 21
27.35638754995827
 31
0.0
  0
LINE
  5
EC
330
75
100
AcDbEntity
  8
HALLE_0_1_EG
  6
Continuous
100
AcDbLine
 10
32.77511287360676
 20
27.35638754995827
 30
0.0
 11
32.77511287360676
 21
27.0363875499583
 31
0.0
  0
LINE
  5
ED
330
75
100
AcDbEntity
  8
HALLE_0_1_EG
  6
Continuous
100
AcDbLine
 10
4.931112873606602
 20
27.0363875499583
 30
0.0
 11
-12.96795440894671
 21
27.03638754995834
 31
0.0
  0
LINE
  5
EE
330
75
100
AcDbEntity
  8
HALLE_0_1_EG
  6
Continuous
100
AcDbLine
 10
4.931112873606602
 20
27.35638754995827
 30
0.0
 11
-12.96795440894671
 21
27.35638754995833
 31
0.0
  0
LINE
  5
EF
330
75
100
AcDbEntity
  8
HALLE_0_1_EG
  6
Continuous
100
AcDbLine
 10
4.931112873606602
 20
27.35638754995827
 30
0.0
 11
4.931112873606602
 21
27.0363875499583
 31
0.0
  0
LINE
  5
F0
330
75
100
AcDbEntity
  8
HALLE_0_1_EG
  6
Continuous
100
AcDbLine
 10
-15.07938712639342
 20
27.03638754995834
 30
0.0
 11
-16.13838712639342
 21
27.03638754995834
 31
0.0
  0
LINE
  5
F1
330
75
100
AcDbEntity
  8
HALLE_0_1_EG
  6
Continuous
100
AcDbLine
 10
-15.07938712639342
 20
27.35638754995834
 30
0.0
 11
-16.45838712639341
 21
27.35638754995834
 31
0.0
  0
LINE
  5
F2
330
75
100
AcDbEntity
  8
HALLE_0_1_EG
  6
Continuous
100
AcDbLine
 10
-15.07938712639342
 20
27.35638754995834
 30
0.0
 11
-15.07938712639342
 21
27.03638754995834
 31
0.0
  0
LINE
  5
F3
330
75
100
AcDbEntity
  8
HALLE_0_1_EG
  6
Continuous
100
AcDbLine
 10
-16.45838712639342
 20
20.35638754995836
 30
0.0
 11
-16.13838712639343
 21
20.35638754995836
 31
0.0
  0
LINE
  5
F4
330
75
100
AcDbEntity
  8
HALLE_0_1_EG
  6
Continuous
100
AcDbLine
 10
-16.13838712639342
 20
27.03638754995834
 30
0.0
 11
-16.13838712639343
 21
20.35638754995836
 31
0.0
  0
LINE
  5
F5
330
75
100
AcDbEntity
  8
HALLE_0_1_EG
  6
Continuous
100
AcDbLine
 10
-16.45838712639341
 20
27.35638754995834
 30
0.0
 11
-16.45838712639342
 21
20.35638754995836
 31
0.0
  0
LINE
  5
F6
330
75
100
AcDbEntity
  8
HALLE_0_1_EG
  6
Continuous
100
AcDbLine
 10
-16.13838712639343
 20
13.00650096682961
 30
0.0
 11
-16.13838712639343
 21
9.61638754995833
 31
0.0
  0
LINE
  5
F7
330
75
100
AcDbEntity
  8
HALLE_0_1_EG
  6
Continuous
100
AcDbLine
 10
-16.45838712639342
 20
16.35638754995832
 30
0.0
 11
-16.45838712639342
 21
9.61638754995833
 31
0.0
  0
LINE
  5
F8
330
75
100
AcDbEntity
  8
HALLE_0_1_EG
  6
Continuous
100
AcDbLine
 10
-16.13838712639343
 20
16.35638754995832
 30
0.0
 11
-16.13838712639343
 21
13.1565009668296
 31
0.0
  0
LINE
  5
F9
330
75
100
AcDbEntity
  8
HALLE_0_1_EG
  6
Continuous
100
AcDbLine
 10
-16.45838712639342
 20
16.35638754995832
 30
0.0
 11
-16.13838712639343
 21
16.35638754995832
 31
0.0
  0
LINE
  5
FA
330
75
100
AcDbEntity
  8
HALLE_0_1_EG
  6
Continuous
100
AcDbLine
 10
40.20411287360676
 20
24.69638754995827
 30
0.0
 11
40.35411287360676
 21
24.69638754995827
 31
0.0
  0
LINE
  5
FB
330
75
100
AcDbEntity
  8
HALLE_0_1_EG
  6
Continuous
100
AcDbLine
 10
40.35411287360676
 20
27.0363875499583
 30
0.0
 11
40.35411287360676
 21
24.69638754995827
 31
0.0
  0
LINE
  5
FC
330
75
100
AcDbEntity
  8
HALLE_0_1_EG
  6
Continuous
100
AcDbLine
 10
40.20411287360676
 20
27.0363875499583
 30
0.0
 11
40.20411287360676
 21
24.69638754995827
 31
0.0
  0
LINE
  5
FD
330
75
100
AcDbEntity
  8
HALLE_0_1_EG
  6
Continuous
100
AcDbLine
 10
40.35411287360676
 20
23.89638754995827
 30
0.0
 11
40.35411287360676
 21
23.19638754995829
 31
0.0
  0
LINE
  5
FE
330
75
100
AcDbEntity
  8
HALLE_0_1_EG
  6
Continuous
100
AcDbLine
 10
40.20411287360676
 20
23.89638754995827
 30
0.0
 11
40.20411287360676
 21
23.19638754995829
 31
0.0
  0
LINE
  5
FF
330
75
100
AcDbEntity
  8
HALLE_0_1_EG
  6
Continuous
100
AcDbLine
 10
40.20411287360676
 20
23.89638754995827
 30
0.0
 11
40.35411287360676
 21
23.89638754995827
 31
0.0
  0
LINE
  5
100
330
75
100
AcDbEntity
  8
HALLE_0_1_EG
  6
Continuous
100
AcDbLine
 10
42.99161287360675
 20
23.19638754995829
 30
0.0
 11
42.99161287360675
 21
23.0463875499583
 31
0.0
  0
LINE
  5
101
330
75
100
AcDbEntity
  8
HALLE_0_1_EG
  6
Continuous
100
AcDbLine
 10
43.22161287360676
 20
23.0463875499583
 30
0.0
 11
42.99161287360675
 21
23.0463875499583
 31
0.0
  0
LINE
  5
102
330
75
100
AcDbEntity
  8
HALLE_0_1_EG
  6
Continuous
100
AcDbLine
 10
43.22161287360676
 20
23.19638754995829
 30
0.0
 11
42.99161287360675
 21
23.19638754995829
 31
0.0
  0
LINE
  5
103
330
75
100
AcDbEntity
  8
HALLE_0_1_EG
  6
Continuous
100
AcDbLine
 10
40.09161287360675
 20
23.19638754995829
 30
0.0
 11
40.09161287360675
 21
23.0463875499583
 31
0.0
  0
LINE
  5
104
330
75
100
AcDbEntity
  8
HALLE_0_1_EG
  6
Continuous
100
AcDbLine
 10
40.59161287360675
 20
23.0463875499583
 30
0.0
 11
40.09161287360675
 21
23.0463875499583
 31
0.0
  0
LINE
  5
105
330
75
100
AcDbEntity
  8
HALLE_0_1_EG
  6
Continuous
100
AcDbLine
 10
40.20411287360676
 20
23.19638754995829
 30
0.0
 11
40.09161287360675
 21
23.19638754995829
 31
0.0
  0
LINE
  5
106
330
75
100
AcDbEntity
  8
HALLE_0_1_EG
  6
Continuous
100
AcDbLine
 10
40.59161287360675
 20
23.19638754995829
 30
0.0
 11
40.35411287360676
 21
23.19638754995829
 31
0.0
  0
LINE
  5
107
330
75
100
AcDbEntity
  8
HALLE_0_1_EG
  6
Continuous
100
AcDbLine
 10
40.59161287360675
 20
23.19638754995829
 30
0.0
 11
40.59161287360675
 21
23.0463875499583
 31
0.0
  0
LINE
  5
108
330
75
100
AcDbEntity
  8
HALLE_0_1_EG
  6
Continuous
100
AcDbLine
 10
38.31161287360677
 20
24.7963875499583
 30
0.0
 11
38.31161287360677
 21
23.19638754995829
 31
0.0
  0
LINE
  5
109
330
75
100
AcDbEntity
  8
HALLE_0_1_EG
  6
Continuous
100
AcDbLine
 10
38.16161287360676
 20
24.7963875499583
 30
0.0
 11
38.16161287360676
 21
23.21100019988051
 31
0.0
  0
LINE
  5
10A
330
75
100
AcDbEntity
  8
HALLE_0_1_EG
  6
Continuous
100
AcDbLine
 10
39.29161287360675
 20
23.0463875499583
 30
0.0
 11
38.16161287360676
 21
23.0463875499583
 31
0.0
  0
LINE
  5
10B
330
75
100
AcDbEntity
  8
HALLE_0_1_EG
  6
Continuous
100
AcDbLine
 10
39.29161287360675
 20
23.19638754995829
 30
0.0
 11
38.31161287360677
 21
23.19638754995829
 31
0.0
  0
LINE
  5
10C
330
75
100
AcDbEntity
  8
HALLE_0_1_EG
  6
Continuous
100
AcDbLine
 10
39.29161287360675
 20
23.19638754995829
 30
0.0
 11
39.29161287360675
 21
23.0463875499583
 31
0.0
  0
LINE
  5
10D
330
75
100
AcDbEntity
  8
HALLE_0_1_EG
  6
Continuous
100
AcDbLine
 10
38.46161287360676
 20
27.0363875499583
 30
0.0
 11
38.46161287360676
 21
24.7963875499583
 31
0.0
  0
LINE
  5
10E
330
75
100
AcDbEntity
  8
HALLE_0_1_EG
  6
Continuous
100
AcDbLine
 10
38.16161287360676
 20
27.0363875499583
 30
0.0
 11
38.16161287360676
 21
24.7963875499583
 31
0.0
  0
LINE
  5
10F
330
75
100
AcDbEntity
  8
HALLE_0_1_EG
  6
Continuous
100
AcDbLine
 10
38.46161287360676
 20
24.7963875499583
 30
0.0
 11
38.31161287360677
 21
24.7963875499583
 31
0.0
  0
ARC
  5
110
330
75
100
AcDbEntity
  8
HALLE_0_1_EG
  6
Continuous
100
AcDbCircle
 10
40.05411287360676
 20
24.83638754995829
 30
0.0
 40
0.8
100
AcDbArc
 50
90.0
 51
180.0
  0
LINE
  5
111
330
75
100
AcDbEntity
  8
HALLE_0_1_EG
  6
Continuous
100
AcDbLine
 10
40.05411287360676
 20
24.83638754995829
 30
0.0
 11
40.05411287360676
 21
25.63638754995827
 31
0.0
  0
CIRCLE
  5
112
330
75
100
AcDbEntity
  8
HALLE_0_1_EG
  6
Continuous
100
AcDbCircle
 10
38.73661287360676
 20
23.99638754995827
 30
0.0
 40
0.22
  0
CIRCLE
  5
113
330
75
100
AcDbEntity
  8
HALLE_0_1_EG
  6
Continuous
100
AcDbCircle
 10
38.73661287360676
 20
23.4763875499583
 30
0.0
 40
0.1
  0
ARC
  5
114
330
75
100
AcDbEntity
  8
HALLE_0_1_EG
  6
Continuous
100
AcDbCircle
 10
40.09161287360675
 20
23.19638754995829
 30
0.0
 40
0.8
100
AcDbArc
 50
90.0
 51
180.0
  0
LINE
  5
115
330
75
100
AcDbEntity
  8
HALLE_0_1_EG
  6
Continuous
100
AcDbLine
 10
40.09161287360675
 20
23.19638754995829
 30
0.0
 11
40.09161287360675
 21
23.99638754995827
 31
0.0
  0
LINE
  5
116
330
75
100
AcDbEntity
  8
HALLE_0_1_EG
  6
Continuous
100
AcDbLine
 10
40.35411287360676
 20
23.49638754995827
 30
0.0
 11
43.29161287360675
 21
23.49638754995827
 31
0.0
  0
LINE
  5
117
330
75
100
AcDbEntity
  8
HALLE_0_1_EG
  6
Continuous
100
AcDbLine
 10
42.99161287360675
 20
23.0463875499583
 30
0.0
 11
42.99161287360675
 21
22.94638754995829
 31
0.0
  0
LINE
  5
118
330
75
100
AcDbEntity
  8
HALLE_0_1_EG
  6
Continuous
100
AcDbLine
 10
42.99161287360675
 20
22.94638754995829
 30
0.0
 11
40.59161287360675
 21
22.94638754995829
 31
0.0
  0
LINE
  5
119
330
75
100
AcDbEntity
  8
HALLE_0_1_EG
  6
Continuous
100
AcDbLine
 10
40.59161287360675
 20
23.0463875499583
 30
0.0
 11
40.59161287360675
 21
22.94638754995829
 31
0.0
  0
ARC
  5
11A
330
75
100
AcDbEntity
  8
HALLE_0_1_EG
  6
Continuous
100
AcDbCircle
 10
40.35411287360676
 20
23.89638754995827
 30
0.0
 40
0.8
100
AcDbArc
 50
0.0
 51
90.0
  0
LINE
  5
11B
330
75
100
AcDbEntity
  8
HALLE_0_1_EG
  6
Continuous
100
AcDbLine
 10
40.35411287360676
 20
23.89638754995827
 30
0.0
 11
41.15411287360675
 21
23.89638754995827
 31
0.0
  0
ARC
  5
11C
330
75
100
AcDbEntity
  8
HALLE_0_1_EG
  6
Continuous
100
AcDbCircle
 10
32.82511287360676
 20
27.35638754995827
 30
0.0
 40
1.1
100
AcDbArc
 50
0.0
 51
90.0
  0
LINE
  5
11D
330
75
100
AcDbEntity
  8
HALLE_0_1_EG
  6
Continuous
100
AcDbLine
 10
32.82511287360676
 20
27.35638754995827
 30
0.0
 11
32.82511287360676
 21
28.45638754995827
 31
0.0
  0
LINE
  5
11E
330
75
100
AcDbEntity
  8
HALLE_0_1_EG
  6
Continuous
100
AcDbLine
 10
43.54161287360676
 20
16.35638754995827
 30
0.0
 11
43.54161287360676
 21
20.35638754995829
 31
0.0
  0
ARC
  5
11F
330
75
100
AcDbEntity
  8
HALLE_0_1_EG
  6
Continuous
100
AcDbCircle
 10
43.54161287360676
 20
16.35638754995827
 30
0.0
 40
1.999999999999999
100
AcDbArc
 50
270.0
 51
90.0
  0
LINE
  5
120
330
75
100
AcDbEntity
  8
HALLE_0_1_EG
  6
Continuous
100
AcDbLine
 10
43.54161287360676
 20
16.35638754995827
 30
0.0
 11
45.54161287360674
 21
16.35638754995825
 31
0.0
  0
ARC
  5
121
330
75
100
AcDbEntity
  8
HALLE_0_1_EG
  6
Continuous
100
AcDbCircle
 10
43.54161287360676
 20
20.35638754995829
 30
0.0
 40
1.999999999999999
100
AcDbArc
 50
270.0
 51
90.0
  0
LINE
  5
122
330
75
100
AcDbEntity
  8
HALLE_0_1_EG
  6
Continuous
100
AcDbLine
 10
43.54161287360676
 20
20.35638754995829
 30
0.0
 11
45.54161287360677
 21
20.35638754995827
 31
0.0
  0
LINE
  5
123
330
75
100
AcDbEntity
  8
HALLE_0_1_EG
  6
Continuous
100
AcDbLine
 10
43.54161287360674
 20
7.356387549958268
 30
0.0
 11
43.54161287360676
 21
9.606387549958252
 31
0.0
  0
LINE
  5
124
330
75
100
AcDbEntity
  8
HALLE_0_1_EG
  6
Continuous
100
AcDbLine
 10
43.54161287360676
 20
9.356387549958274
 30
0.0
 11
43.54161287360674
 21
7.356387549958268
 31
0.0
  0
ARC
  5
125
330
75
100
AcDbEntity
  8
HALLE_0_1_EG
  6
Continuous
100
AcDbCircle
 10
43.54161287360674
 20
7.406387549958267
 30
0.0
 40
0.9499999999999998
100
AcDbArc
 50
0.0
 51
90.0
  0
LINE
  5
126
330
75
100
AcDbEntity
  8
HALLE_0_1_EG
  6
Continuous
100
AcDbLine
 10
43.44961287360674
 20
7.406387549958267
 30
0.0
 11
44.49161287360673
 21
7.406387549958267
 31
0.0
  0
ARC
  5
127
330
75
100
AcDbEntity
  8
HALLE_0_1_EG
  6
Continuous
100
AcDbCircle
 10
43.54161287360676
 20
9.306387549958275
 30
0.0
 40
0.9499999999999998
100
AcDbArc
 50
270.0
 51
0.0
  0
LINE
  5
128
330
75
100
AcDbEntity
  8
HALLE_0_1_EG
  6
Continuous
100
AcDbLine
 10
43.45161287360673
 20
9.306387549958275
 30
0.0
 11
44.49161287360674
 21
9.306387549958275
 31
0.0
  0
LINE
  5
129
330
75
100
AcDbEntity
  8
HALLE_0_1_EG
  6
Continuous
100
AcDbLine
 10
40.54161287360673
 20
7.356387549958268
 30
0.0
 11
37.54161287360676
 21
7.356387549958268
 31
0.0
  0
ARC
  5
12A
330
75
100
AcDbEntity
  8
HALLE_0_1_EG
  6
Continuous
100
AcDbCircle
 10
37.54161287360676
 20
7.356387549958268
 30
0.0
 40
1.499999999999999
100
AcDbArc
 50
0.0
 51
180.0
  0
ARC
  5
12B
330
75
100
AcDbEntity
  8
HALLE_0_1_EG
  6
Continuous
100
AcDbCircle
 10
40.54161287360673
 20
7.356387549958268
 30
0.0
 40
1.499999999999999
100
AcDbArc
 50
0.0
 51
180.0
  0
LINE
  5
12C
330
75
100
AcDbEntity
  8
HALLE_0_1_EG
  6
Continuous
100
AcDbLine
 10
36.63061287360675
 20
10.79638754995828
 30
0.0
 11
32.37061287360675
 21
10.79638754995828
 31
0.0
  0
LINE
  5
12D
330
75
100
AcDbEntity
  8
HALLE_0_1_EG
  6
Continuous
100
AcDbLine
 10
36.78061287360674
 20
10.94638754995828
 30
0.0
 11
32.22061287360674
 21
10.94638754995829
 31
0.0
  0
LINE
  5
12E
330
75
100
AcDbEntity
  8
HALLE_0_1_EG
  6
Continuous
100
AcDbLine
 10
32.22061287360674
 20
10.46638754995829
 30
0.0
 11
32.37061287360675
 21
10.46638754995829
 31
0.0
  0
LINE
  5
12F
330
75
100
AcDbEntity
  8
HALLE_0_1_EG
  6
Continuous
100
AcDbLine
 10
32.37061287360675
 20
10.79638754995828
 30
0.0
 11
32.37061287360675
 21
10.46638754995829
 31
0.0
  0
LINE
  5
130
330
75
100
AcDbEntity
  8
HALLE_0_1_EG
  6
Continuous
100
AcDbLine
 10
32.22061287360674
 20
10.94638754995829
 30
0.0
 11
32.22061287360674
 21
10.46638754995829
 31
0.0
  0
LINE
  5
131
330
75
100
AcDbEntity
  8
HALLE_0_1_EG
  6
Continuous
100
AcDbLine
 10
32.37061287360675
 20
9.756387549958288
 30
0.0
 11
32.37061287360675
 21
9.526387549958293
 31
0.0
  0
LINE
  5
132
330
75
100
AcDbEntity
  8
HALLE_0_1_EG
  6
Continuous
100
AcDbLine
 10
32.22061287360674
 20
9.756387549958288
 30
0.0
 11
32.22061287360674
 21
9.526387549958293
 31
0.0
  0
LINE
  5
133
330
75
100
AcDbEntity
  8
HALLE_0_1_EG
  6
Continuous
100
AcDbLine
 10
32.22061287360674
 20
9.756387549958288
 30
0.0
 11
32.37061287360675
 21
9.756387549958288
 31
0.0
  0
ARC
  5
134
330
75
100
AcDbEntity
  8
HALLE_0_1_EG
  6
Continuous
100
AcDbCircle
 10
32.37061287360675
 20
10.46638754995829
 30
0.0
 40
0.71
100
AcDbArc
 50
270.0
 51
0.0
  0
LINE
  5
135
330
75
100
AcDbEntity
  8
HALLE_0_1_EG
  6
Continuous
100
AcDbLine
 10
33.08061287360674
 20
10.46638754995829
 30
0.0
 11
32.37061287360675
 21
10.46638754995829
 31
0.0
  0
LINE
  5
136
330
75
100
AcDbEntity
  8
HALLE_0_1_EG
  6
Continuous
100
AcDbLine
 10
8.931112873606567
 20
27.35638754995827
 30
0.0
 11
4.931112873606602
 21
27.35638754995827
 31
0.0
  0
ARC
  5
137
330
75
100
AcDbEntity
  8
HALLE_0_1_EG
  6
Continuous
100
AcDbCircle
 10
4.931112873606602
 20
27.35638754995827
 30
0.0
 40
1.999999999999999
100
AcDbArc
 50
0.0
 51
180.0
  0
ARC
  5
138
330
75
100
AcDbEntity
  8
HALLE_0_1_EG
  6
Continuous
100
AcDbCircle
 10
8.931112873606567
 20
27.35638754995827
 30
0.0
 40
1.999999999999999
100
AcDbArc
 50
0.0
 51
180.0
  0
LINE
  5
139
330
75
100
AcDbEntity
  8
HALLE_0_1_EG
  6
Continuous
100
AcDbLine
 10
4.931112873606602
 20
27.35638754995827
 30
0.0
 11
4.931112873606602
 21
29.35638754995828
 31
0.0
  0
LINE
  5
13A
330
75
100
AcDbEntity
  8
HALLE_0_1_EG
  6
Continuous
100
AcDbLine
 10
8.931112873606567
 20
27.35638754995827
 30
0.0
 11
8.931112873606567
 21
29.35638754995828
 31
0.0
  0
LINE
  5
13B
330
75
100
AcDbEntity
  8
HALLE_0_1_EG
  6
Continuous
100
AcDbLine
 10
-12.97424614380534
 20
27.03513070154775
 30
0.0
 11
-15.07938712639342
 21
27.03513070154775
 31
0.0
  0
LINE
  5
13C
330
75
100
AcDbEntity
  8
HALLE_0_1_EG
  6
Continuous
100
AcDbLine
 10
-16.1383871263934
 20
16.35638754995832
 30
0.0
 11
-16.1383871263934
 21
20.35638754995836
 31
0.0
  0
LINE
  5
13D
330
75
100
AcDbEntity
  8
HALLE_0_1_EG
  6
Continuous
100
AcDbLine
 10
40.54161287360673
 20
7.356387549958268
 30
0.0
 11
40.54161287360673
 21
8.856387549958272
 31
0.0
  0
LINE
  5
13E
330
75
100
AcDbEntity
  8
HALLE_0_1_EG
  6
Continuous
100
AcDbLine
 10
37.54161287360676
 20
7.356387549958268
 30
0.0
 11
37.54161287360676
 21
8.856387549958272
 31
0.0
  0
LINE
  5
13F
330
75
100
AcDbEntity
  8
HALLE_0_1_EG
  6
Continuous
100
AcDbLine
 10
-16.23838712639341
 20
7.356387549958314
 30
0.0
 11
-16.23838712639341
 21
9.35638754995832
 31
0.0
  0
LINE
  5
140
330
75
100
AcDbEntity
  8
HALLE_0_1_EG
  6
Continuous
100
AcDbLine
 10
-9.608387126398724
 20
13.15650096682959
 30
0.0
 11
-9.608387126398737
 21
9.61638754995832
 31
0.0
  0
LINE
  5
141
330
75
100
AcDbEntity
  8
HALLE_0_1_EG
  6
Continuous
100
AcDbLine
 10
-9.758387126398725
 20
13.00650096682961
 30
0.0
 11
-9.758387126398737
 21
9.766387549958331
 31
0.0
  0
LINE
  5
142
330
75
100
AcDbEntity
  8
HALLE_0_1_EG
  6
Continuous
100
AcDbLine
 10
-13.74138712639342
 20
13.15650096682959
 30
0.0
 11
-13.74138712639342
 21
13.00650096682961
 31
0.0
  0
LINE
  5
143
330
75
100
AcDbEntity
  8
HALLE_0_1_EG
  6
Continuous
100
AcDbLine
 10
-9.758387126398725
 20
13.00650096682961
 30
0.0
 11
-13.74138712639342
 21
13.00650096682961
 31
0.0
  0
LINE
  5
144
330
75
100
AcDbEntity
  8
HALLE_0_1_EG
  6
Continuous
100
AcDbLine
 10
-9.608387126398724
 20
13.15650096682959
 30
0.0
 11
-13.74138712639342
 21
13.15650096682959
 31
0.0
  0
LINE
  5
145
330
75
100
AcDbEntity
  8
HALLE_0_1_EG
  6
Continuous
100
AcDbLine
 10
-15.94138712639343
 20
13.00650096682961
 30
0.0
 11
-16.13838712639343
 21
13.00650096682961
 31
0.0
  0
LINE
  5
146
330
75
100
AcDbEntity
  8
HALLE_0_1_EG
  6
Continuous
100
AcDbLine
 10
-15.94138712639343
 20
13.1565009668296
 30
0.0
 11
-16.13838712639343
 21
13.1565009668296
 31
0.0
  0
LINE
  5
147
330
75
100
AcDbEntity
  8
HALLE_0_1_EG
  6
Continuous
100
AcDbLine
 10
-15.94138712639343
 20
13.1565009668296
 30
0.0
 11
-15.94138712639343
 21
13.00650096682961
 31
0.0
  0
LINE
  5
148
330
75
100
AcDbEntity
  8
HALLE_0_1_EG
  6
Continuous
100
AcDbLine
 10
40.4216128736067
 20
-32.64361245004173
 30
0.0
 11
37.42161287360671
 21
-32.64361245004172
 31
0.0
  0
ARC
  5
149
330
75
100
AcDbEntity
  8
HALLE_0_1_EG
  6
Continuous
100
AcDbCircle
 10
40.4216128736067
 20
-32.64361245004173
 30
0.0
 40
1.499999999999999
100
AcDbArc
 50
180.0
 51
0.0
  0
LINE
  5
14A
330
75
100
AcDbEntity
  8
HALLE_0_1_EG
  6
Continuous
100
AcDbLine
 10
40.4216128736067
 20
-32.64361245004173
 30
0.0
 11
40.42161287360669
 21
-34.14361245004173
 31
0.0
  0
ARC
  5
14B
330
75
100
AcDbEntity
  8
HALLE_0_1_EG
  6
Continuous
100
AcDbCircle
 10
37.42161287360671
 20
-32.64361245004172
 30
0.0
 40
1.499999999999999
100
AcDbArc
 50
180.0
 51
0.0
  0
LINE
  5
14C
330
75
100
AcDbEntity
  8
HALLE_0_1_EG
  6
Continuous
100
AcDbLine
 10
37.42161287360671
 20
-32.64361245004172
 30
0.0
 11
37.42161287360668
 21
-34.14361245004172
 31
0.0
  0
LINE
  5
14D
330
75
100
AcDbEntity
  8
HALLE_0_1_EG
  6
Continuous
100
AcDbLine
 10
-5.20838712639343
 20
-32.64361245004169
 30
0.0
 11
-8.208387126393475
 21
-32.64361245004169
 31
0.0
  0
ARC
  5
14E
330
75
100
AcDbEntity
  8
HALLE_0_1_EG
  6
Continuous
100
AcDbCircle
 10
-5.20838712639343
 20
-32.64361245004169
 30
0.0
 40
1.499999999999999
100
AcDbArc
 50
180.0
 51
0.0
  0
LINE
  5
14F
330
75
100
AcDbEntity
  8
HALLE_0_1_EG
  6
Continuous
100
AcDbLine
 10
-5.20838712639343
 20
-32.64361245004169
 30
0.0
 11
-5.20838712639343
 21
-34.14361245004169
 31
0.0
  0
ARC
  5
150
330
75
100
AcDbEntity
  8
HALLE_0_1_EG
  6
Continuous
100
AcDbCircle
 10
-8.208387126393475
 20
-32.64361245004169
 30
0.0
 40
1.499999999999999
100
AcDbArc
 50
180.0
 51
0.0
  0
LINE
  5
151
330
75
100
AcDbEntity
  8
HALLE_0_1_EG
  6
Continuous
100
AcDbLine
 10
-8.208387126393475
 20
-32.64361245004169
 30
0.0
 11
-8.208387126393475
 21
-34.14361245004169
 31
0.0
  0
LINE
  5
152
330
75
100
AcDbEntity
  8
HALLE_0_1_EG
  6
Continuous
100
AcDbLine
 10
-10.93838712639344
 20
7.056387549958312
 30
0.0
 11
-10.93838712639344
 21
4.406387549958314
 31
0.0
  0
LINE
  5
153
330
75
100
AcDbEntity
  8
HALLE_0_1_EG
  6
Continuous
100
AcDbLine
 10
-11.08838712639343
 20
7.056387549958312
 30
0.0
 11
-11.08838712639343
 21
4.556387549958314
 31
0.0
  0
LINE
  5
154
330
75
100
AcDbEntity
  8
HALLE_0_1_EG
  6
Continuous
100
AcDbLine
 10
-6.508387126393389
 20
7.356387549958314
 30
0.0
 11
-9.508387126393445
 21
7.356387549958314
 31
0.0
  0
ARC
  5
155
330
75
100
AcDbEntity
  8
HALLE_0_1_EG
  6
Continuous
100
AcDbCircle
 10
-9.508387126393445
 20
7.356387549958314
 30
0.0
 40
1.499999999999999
100
AcDbArc
 50
0.0
 51
90.0
  0
ARC
  5
156
330
75
100
AcDbEntity
  8
HALLE_0_1_EG
  6
Continuous
100
AcDbCircle
 10
-9.508387126393445
 20
7.356387549958314
 30
0.0
 40
1.499999999999999
100
AcDbArc
 50
90.0
 51
180.0
  0
LINE
  5
157
330
75
100
AcDbEntity
  8
HALLE_0_1_EG
  6
Continuous
100
AcDbLine
 10
-9.508387126393445
 20
7.356387549958314
 30
0.0
 11
-9.508387126393445
 21
8.856387549958318
 31
0.0
  0
ARC
  5
158
330
75
100
AcDbEntity
  8
HALLE_0_1_EG
  6
Continuous
100
AcDbCircle
 10
-6.508387126393389
 20
7.356387549958314
 30
0.0
 40
1.499999999999999
100
AcDbArc
 50
90.0
 51
180.0
  0
ARC
  5
159
330
75
100
AcDbEntity
  8
HALLE_0_1_EG
  6
Continuous
100
AcDbCircle
 10
-6.508387126393389
 20
7.356387549958314
 30
0.0
 40
1.499999999999999
100
AcDbArc
 50
0.0
 51
90.0
  0
LINE
  5
15A
330
75
100
AcDbEntity
  8
HALLE_0_1_EG
  6
Continuous
100
AcDbLine
 10
-6.508387126393389
 20
7.356387549958314
 30
0.0
 11
-6.508387126393389
 21
8.856387549958318
 31
0.0
  0
TEXT
  5
15C
330
75
100
AcDbEntity
  8
HALLE_0_1_EG
100
AcDbText
 10
-8.758387126393479
 20
-32.00496903918898
 30
0.0
 40
0.1136434108527132
  1
F
 50
180.0
  7
ARIALB
 11
-8.758387126393479
 21
-32.11861245004169
 31
0.0
100
AcDbText
 73
     3
  0
TEXT
  5
15E
330
75
100
AcDbEntity
  8
HALLE_0_1_EG
100
AcDbText
 10
40.9716128736067
 20
-32.00496903918902
 30
0.0
 40
0.1136434108527132
  1
F
 50
180.0
  7
ARIALB
 11
40.9716128736067
 21
-32.11861245004172
 31
0.0
100
AcDbText
 73
     3
  0
TEXT
  5
15F
330
75
100
AcDbEntity
  8
HALLE_0_1_EG
100
AcDbText
 10
41.09161287360674
 20
6.757705960810989
 30
0.0
 40
0.1136434108527132
  1
F
 50
180.0
  7
ARIALB
 11
41.09161287360674
 21
6.644062549958276
 31
0.0
100
AcDbText
 73
     3
  0
LINE
  5
160
330
75
100
AcDbEntity
  8
HALLE_0_1_EG
  6
Continuous
100
AcDbLine
 10
43.22161287360673
 20
9.616387549958274
 30
0.0
 11
43.32161287360674
 21
9.616387549958274
 31
0.0
  0
LINE
  5
161
330
75
100
AcDbEntity
  8
HALLE_0_1_EG
  6
Continuous
100
AcDbLine
 10
-16.13838712639343
 20
9.61638754995833
 30
0.0
 11
-16.23838712639343
 21
9.61638754995833
 31
0.0
  0
LINE
  5
162
330
75
100
AcDbEntity
  8
HALLE_0_1_EG
  6
Continuous
100
AcDbLine
 10
-13.37838712639872
 20
9.766387549958331
 30
0.0
 11
-9.758387126398737
 21
9.766387549958331
 31
0.0
  0
LINE
  5
163
330
75
100
AcDbEntity
  8
HALLE_0_1_EG
  6
Continuous
100
AcDbLine
 10
-13.37838712639872
 20
9.61638754995832
 30
0.0
 11
-9.608387126398737
 21
9.61638754995832
 31
0.0
  0
LINE
  5
164
330
75
100
AcDbEntity
  8
HALLE_0_1_EG
  6
Continuous
100
AcDbLine
 10
-13.37838712639872
 20
9.61638754995832
 30
0.0
 11
-13.37838712639872
 21
9.766387549958331
 31
0.0
  0
ARC
  5
165
330
75
100
AcDbEntity
  8
HALLE_0_1_EG
  6
Continuous
100
AcDbCircle
 10
-11.17638712639343
 20
9.516387549958331
 30
0.0
 40
1.039999999999999
100
AcDbArc
 50
180.0
 51
270.0
  0
LINE
  5
166
330
75
100
AcDbEntity
  8
HALLE_0_1_EG
  6
Continuous
100
AcDbLine
 10
-12.21638712639344
 20
9.516387549958331
 30
0.0
 11
-11.17638712639343
 21
9.516387549958331
 31
0.0
  0
ARC
  5
167
330
75
100
AcDbEntity
  8
HALLE_0_1_EG
  6
Continuous
100
AcDbCircle
 10
-11.17638712639343
 20
7.436387549958318
 30
0.0
 40
1.039999999999999
100
AcDbArc
 50
90.0
 51
180.0
  0
LINE
  5
168
330
75
100
AcDbEntity
  8
HALLE_0_1_EG
  6
Continuous
100
AcDbLine
 10
-12.21638712639344
 20
7.436387549958318
 30
0.0
 11
-11.17638712639343
 21
7.436387549958318
 31
0.0
  0
TEXT
  5
169
330
75
100
AcDbEntity
  8
HALLE_0_1_EG
100
AcDbText
 10
11.28503162360658
 20
26.91636846081099
 30
0.0
 40
0.1136434108527132
  1
F
 50
180.0
  7
ARIALB
 11
11.28503162360658
 21
26.80272504995828
 31
0.0
100
AcDbText
 73
     3
  0
CIRCLE
  5
16A
330
75
100
AcDbEntity
  8
HALLE_0_1_EG
  6
Continuous
100
AcDbCircle
 10
7.63161287360656
 20
7.006387549958312
 30
0.0
 40
0.05
  0
CIRCLE
  5
16B
330
75
100
AcDbEntity
  8
HALLE_0_1_EG
  6
Continuous
100
AcDbCircle
 10
16.35161287360658
 20
7.006387549958289
 30
0.0
 40
0.05
  0
CIRCLE
  5
16C
330
75
100
AcDbEntity
  8
HALLE_0_1_EG
  6
Continuous
100
AcDbCircle
 10
24.22161287360656
 20
7.006387549958289
 30
0.0
 40
0.05
  0
CIRCLE
  5
16D
330
75
100
AcDbEntity
  8
HALLE_0_1_EG
  6
Continuous
100
AcDbCircle
 10
34.07161287360674
 20
7.006387549958278
 30
0.0
 40
0.05
  0
LINE
  5
16E
330
75
100
AcDbEntity
  8
HALLE_0_1_EG
  6
Continuous
100
AcDbLine
 10
39.01161287360676
 20
23.19638754995829
 30
0.0
 11
38.46161287360676
 21
23.19638754995829
 31
0.0
  0
LINE
  5
16F
330
75
100
AcDbEntity
  8
HALLE_0_1_EG
  6
Continuous
100
AcDbLine
 10
38.46161287360676
 20
23.19638754995829
 30
0.0
 11
38.46161287360676
 21
24.7963875499583
 31
0.0
  0
LINE
  5
170
330
75
100
AcDbEntity
  8
HALLE_0_1_EG
  6
Continuous
100
AcDbLine
 10
38.46161287360676
 20
24.7963875499583
 30
0.0
 11
39.01161287360676
 21
24.7963875499583
 31
0.0
  0
LINE
  5
171
330
75
100
AcDbEntity
  8
HALLE_0_1_EG
  6
Continuous
100
AcDbLine
 10
39.01161287360676
 20
24.7963875499583
 30
0.0
 11
39.01161287360676
 21
23.19638754995829
 31
0.0
  0
LINE
  5
172
330
75
100
AcDbEntity
  8
HALLE_0_1_EG
  6
Continuous
100
AcDbLine
 10
44.94161287360673
 20
-0.4436124500417263
 30
0.0
 11
44.94161287360673
 21
6.456387549958264
 31
0.0
  0
LINE
  5
173
330
75
100
AcDbEntity
  8
HALLE_0_1_EG
  6
Continuous
100
AcDbLine
 10
44.94161287360673
 20
6.456387549958264
 30
0.0
 11
43.54161287360674
 21
6.456387549958264
 31
0.0
  0
LINE
  5
174
330
75
100
AcDbEntity
  8
HALLE_0_1_EG
  6
Continuous
100
AcDbLine
 10
43.54161287360674
 20
6.456387549958264
 30
0.0
 11
43.54161287360674
 21
6.256387549958263
 31
0.0
  0
LINE
  5
175
330
75
100
AcDbEntity
  8
HALLE_0_1_EG
  6
Continuous
100
AcDbLine
 10
43.54161287360674
 20
6.256387549958263
 30
0.0
 11
44.74161287360675
 21
6.256387549958263
 31
0.0
  0
LINE
  5
176
330
75
100
AcDbEntity
  8
HALLE_0_1_EG
  6
Continuous
100
AcDbLine
 10
44.74161287360675
 20
6.256387549958263
 30
0.0
 11
44.74161287360675
 21
-0.2436124500417371
 31
0.0
  0
LINE
  5
177
330
75
100
AcDbEntity
  8
HALLE_0_1_EG
  6
Continuous
100
AcDbLine
 10
44.74161287360675
 20
-0.2436124500417371
 30
0.0
 11
43.54161287360674
 21
-0.2436124500417371
 31
0.0
  0
LINE
  5
178
330
75
100
AcDbEntity
  8
HALLE_0_1_EG
  6
Continuous
100
AcDbLine
 10
43.54161287360674
 20
-0.2436124500417371
 30
0.0
 11
43.54161287360674
 21
-0.4436124500417263
 31
0.0
  0
LINE
  5
179
330
75
100
AcDbEntity
  8
HALLE_0_1_EG
  6
Continuous
100
AcDbLine
 10
43.54161287360674
 20
-0.4436124500417263
 30
0.0
 11
44.94161287360673
 21
-0.4436124500417263
 31
0.0
  0
LINE
  5
17A
330
75
100
AcDbEntity
  8
HALLE_0_1_EG
  6
Continuous
100
AcDbLine
 10
44.74161287360675
 20
1.056387549958267
 30
0.0
 11
43.54161287360674
 21
1.056387549958267
 31
0.0
  0
LINE
  5
17B
330
75
100
AcDbEntity
  8
HALLE_0_1_EG
  6
Continuous
100
AcDbLine
 10
43.54161287360674
 20
1.056387549958267
 30
0.0
 11
43.54161287360674
 21
1.316387549958277
 31
0.0
  0
LINE
  5
17C
330
75
100
AcDbEntity
  8
HALLE_0_1_EG
  6
Continuous
100
AcDbLine
 10
43.54161287360674
 20
1.316387549958277
 30
0.0
 11
44.74161287360675
 21
1.316387549958277
 31
0.0
  0
LINE
  5
17D
330
75
100
AcDbEntity
  8
HALLE_0_1_EG
  6
Continuous
100
AcDbLine
 10
44.74161287360675
 20
1.316387549958277
 30
0.0
 11
44.74161287360675
 21
1.056387549958267
 31
0.0
  0
LINE
  5
17E
330
75
100
AcDbEntity
  8
HALLE_0_1_EG
  6
Continuous
100
AcDbLine
 10
44.74161287360675
 20
1.316387549958277
 30
0.0
 11
43.54161287360674
 21
1.316387549958277
 31
0.0
  0
LINE
  5
17F
330
75
100
AcDbEntity
  8
HALLE_0_1_EG
  6
Continuous
100
AcDbLine
 10
43.54161287360674
 20
1.316387549958277
 30
0.0
 11
43.54161287360674
 21
1.576387549958276
 31
0.0
  0
LINE
  5
180
330
75
100
AcDbEntity
  8
HALLE_0_1_EG
  6
Continuous
100
AcDbLine
 10
43.54161287360674
 20
1.576387549958276
 30
0.0
 11
44.74161287360675
 21
1.576387549958276
 31
0.0
  0
LINE
  5
181
330
75
100
AcDbEntity
  8
HALLE_0_1_EG
  6
Continuous
100
AcDbLine
 10
44.74161287360675
 20
1.576387549958276
 30
0.0
 11
44.74161287360675
 21
1.316387549958277
 31
0.0
  0
LINE
  5
182
330
75
100
AcDbEntity
  8
HALLE_0_1_EG
  6
Continuous
100
AcDbLine
 10
44.74161287360675
 20
1.576387549958276
 30
0.0
 11
43.54161287360674
 21
1.576387549958276
 31
0.0
  0
LINE
  5
183
330
75
100
AcDbEntity
  8
HALLE_0_1_EG
  6
Continuous
100
AcDbLine
 10
43.54161287360674
 20
1.576387549958276
 30
0.0
 11
43.54161287360674
 21
1.836387549958274
 31
0.0
  0
LINE
  5
184
330
75
100
AcDbEntity
  8
HALLE_0_1_EG
  6
Continuous
100
AcDbLine
 10
43.54161287360674
 20
1.836387549958274
 30
0.0
 11
44.74161287360675
 21
1.836387549958274
 31
0.0
  0
LINE
  5
185
330
75
100
AcDbEntity
  8
HALLE_0_1_EG
  6
Continuous
100
AcDbLine
 10
44.74161287360675
 20
1.836387549958274
 30
0.0
 11
44.74161287360675
 21
1.576387549958276
 31
0.0
  0
LINE
  5
186
330
75
100
AcDbEntity
  8
HALLE_0_1_EG
  6
Continuous
100
AcDbLine
 10
44.74161287360675
 20
1.836387549958274
 30
0.0
 11
43.54161287360674
 21
1.836387549958274
 31
0.0
  0
LINE
  5
187
330
75
100
AcDbEntity
  8
HALLE_0_1_EG
  6
Continuous
100
AcDbLine
 10
43.54161287360674
 20
1.836387549958274
 30
0.0
 11
43.54161287360674
 21
2.096387549958262
 31
0.0
  0
LINE
  5
188
330
75
100
AcDbEntity
  8
HALLE_0_1_EG
  6
Continuous
100
AcDbLine
 10
43.54161287360674
 20
2.096387549958262
 30
0.0
 11
44.74161287360675
 21
2.096387549958262
 31
0.0
  0
LINE
  5
189
330
75
100
AcDbEntity
  8
HALLE_0_1_EG
  6
Continuous
100
AcDbLine
 10
44.74161287360675
 20
2.096387549958262
 30
0.0
 11
44.74161287360675
 21
1.836387549958274
 31
0.0
  0
LINE
  5
18A
330
75
100
AcDbEntity
  8
HALLE_0_1_EG
  6
Continuous
100
AcDbLine
 10
44.74161287360675
 20
2.096387549958262
 30
0.0
 11
43.54161287360674
 21
2.096387549958262
 31
0.0
  0
LINE
  5
18B
330
75
100
AcDbEntity
  8
HALLE_0_1_EG
  6
Continuous
100
AcDbLine
 10
43.54161287360674
 20
2.096387549958262
 30
0.0
 11
43.54161287360674
 21
2.356387549958272
 31
0.0
  0
LINE
  5
18C
330
75
100
AcDbEntity
  8
HALLE_0_1_EG
  6
Continuous
100
AcDbLine
 10
43.54161287360674
 20
2.356387549958272
 30
0.0
 11
44.74161287360675
 21
2.356387549958272
 31
0.0
  0
LINE
  5
18D
330
75
100
AcDbEntity
  8
HALLE_0_1_EG
  6
Continuous
100
AcDbLine
 10
44.74161287360675
 20
2.356387549958272
 30
0.0
 11
44.74161287360675
 21
2.096387549958262
 31
0.0
  0
LINE
  5
18E
330
75
100
AcDbEntity
  8
HALLE_0_1_EG
  6
Continuous
100
AcDbLine
 10
44.74161287360675
 20
2.356387549958272
 30
0.0
 11
43.54161287360674
 21
2.356387549958272
 31
0.0
  0
LINE
  5
18F
330
75
100
AcDbEntity
  8
HALLE_0_1_EG
  6
Continuous
100
AcDbLine
 10
43.54161287360674
 20
2.356387549958272
 30
0.0
 11
43.54161287360674
 21
2.61638754995827
 31
0.0
  0
LINE
  5
190
330
75
100
AcDbEntity
  8
HALLE_0_1_EG
  6
Continuous
100
AcDbLine
 10
43.54161287360674
 20
2.61638754995827
 30
0.0
 11
44.74161287360675
 21
2.61638754995827
 31
0.0
  0
LINE
  5
191
330
75
100
AcDbEntity
  8
HALLE_0_1_EG
  6
Continuous
100
AcDbLine
 10
44.74161287360675
 20
2.61638754995827
 30
0.0
 11
44.74161287360675
 21
2.356387549958272
 31
0.0
  0
LINE
  5
192
330
75
100
AcDbEntity
  8
HALLE_0_1_EG
  6
Continuous
100
AcDbLine
 10
44.74161287360675
 20
2.61638754995827
 30
0.0
 11
43.54161287360674
 21
2.61638754995827
 31
0.0
  0
LINE
  5
193
330
75
100
AcDbEntity
  8
HALLE_0_1_EG
  6
Continuous
100
AcDbLine
 10
43.54161287360674
 20
2.61638754995827
 30
0.0
 11
43.54161287360674
 21
2.876387549958269
 31
0.0
  0
LINE
  5
194
330
75
100
AcDbEntity
  8
HALLE_0_1_EG
  6
Continuous
100
AcDbLine
 10
43.54161287360674
 20
2.876387549958269
 30
0.0
 11
44.74161287360675
 21
2.876387549958269
 31
0.0
  0
LINE
  5
195
330
75
100
AcDbEntity
  8
HALLE_0_1_EG
  6
Continuous
100
AcDbLine
 10
44.74161287360675
 20
2.876387549958269
 30
0.0
 11
44.74161287360675
 21
2.61638754995827
 31
0.0
  0
LINE
  5
196
330
75
100
AcDbEntity
  8
HALLE_0_1_EG
  6
Continuous
100
AcDbLine
 10
44.74161287360675
 20
2.876387549958269
 30
0.0
 11
43.54161287360674
 21
2.876387549958269
 31
0.0
  0
LINE
  5
197
330
75
100
AcDbEntity
  8
HALLE_0_1_EG
  6
Continuous
100
AcDbLine
 10
43.54161287360674
 20
2.876387549958269
 30
0.0
 11
43.54161287360674
 21
3.136387549958268
 31
0.0
  0
LINE
  5
198
330
75
100
AcDbEntity
  8
HALLE_0_1_EG
  6
Continuous
100
AcDbLine
 10
43.54161287360674
 20
3.136387549958268
 30
0.0
 11
44.74161287360675
 21
3.136387549958268
 31
0.0
  0
LINE
  5
199
330
75
100
AcDbEntity
  8
HALLE_0_1_EG
  6
Continuous
100
AcDbLine
 10
44.74161287360675
 20
3.136387549958268
 30
0.0
 11
44.74161287360675
 21
2.876387549958269
 31
0.0
  0
LINE
  5
19A
330
75
100
AcDbEntity
  8
HALLE_0_1_EG
  6
Continuous
100
AcDbLine
 10
44.74161287360675
 20
3.136387549958268
 30
0.0
 11
43.54161287360674
 21
3.136387549958268
 31
0.0
  0
LINE
  5
19B
330
75
100
AcDbEntity
  8
HALLE_0_1_EG
  6
Continuous
100
AcDbLine
 10
43.54161287360674
 20
3.136387549958268
 30
0.0
 11
43.54161287360674
 21
3.396387549958266
 31
0.0
  0
LINE
  5
19C
330
75
100
AcDbEntity
  8
HALLE_0_1_EG
  6
Continuous
100
AcDbLine
 10
43.54161287360674
 20
3.396387549958266
 30
0.0
 11
44.74161287360675
 21
3.396387549958266
 31
0.0
  0
LINE
  5
19D
330
75
100
AcDbEntity
  8
HALLE_0_1_EG
  6
Continuous
100
AcDbLine
 10
44.74161287360675
 20
3.396387549958266
 30
0.0
 11
44.74161287360675
 21
3.136387549958268
 31
0.0
  0
LINE
  5
19E
330
75
100
AcDbEntity
  8
HALLE_0_1_EG
  6
Continuous
100
AcDbLine
 10
44.74161287360675
 20
3.396387549958266
 30
0.0
 11
43.54161287360674
 21
3.396387549958266
 31
0.0
  0
LINE
  5
19F
330
75
100
AcDbEntity
  8
HALLE_0_1_EG
  6
Continuous
100
AcDbLine
 10
43.54161287360674
 20
3.396387549958266
 30
0.0
 11
43.54161287360674
 21
3.656387549958276
 31
0.0
  0
LINE
  5
1A0
330
75
100
AcDbEntity
  8
HALLE_0_1_EG
  6
Continuous
100
AcDbLine
 10
43.54161287360674
 20
3.656387549958276
 30
0.0
 11
44.74161287360675
 21
3.656387549958276
 31
0.0
  0
LINE
  5
1A1
330
75
100
AcDbEntity
  8
HALLE_0_1_EG
  6
Continuous
100
AcDbLine
 10
44.74161287360675
 20
3.656387549958276
 30
0.0
 11
44.74161287360675
 21
3.396387549958266
 31
0.0
  0
LINE
  5
1A2
330
75
100
AcDbEntity
  8
HALLE_0_1_EG
  6
Continuous
100
AcDbLine
 10
44.74161287360675
 20
3.656387549958276
 30
0.0
 11
43.54161287360674
 21
3.656387549958276
 31
0.0
  0
LINE
  5
1A3
330
75
100
AcDbEntity
  8
HALLE_0_1_EG
  6
Continuous
100
AcDbLine
 10
43.54161287360674
 20
3.656387549958276
 30
0.0
 11
43.54161287360674
 21
3.916387549958264
 31
0.0
  0
LINE
  5
1A4
330
75
100
AcDbEntity
  8
HALLE_0_1_EG
  6
Continuous
100
AcDbLine
 10
43.54161287360674
 20
3.916387549958264
 30
0.0
 11
44.74161287360675
 21
3.916387549958264
 31
0.0
  0
LINE
  5
1A5
330
75
100
AcDbEntity
  8
HALLE_0_1_EG
  6
Continuous
100
AcDbLine
 10
44.74161287360675
 20
3.916387549958264
 30
0.0
 11
44.74161287360675
 21
3.656387549958276
 31
0.0
  0
LINE
  5
1A6
330
75
100
AcDbEntity
  8
HALLE_0_1_EG
  6
Continuous
100
AcDbLine
 10
44.74161287360675
 20
3.916387549958264
 30
0.0
 11
43.54161287360674
 21
3.916387549958264
 31
0.0
  0
LINE
  5
1A7
330
75
100
AcDbEntity
  8
HALLE_0_1_EG
  6
Continuous
100
AcDbLine
 10
43.54161287360674
 20
3.916387549958264
 30
0.0
 11
43.54161287360674
 21
4.176387549958274
 31
0.0
  0
LINE
  5
1A8
330
75
100
AcDbEntity
  8
HALLE_0_1_EG
  6
Continuous
100
AcDbLine
 10
43.54161287360674
 20
4.176387549958274
 30
0.0
 11
44.74161287360675
 21
4.176387549958274
 31
0.0
  0
LINE
  5
1A9
330
75
100
AcDbEntity
  8
HALLE_0_1_EG
  6
Continuous
100
AcDbLine
 10
44.74161287360675
 20
4.176387549958274
 30
0.0
 11
44.74161287360675
 21
3.916387549958264
 31
0.0
  0
LINE
  5
1AA
330
75
100
AcDbEntity
  8
HALLE_0_1_EG
  6
Continuous
100
AcDbLine
 10
44.74161287360675
 20
4.176387549958274
 30
0.0
 11
43.54161287360674
 21
4.176387549958274
 31
0.0
  0
LINE
  5
1AB
330
75
100
AcDbEntity
  8
HALLE_0_1_EG
  6
Continuous
100
AcDbLine
 10
43.54161287360674
 20
4.176387549958274
 30
0.0
 11
43.54161287360674
 21
4.436387549958272
 31
0.0
  0
LINE
  5
1AC
330
75
100
AcDbEntity
  8
HALLE_0_1_EG
  6
Continuous
100
AcDbLine
 10
43.54161287360674
 20
4.436387549958272
 30
0.0
 11
44.74161287360675
 21
4.436387549958272
 31
0.0
  0
LINE
  5
1AD
330
75
100
AcDbEntity
  8
HALLE_0_1_EG
  6
Continuous
100
AcDbLine
 10
44.74161287360675
 20
4.436387549958272
 30
0.0
 11
44.74161287360675
 21
4.176387549958274
 31
0.0
  0
LINE
  5
1AE
330
75
100
AcDbEntity
  8
HALLE_0_1_EG
  6
Continuous
100
AcDbLine
 10
44.74161287360675
 20
4.436387549958272
 30
0.0
 11
43.54161287360674
 21
4.436387549958272
 31
0.0
  0
LINE
  5
1AF
330
75
100
AcDbEntity
  8
HALLE_0_1_EG
  6
Continuous
100
AcDbLine
 10
43.54161287360674
 20
4.436387549958272
 30
0.0
 11
43.54161287360674
 21
4.696387549958271
 31
0.0
  0
LINE
  5
1B0
330
75
100
AcDbEntity
  8
HALLE_0_1_EG
  6
Continuous
100
AcDbLine
 10
43.54161287360674
 20
4.696387549958271
 30
0.0
 11
44.74161287360675
 21
4.696387549958271
 31
0.0
  0
LINE
  5
1B1
330
75
100
AcDbEntity
  8
HALLE_0_1_EG
  6
Continuous
100
AcDbLine
 10
44.74161287360675
 20
4.696387549958271
 30
0.0
 11
44.74161287360675
 21
4.436387549958272
 31
0.0
  0
LINE
  5
1B2
330
75
100
AcDbEntity
  8
HALLE_0_1_EG
  6
Continuous
100
AcDbLine
 10
44.74161287360675
 20
4.696387549958271
 30
0.0
 11
43.54161287360674
 21
4.696387549958271
 31
0.0
  0
LINE
  5
1B3
330
75
100
AcDbEntity
  8
HALLE_0_1_EG
  6
Continuous
100
AcDbLine
 10
43.54161287360674
 20
4.696387549958271
 30
0.0
 11
43.54161287360674
 21
4.95638754995827
 31
0.0
  0
LINE
  5
1B4
330
75
100
AcDbEntity
  8
HALLE_0_1_EG
  6
Continuous
100
AcDbLine
 10
43.54161287360674
 20
4.95638754995827
 30
0.0
 11
44.74161287360675
 21
4.95638754995827
 31
0.0
  0
LINE
  5
1B5
330
75
100
AcDbEntity
  8
HALLE_0_1_EG
  6
Continuous
100
AcDbLine
 10
44.74161287360675
 20
4.95638754995827
 30
0.0
 11
44.74161287360675
 21
4.696387549958271
 31
0.0
  0
LINE
  5
1B6
330
75
100
AcDbEntity
  8
HALLE_0_1_EG
  6
Continuous
100
AcDbLine
 10
44.74161287360675
 20
4.95638754995827
 30
0.0
 11
43.54161287360674
 21
4.95638754995827
 31
0.0
  0
LINE
  5
1B7
330
75
100
AcDbEntity
  8
HALLE_0_1_EG
  6
Continuous
100
AcDbLine
 10
43.54161287360674
 20
4.95638754995827
 30
0.0
 11
43.54161287360674
 21
5.216387549958268
 31
0.0
  0
LINE
  5
1B8
330
75
100
AcDbEntity
  8
HALLE_0_1_EG
  6
Continuous
100
AcDbLine
 10
43.54161287360674
 20
5.216387549958268
 30
0.0
 11
44.74161287360675
 21
5.216387549958268
 31
0.0
  0
LINE
  5
1B9
330
75
100
AcDbEntity
  8
HALLE_0_1_EG
  6
Continuous
100
AcDbLine
 10
44.74161287360675
 20
5.216387549958268
 30
0.0
 11
44.74161287360675
 21
4.95638754995827
 31
0.0
  0
LINE
  5
1BA
330
75
100
AcDbEntity
  8
HALLE_0_1_EG
  6
Continuous
100
AcDbLine
 10
44.74161287360675
 20
5.216387549958268
 30
0.0
 11
43.54161287360674
 21
5.216387549958268
 31
0.0
  0
LINE
  5
1BB
330
75
100
AcDbEntity
  8
HALLE_0_1_EG
  6
Continuous
100
AcDbLine
 10
43.54161287360674
 20
5.216387549958268
 30
0.0
 11
43.54161287360674
 21
5.476387549958267
 31
0.0
  0
LINE
  5
1BC
330
75
100
AcDbEntity
  8
HALLE_0_1_EG
  6
Continuous
100
AcDbLine
 10
43.54161287360674
 20
5.476387549958267
 30
0.0
 11
44.74161287360675
 21
5.476387549958267
 31
0.0
  0
LINE
  5
1BD
330
75
100
AcDbEntity
  8
HALLE_0_1_EG
  6
Continuous
100
AcDbLine
 10
44.74161287360675
 20
5.476387549958267
 30
0.0
 11
44.74161287360675
 21
5.216387549958268
 31
0.0
  0
LINE
  5
1BE
330
75
100
AcDbEntity
  8
HALLE_0_1_EG
  6
Continuous
100
AcDbLine
 10
44.74161287360675
 20
5.476387549958267
 30
0.0
 11
43.54161287360674
 21
5.476387549958267
 31
0.0
  0
LINE
  5
1BF
330
75
100
AcDbEntity
  8
HALLE_0_1_EG
  6
Continuous
100
AcDbLine
 10
43.54161287360674
 20
5.476387549958267
 30
0.0
 11
43.54161287360674
 21
5.736387549958266
 31
0.0
  0
LINE
  5
1C0
330
75
100
AcDbEntity
  8
HALLE_0_1_EG
  6
Continuous
100
AcDbLine
 10
43.54161287360674
 20
5.736387549958266
 30
0.0
 11
44.74161287360675
 21
5.736387549958266
 31
0.0
  0
LINE
  5
1C1
330
75
100
AcDbEntity
  8
HALLE_0_1_EG
  6
Continuous
100
AcDbLine
 10
44.74161287360675
 20
5.736387549958266
 30
0.0
 11
44.74161287360675
 21
5.476387549958267
 31
0.0
  0
LINE
  5
1C2
330
75
100
AcDbEntity
  8
HALLE_0_1_EG
  6
Continuous
100
AcDbLine
 10
44.74161287360675
 20
5.736387549958266
 30
0.0
 11
43.54161287360674
 21
5.736387549958266
 31
0.0
  0
LINE
  5
1C3
330
75
100
AcDbEntity
  8
HALLE_0_1_EG
  6
Continuous
100
AcDbLine
 10
43.54161287360674
 20
5.736387549958266
 30
0.0
 11
43.54161287360674
 21
5.996387549958264
 31
0.0
  0
LINE
  5
1C4
330
75
100
AcDbEntity
  8
HALLE_0_1_EG
  6
Continuous
100
AcDbLine
 10
43.54161287360674
 20
5.996387549958264
 30
0.0
 11
44.74161287360675
 21
5.996387549958264
 31
0.0
  0
LINE
  5
1C5
330
75
100
AcDbEntity
  8
HALLE_0_1_EG
  6
Continuous
100
AcDbLine
 10
44.74161287360675
 20
5.996387549958264
 30
0.0
 11
44.74161287360675
 21
5.736387549958266
 31
0.0
  0
LINE
  5
1C6
330
75
100
AcDbEntity
  8
HALLE_0_1_EG
  6
Continuous
100
AcDbLine
 10
44.74161287360675
 20
5.996387549958264
 30
0.0
 11
43.54161287360674
 21
5.996387549958264
 31
0.0
  0
LINE
  5
1C7
330
75
100
AcDbEntity
  8
HALLE_0_1_EG
  6
Continuous
100
AcDbLine
 10
43.54161287360674
 20
5.996387549958264
 30
0.0
 11
43.54161287360674
 21
6.256387549958263
 31
0.0
  0
LINE
  5
1C8
330
75
100
AcDbEntity
  8
HALLE_0_1_EG
  6
Continuous
100
AcDbLine
 10
43.54161287360674
 20
6.256387549958263
 30
0.0
 11
44.74161287360675
 21
6.256387549958263
 31
0.0
  0
LINE
  5
1C9
330
75
100
AcDbEntity
  8
HALLE_0_1_EG
  6
Continuous
100
AcDbLine
 10
44.74161287360675
 20
6.256387549958263
 30
0.0
 11
44.74161287360675
 21
5.996387549958264
 31
0.0
  0
LINE
  5
1CA
330
75
100
AcDbEntity
  8
HALLE_0_1_EG
  6
Continuous
100
AcDbLine
 10
43.54161287360674
 20
-3.143612450041724
 30
0.0
 11
43.54161287360674
 21
-2.143612450041732
 31
0.0
  0
LINE
  5
1CB
330
75
100
AcDbEntity
  8
HALLE_0_1_EG
  6
Continuous
100
AcDbLine
 10
43.54161287360671
 20
-23.14361245004173
 30
0.0
 11
43.54161287360671
 21
-22.14361245004173
 31
0.0
  0
LINE
  5
1CC
330
75
100
AcDbEntity
  8
HALLE_0_1_EG
  6
Continuous
100
AcDbLine
 10
-14.78838712639343
 20
5.856387549958308
 30
0.0
 11
-14.78838712639343
 21
7.056387549958312
 31
0.0
  0
LINE
  5
1CD
330
75
100
AcDbEntity
  8
HALLE_0_1_EG
  6
Continuous
100
AcDbLine
 10
-14.78838712639343
 20
7.056387549958312
 30
0.0
 11
-14.51838712639344
 21
7.056387549958312
 31
0.0
  0
LINE
  5
1CE
330
75
100
AcDbEntity
  8
HALLE_0_1_EG
  6
Continuous
100
AcDbLine
 10
-14.51838712639344
 20
7.056387549958312
 30
0.0
 11
-14.51838712639344
 21
5.856387549958308
 31
0.0
  0
LINE
  5
1CF
330
75
100
AcDbEntity
  8
HALLE_0_1_EG
  6
Continuous
100
AcDbLine
 10
-14.51838712639344
 20
5.856387549958308
 30
0.0
 11
-14.51838712639344
 21
7.056387549958312
 31
0.0
  0
LINE
  5
1D0
330
75
100
AcDbEntity
  8
HALLE_0_1_EG
  6
Continuous
100
AcDbLine
 10
-14.51838712639344
 20
7.056387549958312
 30
0.0
 11
-14.24838712639343
 21
7.056387549958312
 31
0.0
  0
LINE
  5
1D1
330
75
100
AcDbEntity
  8
HALLE_0_1_EG
  6
Continuous
100
AcDbLine
 10
-14.24838712639343
 20
7.056387549958312
 30
0.0
 11
-14.24838712639343
 21
5.856387549958308
 31
0.0
  0
LINE
  5
1D2
330
75
100
AcDbEntity
  8
HALLE_0_1_EG
  6
Continuous
100
AcDbLine
 10
-14.24838712639343
 20
5.856387549958308
 30
0.0
 11
-14.24838712639343
 21
7.056387549958312
 31
0.0
  0
LINE
  5
1D3
330
75
100
AcDbEntity
  8
HALLE_0_1_EG
  6
Continuous
100
AcDbLine
 10
-14.24838712639343
 20
7.056387549958312
 30
0.0
 11
-13.97838712639343
 21
7.056387549958312
 31
0.0
  0
LINE
  5
1D4
330
75
100
AcDbEntity
  8
HALLE_0_1_EG
  6
Continuous
100
AcDbLine
 10
-13.97838712639343
 20
7.056387549958312
 30
0.0
 11
-13.97838712639343
 21
5.856387549958308
 31
0.0
  0
LINE
  5
1D5
330
75
100
AcDbEntity
  8
HALLE_0_1_EG
  6
Continuous
100
AcDbLine
 10
-13.97838712639343
 20
5.856387549958308
 30
0.0
 11
-13.97838712639343
 21
7.056387549958312
 31
0.0
  0
LINE
  5
1D6
330
75
100
AcDbEntity
  8
HALLE_0_1_EG
  6
Continuous
100
AcDbLine
 10
-13.97838712639343
 20
7.056387549958312
 30
0.0
 11
-13.70838712639344
 21
7.056387549958312
 31
0.0
  0
LINE
  5
1D7
330
75
100
AcDbEntity
  8
HALLE_0_1_EG
  6
Continuous
100
AcDbLine
 10
-13.70838712639344
 20
7.056387549958312
 30
0.0
 11
-13.70838712639344
 21
5.856387549958308
 31
0.0
  0
LINE
  5
1D8
330
75
100
AcDbEntity
  8
HALLE_0_1_EG
  6
Continuous
100
AcDbLine
 10
-13.70838712639344
 20
5.856387549958308
 30
0.0
 11
-13.70838712639344
 21
7.056387549958312
 31
0.0
  0
LINE
  5
1D9
330
75
100
AcDbEntity
  8
HALLE_0_1_EG
  6
Continuous
100
AcDbLine
 10
-13.70838712639344
 20
7.056387549958312
 30
0.0
 11
-13.43838712639344
 21
7.056387549958312
 31
0.0
  0
LINE
  5
1DA
330
75
100
AcDbEntity
  8
HALLE_0_1_EG
  6
Continuous
100
AcDbLine
 10
-13.43838712639344
 20
7.056387549958312
 30
0.0
 11
-13.43838712639344
 21
5.856387549958308
 31
0.0
  0
LINE
  5
1DB
330
75
100
AcDbEntity
  8
HALLE_0_1_EG
  6
Continuous
100
AcDbLine
 10
-12.62838712639343
 20
5.856387549958308
 30
0.0
 11
-12.62838712639343
 21
7.056387549958312
 31
0.0
  0
LINE
  5
1DC
330
75
100
AcDbEntity
  8
HALLE_0_1_EG
  6
Continuous
100
AcDbLine
 10
-12.62838712639343
 20
7.056387549958312
 30
0.0
 11
-12.35838712639343
 21
7.056387549958312
 31
0.0
  0
LINE
  5
1DD
330
75
100
AcDbEntity
  8
HALLE_0_1_EG
  6
Continuous
100
AcDbLine
 10
-12.35838712639343
 20
7.056387549958312
 30
0.0
 11
-12.35838712639343
 21
5.856387549958308
 31
0.0
  0
LINE
  5
1DE
330
75
100
AcDbEntity
  8
HALLE_0_1_EG
  6
Continuous
100
AcDbLine
 10
-12.35838712639343
 20
5.856387549958308
 30
0.0
 11
-12.35838712639343
 21
7.056387549958312
 31
0.0
  0
LINE
  5
1DF
330
75
100
AcDbEntity
  8
HALLE_0_1_EG
  6
Continuous
100
AcDbLine
 10
-12.35838712639343
 20
7.056387549958312
 30
0.0
 11
-12.08838712639344
 21
7.056387549958312
 31
0.0
  0
LINE
  5
1E0
330
75
100
AcDbEntity
  8
HALLE_0_1_EG
  6
Continuous
100
AcDbLine
 10
-12.08838712639344
 20
7.056387549958312
 30
0.0
 11
-12.08838712639344
 21
5.856387549958308
 31
0.0
  0
LINE
  5
1E1
330
75
100
AcDbEntity
  8
HALLE_0_1_EG
  6
Continuous
100
AcDbLine
 10
-12.08838712639344
 20
5.856387549958308
 30
0.0
 11
-12.08838712639344
 21
7.056387549958312
 31
0.0
  0
LINE
  5
1E2
330
75
100
AcDbEntity
  8
HALLE_0_1_EG
  6
Continuous
100
AcDbLine
 10
-12.08838712639344
 20
7.056387549958312
 30
0.0
 11
-11.81838712639344
 21
7.056387549958312
 31
0.0
  0
LINE
  5
1E3
330
75
100
AcDbEntity
  8
HALLE_0_1_EG
  6
Continuous
100
AcDbLine
 10
-11.81838712639344
 20
7.056387549958312
 30
0.0
 11
-11.81838712639344
 21
5.856387549958308
 31
0.0
  0
LINE
  5
1E4
330
75
100
AcDbEntity
  8
HALLE_0_1_EG
  6
Continuous
100
AcDbLine
 10
-11.81838712639344
 20
5.856387549958308
 30
0.0
 11
-11.81838712639344
 21
7.056387549958312
 31
0.0
  0
LINE
  5
1E5
330
75
100
AcDbEntity
  8
HALLE_0_1_EG
  6
Continuous
100
AcDbLine
 10
-11.81838712639344
 20
7.056387549958312
 30
0.0
 11
-11.54838712639343
 21
7.056387549958312
 31
0.0
  0
LINE
  5
1E6
330
75
100
AcDbEntity
  8
HALLE_0_1_EG
  6
Continuous
100
AcDbLine
 10
-11.54838712639343
 20
7.056387549958312
 30
0.0
 11
-11.54838712639343
 21
5.856387549958308
 31
0.0
  0
LINE
  5
1E7
330
75
100
AcDbEntity
  8
HALLE_0_1_EG
  6
Continuous
100
AcDbLine
 10
-11.54838712639343
 20
5.856387549958308
 30
0.0
 11
-11.54838712639343
 21
7.056387549958312
 31
0.0
  0
LINE
  5
1E8
330
75
100
AcDbEntity
  8
HALLE_0_1_EG
  6
Continuous
100
AcDbLine
 10
-11.54838712639343
 20
7.056387549958312
 30
0.0
 11
-11.27838712639343
 21
7.056387549958312
 31
0.0
  0
LINE
  5
1E9
330
75
100
AcDbEntity
  8
HALLE_0_1_EG
  6
Continuous
100
AcDbLine
 10
-11.27838712639343
 20
7.056387549958312
 30
0.0
 11
-11.27838712639343
 21
5.856387549958308
 31
0.0
  0
LINE
  5
1EA
330
75
100
AcDbEntity
  8
HALLE_0_1_EG
  6
Continuous
100
AcDbLine
 10
36.59161287360676
 20
26.31679242859513
 30
0.0
 11
34.79161287360676
 21
26.31679242859513
 31
0.0
  0
LINE
  5
1EB
330
75
100
AcDbEntity
  8
HALLE_0_1_EG
  6
Continuous
100
AcDbLine
 10
34.79161287360676
 20
26.31679242859513
 30
0.0
 11
35.09161287360676
 21
27.01910481189981
 31
0.0
  0
LINE
  5
1EC
330
75
100
AcDbEntity
  8
HALLE_0_1_EG
  6
Continuous
100
AcDbLine
 10
34.79161287360676
 20
26.31679242859513
 30
0.0
 11
35.09161287360676
 21
25.61448004529049
 31
0.0
  0
LINE
  5
1ED
330
75
100
AcDbEntity
  8
HALLE_0_1_EG
  6
Continuous
100
AcDbLine
 10
37.39161287360676
 20
25.56638754996035
 30
0.0
 11
37.39161287360676
 21
23.76638754996035
 31
0.0
  0
LINE
  5
1EE
330
75
100
AcDbEntity
  8
HALLE_0_1_EG
  6
Continuous
100
AcDbLine
 10
38.14161287360676
 20
25.26638754996036
 30
0.0
 11
37.39161287360676
 21
25.56638754996035
 31
0.0
  0
LINE
  5
1EF
330
75
100
AcDbEntity
  8
HALLE_0_1_EG
  6
Continuous
100
AcDbLine
 10
37.39161287360676
 20
25.56638754996035
 30
0.0
 11
36.64161287360676
 21
25.26638754996036
 31
0.0
  0
LINE
  5
1F0
330
75
100
AcDbEntity
  8
HALLE_0_1_EG
  6
Continuous
100
AcDbLine
 10
40.20411287360676
 20
24.7963875499583
 30
0.0
 11
40.05411287360676
 21
24.7963875499583
 31
0.0
  0
LINE
  5
1F1
330
75
100
AcDbEntity
  8
HALLE_0_1_EG
  6
Continuous
100
AcDbLine
 10
40.05411287360676
 20
24.7963875499583
 30
0.0
 11
40.05411287360676
 21
24.83638754995829
 31
0.0
  0
LINE
  5
1F2
330
75
100
AcDbEntity
  8
HALLE_0_1_EG
  6
Continuous
100
AcDbLine
 10
40.05411287360676
 20
24.83638754995829
 30
0.0
 11
40.20411287360676
 21
24.83638754995829
 31
0.0
  0
LINE
  5
1F3
330
75
100
AcDbEntity
  8
HALLE_0_1_EG
  6
Continuous
100
AcDbLine
 10
40.20411287360676
 20
24.83638754995829
 30
0.0
 11
40.20411287360676
 21
24.7963875499583
 31
0.0
  0
LINE
  5
1F4
330
75
100
AcDbEntity
  8
HALLE_0_1_EG
  6
Continuous
100
AcDbLine
 10
39.25411287360676
 20
24.7963875499583
 30
0.0
 11
38.46161287360676
 21
24.7963875499583
 31
0.0
  0
LINE
  5
1F5
330
75
100
AcDbEntity
  8
HALLE_0_1_EG
  6
Continuous
100
AcDbLine
 10
38.46161287360676
 20
24.7963875499583
 30
0.0
 11
38.46161287360676
 21
24.83638754995829
 31
0.0
  0
LINE
  5
1F6
330
75
100
AcDbEntity
  8
HALLE_0_1_EG
  6
Continuous
100
AcDbLine
 10
38.46161287360676
 20
24.83638754995829
 30
0.0
 11
39.25411287360676
 21
24.83638754995829
 31
0.0
  0
LINE
  5
1F7
330
75
100
AcDbEntity
  8
HALLE_0_1_EG
  6
Continuous
100
AcDbLine
 10
39.25411287360676
 20
24.83638754995829
 30
0.0
 11
39.25411287360676
 21
24.7963875499583
 31
0.0
  0
LINE
  5
1F8
330
75
100
AcDbEntity
  8
HALLE_0_1_EG
  6
Continuous
100
AcDbLine
 10
33.97511287360677
 20
27.30638754995829
 30
0.0
 11
32.77511287360676
 21
27.30638754995829
 31
0.0
  0
LINE
  5
1F9
330
75
100
AcDbEntity
  8
HALLE_0_1_EG
  6
Continuous
100
AcDbLine
 10
32.77511287360676
 20
27.30638754995829
 30
0.0
 11
32.77511287360676
 21
27.35638754995827
 31
0.0
  0
LINE
  5
1FA
330
75
100
AcDbEntity
  8
HALLE_0_1_EG
  6
Continuous
100
AcDbLine
 10
32.77511287360676
 20
27.35638754995827
 30
0.0
 11
33.97511287360677
 21
27.35638754995827
 31
0.0
  0
LINE
  5
1FB
330
75
100
AcDbEntity
  8
HALLE_0_1_EG
  6
Continuous
100
AcDbLine
 10
33.97511287360677
 20
27.35638754995827
 30
0.0
 11
33.97511287360677
 21
27.30638754995829
 31
0.0
  0
LINE
  5
1FC
330
75
100
AcDbEntity
  8
HALLE_0_1_EG
  6
Continuous
100
AcDbLine
 10
44.62161287360675
 20
14.47638754995829
 30
0.0
 11
44.62161287360675
 21
17.1363875499583
 31
0.0
  0
LINE
  5
1FD
330
75
100
AcDbEntity
  8
HALLE_0_1_EG
  6
Continuous
100
AcDbLine
 10
44.62161287360675
 20
17.1363875499583
 30
0.0
 11
43.54161287360676
 21
17.1363875499583
 31
0.0
  0
LINE
  5
1FE
330
75
100
AcDbEntity
  8
HALLE_0_1_EG
  6
Continuous
100
AcDbLine
 10
43.54161287360676
 20
17.1363875499583
 30
0.0
 11
43.54161287360676
 21
17.05638754995828
 31
0.0
  0
LINE
  5
1FF
330
75
100
AcDbEntity
  8
HALLE_0_1_EG
  6
Continuous
100
AcDbLine
 10
43.54161287360676
 20
17.05638754995828
 30
0.0
 11
44.54161287360673
 21
17.05638754995828
 31
0.0
  0
LINE
  5
200
330
75
100
AcDbEntity
  8
HALLE_0_1_EG
  6
Continuous
100
AcDbLine
 10
44.54161287360673
 20
17.05638754995828
 30
0.0
 11
44.54161287360673
 21
14.55638754995827
 31
0.0
  0
LINE
  5
201
330
75
100
AcDbEntity
  8
HALLE_0_1_EG
  6
Continuous
100
AcDbLine
 10
44.54161287360673
 20
14.55638754995827
 30
0.0
 11
43.54161287360676
 21
14.55638754995827
 31
0.0
  0
LINE
  5
202
330
75
100
AcDbEntity
  8
HALLE_0_1_EG
  6
Continuous
100
AcDbLine
 10
43.54161287360676
 20
14.55638754995827
 30
0.0
 11
43.54161287360676
 21
14.47638754995829
 31
0.0
  0
LINE
  5
203
330
75
100
AcDbEntity
  8
HALLE_0_1_EG
  6
Continuous
100
AcDbLine
 10
43.54161287360676
 20
14.47638754995829
 30
0.0
 11
44.62161287360675
 21
14.47638754995829
 31
0.0
  0
LINE
  5
204
330
75
100
AcDbEntity
  8
HALLE_0_1_EG
  6
Continuous
100
AcDbLine
 10
44.94161287360673
 20
7.106387549958267
 30
0.0
 11
43.54161287360674
 21
7.106387549958267
 31
0.0
  0
LINE
  5
205
330
75
100
AcDbEntity
  8
HALLE_0_1_EG
  6
Continuous
100
AcDbLine
 10
43.54161287360674
 20
7.106387549958267
 30
0.0
 11
43.54161287360676
 21
9.616387549958274
 31
0.0
  0
LINE
  5
206
330
75
100
AcDbEntity
  8
HALLE_0_1_EG
  6
Continuous
100
AcDbLine
 10
43.54161287360676
 20
9.616387549958274
 30
0.0
 11
44.94161287360674
 21
9.616387549958274
 31
0.0
  0
LINE
  5
207
330
75
100
AcDbEntity
  8
HALLE_0_1_EG
  6
Continuous
100
AcDbLine
 10
44.94161287360674
 20
9.616387549958274
 30
0.0
 11
44.94161287360673
 21
7.106387549958267
 31
0.0
  0
LINE
  5
208
330
75
100
AcDbEntity
  8
HALLE_0_1_EG
  6
Continuous
100
AcDbLine
 10
-8.258387126393476
 20
-32.31861245004168
 30
0.0
 11
-9.258387126393468
 21
-32.31861245004168
 31
0.0
  0
LINE
  5
209
330
75
100
AcDbEntity
  8
HALLE_0_1_EG
  6
Continuous
100
AcDbLine
 10
-9.258387126393468
 20
-32.31861245004168
 30
0.0
 11
-9.258387126393468
 21
-32.11861245004168
 31
0.0
  0
LINE
  5
20A
330
75
100
AcDbEntity
  8
HALLE_0_1_EG
  6
Continuous
100
AcDbLine
 10
-9.258387126393468
 20
-32.11861245004168
 30
0.0
 11
-8.258387126393476
 21
-32.11861245004168
 31
0.0
  0
LINE
  5
20B
330
75
100
AcDbEntity
  8
HALLE_0_1_EG
  6
Continuous
100
AcDbLine
 10
-8.258387126393476
 20
-32.11861245004168
 30
0.0
 11
-8.258387126393476
 21
-32.31861245004168
 31
0.0
  0
LINE
  5
20C
330
75
100
AcDbEntity
  8
HALLE_0_1_EG
  6
Continuous
100
AcDbLine
 10
41.4716128736067
 20
-32.31861245004173
 30
0.0
 11
40.47161287360671
 21
-32.31861245004173
 31
0.0
  0
LINE
  5
20D
330
75
100
AcDbEntity
  8
HALLE_0_1_EG
  6
Continuous
100
AcDbLine
 10
40.47161287360671
 20
-32.31861245004173
 30
0.0
 11
40.47161287360671
 21
-32.11861245004172
 31
0.0
  0
LINE
  5
20E
330
75
100
AcDbEntity
  8
HALLE_0_1_EG
  6
Continuous
100
AcDbLine
 10
40.47161287360671
 20
-32.11861245004172
 30
0.0
 11
41.4716128736067
 21
-32.11861245004172
 31
0.0
  0
LINE
  5
20F
330
75
100
AcDbEntity
  8
HALLE_0_1_EG
  6
Continuous
100
AcDbLine
 10
41.4716128736067
 20
-32.11861245004172
 30
0.0
 11
41.4716128736067
 21
-32.31861245004173
 31
0.0
  0
LINE
  5
210
330
75
100
AcDbEntity
  8
HALLE_0_1_EG
  6
Continuous
100
AcDbLine
 10
41.59161287360674
 20
6.831387549958277
 30
0.0
 11
40.59161287360673
 21
6.831387549958277
 31
0.0
  0
LINE
  5
211
330
75
100
AcDbEntity
  8
HALLE_0_1_EG
  6
Continuous
100
AcDbLine
 10
40.59161287360673
 20
6.831387549958277
 30
0.0
 11
40.59161287360673
 21
7.031387549958278
 31
0.0
  0
LINE
  5
212
330
75
100
AcDbEntity
  8
HALLE_0_1_EG
  6
Continuous
100
AcDbLine
 10
40.59161287360673
 20
7.031387549958278
 30
0.0
 11
41.59161287360674
 21
7.031387549958278
 31
0.0
  0
LINE
  5
213
330
75
100
AcDbEntity
  8
HALLE_0_1_EG
  6
Continuous
100
AcDbLine
 10
41.59161287360674
 20
7.031387549958278
 30
0.0
 11
41.59161287360674
 21
6.831387549958277
 31
0.0
  0
LINE
  5
214
330
75
100
AcDbEntity
  8
HALLE_0_1_EG
  6
Continuous
100
AcDbLine
 10
43.45161287360673
 20
9.306387549958275
 30
0.0
 11
43.39161287360674
 21
9.306387549958275
 31
0.0
  0
LINE
  5
215
330
75
100
AcDbEntity
  8
HALLE_0_1_EG
  6
Continuous
100
AcDbLine
 10
43.39161287360674
 20
9.306387549958275
 30
0.0
 11
43.39161287360674
 21
9.356387549958274
 31
0.0
  0
LINE
  5
216
330
75
100
AcDbEntity
  8
HALLE_0_1_EG
  6
Continuous
100
AcDbLine
 10
43.39161287360674
 20
9.356387549958274
 30
0.0
 11
43.45161287360673
 21
9.356387549958274
 31
0.0
  0
LINE
  5
217
330
75
100
AcDbEntity
  8
HALLE_0_1_EG
  6
Continuous
100
AcDbLine
 10
43.45161287360673
 20
9.356387549958274
 30
0.0
 11
43.45161287360673
 21
9.306387549958275
 31
0.0
  0
LINE
  5
218
330
75
100
AcDbEntity
  8
HALLE_0_1_EG
  6
Continuous
100
AcDbLine
 10
36.69061287360674
 20
9.356387549958274
 30
0.0
 11
36.67061287360674
 21
9.356387549958274
 31
0.0
  0
LINE
  5
219
330
75
100
AcDbEntity
  8
HALLE_0_1_EG
  6
Continuous
100
AcDbLine
 10
36.67061287360674
 20
9.356387549958274
 30
0.0
 11
36.55061287360676
 21
9.356387549958922
 31
0.0
  0
LINE
  5
21A
330
75
100
AcDbEntity
  8
HALLE_0_1_EG
  6
Continuous
100
AcDbLine
 10
36.55061287360676
 20
9.356387549958922
 30
0.0
 11
36.55061287360676
 21
9.376387549958916
 31
0.0
  0
LINE
  5
21B
330
75
100
AcDbEntity
  8
HALLE_0_1_EG
  6
Continuous
100
AcDbLine
 10
36.55061287360676
 20
9.376387549958916
 30
0.0
 11
36.67061287360674
 21
9.376387549958916
 31
0.0
  0
LINE
  5
21C
330
75
100
AcDbEntity
  8
HALLE_0_1_EG
  6
Continuous
100
AcDbLine
 10
36.67061287360674
 20
9.376387549958916
 30
0.0
 11
36.67061287360674
 21
9.596387549958267
 31
0.0
  0
LINE
  5
21D
330
75
100
AcDbEntity
  8
HALLE_0_1_EG
  6
Continuous
100
AcDbLine
 10
36.67061287360674
 20
9.596387549958267
 30
0.0
 11
36.55061287360676
 21
9.596387549958267
 31
0.0
  0
LINE
  5
21E
330
75
100
AcDbEntity
  8
HALLE_0_1_EG
  6
Continuous
100
AcDbLine
 10
36.55061287360676
 20
9.596387549958267
 30
0.0
 11
36.55061287360676
 21
9.616387549958284
 31
0.0
  0
LINE
  5
21F
330
75
100
AcDbEntity
  8
HALLE_0_1_EG
  6
Continuous
100
AcDbLine
 10
36.55061287360676
 20
9.616387549958284
 30
0.0
 11
36.81061287360675
 21
9.616387549958284
 31
0.0
  0
LINE
  5
220
330
75
100
AcDbEntity
  8
HALLE_0_1_EG
  6
Continuous
100
AcDbLine
 10
36.81061287360675
 20
9.616387549958284
 30
0.0
 11
36.81061287360675
 21
9.596387549958267
 31
0.0
  0
LINE
  5
221
330
75
100
AcDbEntity
  8
HALLE_0_1_EG
  6
Continuous
100
AcDbLine
 10
36.81061287360675
 20
9.596387549958267
 30
0.0
 11
36.69061287360674
 21
9.596387549958267
 31
0.0
  0
LINE
  5
222
330
75
100
AcDbEntity
  8
HALLE_0_1_EG
  6
Continuous
100
AcDbLine
 10
36.69061287360674
 20
9.596387549958267
 30
0.0
 11
36.69061287360674
 21
9.376387549958916
 31
0.0
  0
LINE
  5
223
330
75
100
AcDbEntity
  8
HALLE_0_1_EG
  6
Continuous
100
AcDbLine
 10
36.69061287360674
 20
9.376387549958916
 30
0.0
 11
36.81061287360675
 21
9.376387549958916
 31
0.0
  0
LINE
  5
224
330
75
100
AcDbEntity
  8
HALLE_0_1_EG
  6
Continuous
100
AcDbLine
 10
36.81061287360675
 20
9.376387549958916
 30
0.0
 11
36.81061287360675
 21
9.356387549958922
 31
0.0
  0
LINE
  5
225
330
75
100
AcDbEntity
  8
HALLE_0_1_EG
  6
Continuous
100
AcDbLine
 10
36.81061287360675
 20
9.356387549958922
 30
0.0
 11
36.69061287360674
 21
9.356387549958274
 31
0.0
  0
LINE
  5
226
330
75
100
AcDbEntity
  8
HALLE_0_1_EG
  6
Continuous
100
AcDbLine
 10
30.07961287360674
 20
9.356387549958274
 30
0.0
 11
30.05961287360674
 21
9.356387549958274
 31
0.0
  0
LINE
  5
227
330
75
100
AcDbEntity
  8
HALLE_0_1_EG
  6
Continuous
100
AcDbLine
 10
30.05961287360674
 20
9.356387549958274
 30
0.0
 11
29.93961287360674
 21
9.356387549958945
 31
0.0
  0
LINE
  5
228
330
75
100
AcDbEntity
  8
HALLE_0_1_EG
  6
Continuous
100
AcDbLine
 10
29.93961287360674
 20
9.356387549958945
 30
0.0
 11
29.93961287360674
 21
9.376387549958929
 31
0.0
  0
LINE
  5
229
330
75
100
AcDbEntity
  8
HALLE_0_1_EG
  6
Continuous
100
AcDbLine
 10
29.93961287360674
 20
9.376387549958929
 30
0.0
 11
30.05961287360674
 21
9.376387549958929
 31
0.0
  0
LINE
  5
22A
330
75
100
AcDbEntity
  8
HALLE_0_1_EG
  6
Continuous
100
AcDbLine
 10
30.05961287360674
 20
9.376387549958929
 30
0.0
 11
30.05961287360674
 21
9.59638754995829
 31
0.0
  0
LINE
  5
22B
330
75
100
AcDbEntity
  8
HALLE_0_1_EG
  6
Continuous
100
AcDbLine
 10
30.05961287360674
 20
9.59638754995829
 30
0.0
 11
29.93961287360674
 21
9.59638754995829
 31
0.0
  0
LINE
  5
22C
330
75
100
AcDbEntity
  8
HALLE_0_1_EG
  6
Continuous
100
AcDbLine
 10
29.93961287360674
 20
9.59638754995829
 30
0.0
 11
29.93961287360674
 21
9.616387549958284
 31
0.0
  0
LINE
  5
22D
330
75
100
AcDbEntity
  8
HALLE_0_1_EG
  6
Continuous
100
AcDbLine
 10
29.93961287360674
 20
9.616387549958284
 30
0.0
 11
30.19961287360674
 21
9.616387549958284
 31
0.0
  0
LINE
  5
22E
330
75
100
AcDbEntity
  8
HALLE_0_1_EG
  6
Continuous
100
AcDbLine
 10
30.19961287360674
 20
9.616387549958284
 30
0.0
 11
30.19961287360674
 21
9.59638754995829
 31
0.0
  0
LINE
  5
22F
330
75
100
AcDbEntity
  8
HALLE_0_1_EG
  6
Continuous
100
AcDbLine
 10
30.19961287360674
 20
9.59638754995829
 30
0.0
 11
30.07961287360674
 21
9.59638754995829
 31
0.0
  0
LINE
  5
230
330
75
100
AcDbEntity
  8
HALLE_0_1_EG
  6
Continuous
100
AcDbLine
 10
30.07961287360674
 20
9.59638754995829
 30
0.0
 11
30.07961287360674
 21
9.376387549958929
 31
0.0
  0
LINE
  5
231
330
75
100
AcDbEntity
  8
HALLE_0_1_EG
  6
Continuous
100
AcDbLine
 10
30.07961287360674
 20
9.376387549958929
 30
0.0
 11
30.19961287360674
 21
9.376387549958929
 31
0.0
  0
LINE
  5
232
330
75
100
AcDbEntity
  8
HALLE_0_1_EG
  6
Continuous
100
AcDbLine
 10
30.19961287360674
 20
9.376387549958929
 30
0.0
 11
30.19961287360674
 21
9.356387549958945
 31
0.0
  0
LINE
  5
233
330
75
100
AcDbEntity
  8
HALLE_0_1_EG
  6
Continuous
100
AcDbLine
 10
30.19961287360674
 20
9.356387549958945
 30
0.0
 11
30.07961287360674
 21
9.356387549958274
 31
0.0
  0
LINE
  5
234
330
75
100
AcDbEntity
  8
HALLE_0_1_EG
  6
Continuous
100
AcDbLine
 10
23.46861287360656
 20
9.356387549958297
 30
0.0
 11
23.44861287360656
 21
9.356387549958297
 31
0.0
  0
LINE
  5
235
330
75
100
AcDbEntity
  8
HALLE_0_1_EG
  6
Continuous
100
AcDbLine
 10
23.44861287360656
 20
9.356387549958297
 30
0.0
 11
23.32861287360655
 21
9.356387549958945
 31
0.0
  0
LINE
  5
236
330
75
100
AcDbEntity
  8
HALLE_0_1_EG
  6
Continuous
100
AcDbLine
 10
23.32861287360655
 20
9.356387549958945
 30
0.0
 11
23.32861287360655
 21
9.376387549958929
 31
0.0
  0
LINE
  5
237
330
75
100
AcDbEntity
  8
HALLE_0_1_EG
  6
Continuous
100
AcDbLine
 10
23.32861287360655
 20
9.376387549958929
 30
0.0
 11
23.44861287360656
 21
9.376387549958929
 31
0.0
  0
LINE
  5
238
330
75
100
AcDbEntity
  8
HALLE_0_1_EG
  6
Continuous
100
AcDbLine
 10
23.44861287360656
 20
9.376387549958929
 30
0.0
 11
23.44861287360656
 21
9.59638754995829
 31
0.0
  0
LINE
  5
239
330
75
100
AcDbEntity
  8
HALLE_0_1_EG
  6
Continuous
100
AcDbLine
 10
23.44861287360656
 20
9.59638754995829
 30
0.0
 11
23.32861287360655
 21
9.59638754995829
 31
0.0
  0
LINE
  5
23A
330
75
100
AcDbEntity
  8
HALLE_0_1_EG
  6
Continuous
100
AcDbLine
 10
23.32861287360655
 20
9.59638754995829
 30
0.0
 11
23.32861287360655
 21
9.616387549958297
 31
0.0
  0
LINE
  5
23B
330
75
100
AcDbEntity
  8
HALLE_0_1_EG
  6
Continuous
100
AcDbLine
 10
23.32861287360655
 20
9.616387549958297
 30
0.0
 11
23.58861287360655
 21
9.616387549958297
 31
0.0
  0
LINE
  5
23C
330
75
100
AcDbEntity
  8
HALLE_0_1_EG
  6
Continuous
100
AcDbLine
 10
23.58861287360655
 20
9.616387549958297
 30
0.0
 11
23.58861287360655
 21
9.59638754995829
 31
0.0
  0
LINE
  5
23D
330
75
100
AcDbEntity
  8
HALLE_0_1_EG
  6
Continuous
100
AcDbLine
 10
23.58861287360655
 20
9.59638754995829
 30
0.0
 11
23.46861287360656
 21
9.59638754995829
 31
0.0
  0
LINE
  5
23E
330
75
100
AcDbEntity
  8
HALLE_0_1_EG
  6
Continuous
100
AcDbLine
 10
23.46861287360656
 20
9.59638754995829
 30
0.0
 11
23.46861287360656
 21
9.376387549958929
 31
0.0
  0
LINE
  5
23F
330
75
100
AcDbEntity
  8
HALLE_0_1_EG
  6
Continuous
100
AcDbLine
 10
23.46861287360656
 20
9.376387549958929
 30
0.0
 11
23.58861287360655
 21
9.376387549958929
 31
0.0
  0
LINE
  5
240
330
75
100
AcDbEntity
  8
HALLE_0_1_EG
  6
Continuous
100
AcDbLine
 10
23.58861287360655
 20
9.376387549958929
 30
0.0
 11
23.58861287360655
 21
9.356387549958945
 31
0.0
  0
LINE
  5
241
330
75
100
AcDbEntity
  8
HALLE_0_1_EG
  6
Continuous
100
AcDbLine
 10
23.58861287360655
 20
9.356387549958945
 30
0.0
 11
23.46861287360656
 21
9.356387549958297
 31
0.0
  0
LINE
  5
242
330
75
100
AcDbEntity
  8
HALLE_0_1_EG
  6
Continuous
100
AcDbLine
 10
16.85761287360656
 20
9.356387549958297
 30
0.0
 11
16.83761287360657
 21
9.356387549958297
 31
0.0
  0
LINE
  5
243
330
75
100
AcDbEntity
  8
HALLE_0_1_EG
  6
Continuous
100
AcDbLine
 10
16.83761287360657
 20
9.356387549958297
 30
0.0
 11
16.71761287360656
 21
9.356387549958945
 31
0.0
  0
LINE
  5
244
330
75
100
AcDbEntity
  8
HALLE_0_1_EG
  6
Continuous
100
AcDbLine
 10
16.71761287360656
 20
9.376387549958929
 30
0.0
 11
16.83761287360657
 21
9.376387549958929
 31
0.0
  0
LINE
  5
245
330
75
100
AcDbEntity
  8
HALLE_0_1_EG
  6
Continuous
100
AcDbLine
 10
16.83761287360657
 20
9.376387549958929
 30
0.0
 11
16.83761287360657
 21
9.59638754995829
 31
0.0
  0
LINE
  5
246
330
75
100
AcDbEntity
  8
HALLE_0_1_EG
  6
Continuous
100
AcDbLine
 10
16.83761287360657
 20
9.59638754995829
 30
0.0
 11
16.71761287360656
 21
9.59638754995829
 31
0.0
  0
LINE
  5
247
330
75
100
AcDbEntity
  8
HALLE_0_1_EG
  6
Continuous
100
AcDbLine
 10
16.71761287360656
 20
9.616387549958297
 30
0.0
 11
16.97761287360656
 21
9.616387549958297
 31
0.0
  0
LINE
  5
248
330
75
100
AcDbEntity
  8
HALLE_0_1_EG
  6
Continuous
100
AcDbLine
 10
16.97761287360656
 20
9.616387549958297
 30
0.0
 11
16.97761287360656
 21
9.59638754995829
 31
0.0
  0
LINE
  5
249
330
75
100
AcDbEntity
  8
HALLE_0_1_EG
  6
Continuous
100
AcDbLine
 10
16.97761287360656
 20
9.59638754995829
 30
0.0
 11
16.85761287360656
 21
9.59638754995829
 31
0.0
  0
LINE
  5
24A
330
75
100
AcDbEntity
  8
HALLE_0_1_EG
  6
Continuous
100
AcDbLine
 10
16.85761287360656
 20
9.59638754995829
 30
0.0
 11
16.85761287360656
 21
9.376387549958929
 31
0.0
  0
LINE
  5
24B
330
75
100
AcDbEntity
  8
HALLE_0_1_EG
  6
Continuous
100
AcDbLine
 10
16.85761287360656
 20
9.376387549958929
 30
0.0
 11
16.97761287360656
 21
9.376387549958929
 31
0.0
  0
LINE
  5
24C
330
75
100
AcDbEntity
  8
HALLE_0_1_EG
  6
Continuous
100
AcDbLine
 10
16.97761287360656
 20
9.376387549958929
 30
0.0
 11
16.97761287360656
 21
9.356387549958945
 31
0.0
  0
LINE
  5
24D
330
75
100
AcDbEntity
  8
HALLE_0_1_EG
  6
Continuous
100
AcDbLine
 10
16.97761287360656
 20
9.356387549958945
 30
0.0
 11
16.85761287360656
 21
9.356387549958297
 31
0.0
  0
LINE
  5
24E
330
75
100
AcDbEntity
  8
HALLE_0_1_EG
  6
Continuous
100
AcDbLine
 10
10.24661287360656
 20
9.356387549958297
 30
0.0
 11
10.22661287360656
 21
9.356387549958297
 31
0.0
  0
LINE
  5
24F
330
75
100
AcDbEntity
  8
HALLE_0_1_EG
  6
Continuous
100
AcDbLine
 10
10.22661287360656
 20
9.356387549958297
 30
0.0
 11
10.10661287360655
 21
9.356387549958945
 31
0.0
  0
LINE
  5
250
330
75
100
AcDbEntity
  8
HALLE_0_1_EG
  6
Continuous
100
AcDbLine
 10
10.10661287360655
 20
9.356387549958945
 30
0.0
 11
10.10661287360655
 21
9.376387549958939
 31
0.0
  0
LINE
  5
251
330
75
100
AcDbEntity
  8
HALLE_0_1_EG
  6
Continuous
100
AcDbLine
 10
10.10661287360655
 20
9.376387549958939
 30
0.0
 11
10.22661287360656
 21
9.376387549958939
 31
0.0
  0
LINE
  5
252
330
75
100
AcDbEntity
  8
HALLE_0_1_EG
  6
Continuous
100
AcDbLine
 10
10.22661287360656
 20
9.376387549958939
 30
0.0
 11
10.22661287360656
 21
9.59638754995829
 31
0.0
  0
LINE
  5
253
330
75
100
AcDbEntity
  8
HALLE_0_1_EG
  6
Continuous
100
AcDbLine
 10
10.22661287360656
 20
9.59638754995829
 30
0.0
 11
10.10661287360655
 21
9.59638754995829
 31
0.0
  0
LINE
  5
254
330
75
100
AcDbEntity
  8
HALLE_0_1_EG
  6
Continuous
100
AcDbLine
 10
10.10661287360655
 20
9.59638754995829
 30
0.0
 11
10.10661287360655
 21
9.616387549958307
 31
0.0
  0
LINE
  5
255
330
75
100
AcDbEntity
  8
HALLE_0_1_EG
  6
Continuous
100
AcDbLine
 10
10.10661287360655
 20
9.616387549958307
 30
0.0
 11
10.36661287360655
 21
9.616387549958307
 31
0.0
  0
LINE
  5
256
330
75
100
AcDbEntity
  8
HALLE_0_1_EG
  6
Continuous
100
AcDbLine
 10
10.36661287360655
 20
9.616387549958307
 30
0.0
 11
10.36661287360655
 21
9.59638754995829
 31
0.0
  0
LINE
  5
257
330
75
100
AcDbEntity
  8
HALLE_0_1_EG
  6
Continuous
100
AcDbLine
 10
10.36661287360655
 20
9.59638754995829
 30
0.0
 11
10.24661287360656
 21
9.59638754995829
 31
0.0
  0
LINE
  5
258
330
75
100
AcDbEntity
  8
HALLE_0_1_EG
  6
Continuous
100
AcDbLine
 10
10.24661287360656
 20
9.59638754995829
 30
0.0
 11
10.24661287360656
 21
9.376387549958939
 31
0.0
  0
LINE
  5
259
330
75
100
AcDbEntity
  8
HALLE_0_1_EG
  6
Continuous
100
AcDbLine
 10
10.24661287360656
 20
9.376387549958939
 30
0.0
 11
10.36661287360655
 21
9.376387549958939
 31
0.0
  0
LINE
  5
25A
330
75
100
AcDbEntity
  8
HALLE_0_1_EG
  6
Continuous
100
AcDbLine
 10
10.36661287360655
 20
9.376387549958939
 30
0.0
 11
10.36661287360655
 21
9.356387549958945
 31
0.0
  0
LINE
  5
25B
330
75
100
AcDbEntity
  8
HALLE_0_1_EG
  6
Continuous
100
AcDbLine
 10
10.36661287360655
 20
9.356387549958945
 30
0.0
 11
10.24661287360656
 21
9.356387549958297
 31
0.0
  0
LINE
  5
25C
330
75
100
AcDbEntity
  8
HALLE_0_1_EG
  6
Continuous
100
AcDbLine
 10
3.635612873606625
 20
9.356387549958297
 30
0.0
 11
3.615612873606607
 21
9.356387549958297
 31
0.0
  0
LINE
  5
25D
330
75
100
AcDbEntity
  8
HALLE_0_1_EG
  6
Continuous
100
AcDbLine
 10
3.615612873606607
 20
9.356387549958297
 30
0.0
 11
3.495612873606611
 21
9.356387549958956
 31
0.0
  0
LINE
  5
25E
330
75
100
AcDbEntity
  8
HALLE_0_1_EG
  6
Continuous
100
AcDbLine
 10
3.495612873606611
 20
9.356387549958956
 30
0.0
 11
3.495612873606611
 21
9.376387549958939
 31
0.0
  0
LINE
  5
25F
330
75
100
AcDbEntity
  8
HALLE_0_1_EG
  6
Continuous
100
AcDbLine
 10
3.495612873606611
 20
9.376387549958939
 30
0.0
 11
3.615612873606607
 21
9.376387549958939
 31
0.0
  0
LINE
  5
260
330
75
100
AcDbEntity
  8
HALLE_0_1_EG
  6
Continuous
100
AcDbLine
 10
3.615612873606607
 20
9.376387549958939
 30
0.0
 11
3.615612873606607
 21
9.596387549958313
 31
0.0
  0
LINE
  5
261
330
75
100
AcDbEntity
  8
HALLE_0_1_EG
  6
Continuous
100
AcDbLine
 10
3.615612873606607
 20
9.596387549958313
 30
0.0
 11
3.495612873606611
 21
9.596387549958313
 31
0.0
  0
LINE
  5
262
330
75
100
AcDbEntity
  8
HALLE_0_1_EG
  6
Continuous
100
AcDbLine
 10
3.495612873606611
 20
9.596387549958313
 30
0.0
 11
3.495612873606611
 21
9.616387549958307
 31
0.0
  0
LINE
  5
263
330
75
100
AcDbEntity
  8
HALLE_0_1_EG
  6
Continuous
100
AcDbLine
 10
3.495612873606611
 20
9.616387549958307
 30
0.0
 11
3.755612873606609
 21
9.616387549958307
 31
0.0
  0
LINE
  5
264
330
75
100
AcDbEntity
  8
HALLE_0_1_EG
  6
Continuous
100
AcDbLine
 10
3.755612873606609
 20
9.616387549958307
 30
0.0
 11
3.755612873606609
 21
9.596387549958313
 31
0.0
  0
LINE
  5
265
330
75
100
AcDbEntity
  8
HALLE_0_1_EG
  6
Continuous
100
AcDbLine
 10
3.755612873606609
 20
9.596387549958313
 30
0.0
 11
3.635612873606625
 21
9.596387549958313
 31
0.0
  0
LINE
  5
266
330
75
100
AcDbEntity
  8
HALLE_0_1_EG
  6
Continuous
100
AcDbLine
 10
3.635612873606625
 20
9.596387549958313
 30
0.0
 11
3.635612873606625
 21
9.376387549958939
 31
0.0
  0
LINE
  5
267
330
75
100
AcDbEntity
  8
HALLE_0_1_EG
  6
Continuous
100
AcDbLine
 10
3.635612873606625
 20
9.376387549958939
 30
0.0
 11
3.755612873606609
 21
9.376387549958939
 31
0.0
  0
LINE
  5
268
330
75
100
AcDbEntity
  8
HALLE_0_1_EG
  6
Continuous
100
AcDbLine
 10
3.755612873606609
 20
9.376387549958939
 30
0.0
 11
3.755612873606609
 21
9.356387549958956
 31
0.0
  0
LINE
  5
269
330
75
100
AcDbEntity
  8
HALLE_0_1_EG
  6
Continuous
100
AcDbLine
 10
3.755612873606609
 20
9.356387549958956
 30
0.0
 11
3.635612873606625
 21
9.356387549958297
 31
0.0
  0
LINE
  5
26A
330
75
100
AcDbEntity
  8
HALLE_0_1_EG
  6
Continuous
100
AcDbLine
 10
-2.975387126393384
 20
9.35638754995832
 30
0.0
 11
-2.995387126393391
 21
9.35638754995832
 31
0.0
  0
LINE
  5
26B
330
75
100
AcDbEntity
  8
HALLE_0_1_EG
  6
Continuous
100
AcDbLine
 10
-2.995387126393391
 20
9.35638754995832
 30
0.0
 11
-3.115387126393396
 21
9.356387549958956
 31
0.0
  0
LINE
  5
26C
330
75
100
AcDbEntity
  8
HALLE_0_1_EG
  6
Continuous
100
AcDbLine
 10
-3.115387126393396
 20
9.356387549958956
 30
0.0
 11
-3.115387126393396
 21
9.376387549958952
 31
0.0
  0
LINE
  5
26D
330
75
100
AcDbEntity
  8
HALLE_0_1_EG
  6
Continuous
100
AcDbLine
 10
-3.115387126393396
 20
9.376387549958952
 30
0.0
 11
-2.995387126393391
 21
9.376387549958952
 31
0.0
  0
LINE
  5
26E
330
75
100
AcDbEntity
  8
HALLE_0_1_EG
  6
Continuous
100
AcDbLine
 10
-2.995387126393391
 20
9.376387549958952
 30
0.0
 11
-2.995387126393391
 21
9.596387549958313
 31
0.0
  0
LINE
  5
26F
330
75
100
AcDbEntity
  8
HALLE_0_1_EG
  6
Continuous
100
AcDbLine
 10
-2.995387126393391
 20
9.596387549958313
 30
0.0
 11
-3.115387126393396
 21
9.596387549958313
 31
0.0
  0
LINE
  5
270
330
75
100
AcDbEntity
  8
HALLE_0_1_EG
  6
Continuous
100
AcDbLine
 10
-3.115387126393396
 20
9.596387549958313
 30
0.0
 11
-3.115387126393396
 21
9.616387549958307
 31
0.0
  0
LINE
  5
271
330
75
100
AcDbEntity
  8
HALLE_0_1_EG
  6
Continuous
100
AcDbLine
 10
-3.115387126393396
 20
9.616387549958307
 30
0.0
 11
-2.855387126393402
 21
9.616387549958307
 31
0.0
  0
LINE
  5
272
330
75
100
AcDbEntity
  8
HALLE_0_1_EG
  6
Continuous
100
AcDbLine
 10
-2.855387126393402
 20
9.616387549958307
 30
0.0
 11
-2.855387126393402
 21
9.596387549958313
 31
0.0
  0
LINE
  5
273
330
75
100
AcDbEntity
  8
HALLE_0_1_EG
  6
Continuous
100
AcDbLine
 10
-2.855387126393402
 20
9.596387549958313
 30
0.0
 11
-2.975387126393384
 21
9.596387549958313
 31
0.0
  0
LINE
  5
274
330
75
100
AcDbEntity
  8
HALLE_0_1_EG
  6
Continuous
100
AcDbLine
 10
-2.975387126393384
 20
9.596387549958313
 30
0.0
 11
-2.975387126393384
 21
9.376387549958952
 31
0.0
  0
LINE
  5
275
330
75
100
AcDbEntity
  8
HALLE_0_1_EG
  6
Continuous
100
AcDbLine
 10
-2.975387126393384
 20
9.376387549958952
 30
0.0
 11
-2.855387126393402
 21
9.376387549958952
 31
0.0
  0
LINE
  5
276
330
75
100
AcDbEntity
  8
HALLE_0_1_EG
  6
Continuous
100
AcDbLine
 10
-2.855387126393402
 20
9.376387549958952
 30
0.0
 11
-2.855387126393402
 21
9.356387549958956
 31
0.0
  0
LINE
  5
277
330
75
100
AcDbEntity
  8
HALLE_0_1_EG
  6
Continuous
100
AcDbLine
 10
-2.855387126393402
 20
9.356387549958956
 30
0.0
 11
-2.975387126393384
 21
9.35638754995832
 31
0.0
  0
LINE
  5
278
330
75
100
AcDbEntity
  8
HALLE_0_1_EG
  6
Continuous
100
AcDbLine
 10
-9.586387126393427
 20
9.35638754995832
 30
0.0
 11
-9.606387126393435
 21
9.35638754995832
 31
0.0
  0
LINE
  5
279
330
75
100
AcDbEntity
  8
HALLE_0_1_EG
  6
Continuous
100
AcDbLine
 10
-9.606387126393435
 20
9.35638754995832
 30
0.0
 11
-9.726387126393431
 21
9.356387549958956
 31
0.0
  0
LINE
  5
27A
330
75
100
AcDbEntity
  8
HALLE_0_1_EG
  6
Continuous
100
AcDbLine
 10
-9.726387126393431
 20
9.356387549958956
 30
0.0
 11
-9.726387126393431
 21
9.376387549958963
 31
0.0
  0
LINE
  5
27B
330
75
100
AcDbEntity
  8
HALLE_0_1_EG
  6
Continuous
100
AcDbLine
 10
-9.726387126393431
 20
9.376387549958963
 30
0.0
 11
-9.606387126393435
 21
9.376387549958963
 31
0.0
  0
LINE
  5
27C
330
75
100
AcDbEntity
  8
HALLE_0_1_EG
  6
Continuous
100
AcDbLine
 10
-9.606387126393435
 20
9.376387549958963
 30
0.0
 11
-9.606387126393435
 21
9.596387549958313
 31
0.0
  0
LINE
  5
27D
330
75
100
AcDbEntity
  8
HALLE_0_1_EG
  6
Continuous
100
AcDbLine
 10
-9.606387126393435
 20
9.596387549958313
 30
0.0
 11
-9.726387126393431
 21
9.596387549958313
 31
0.0
  0
LINE
  5
27E
330
75
100
AcDbEntity
  8
HALLE_0_1_EG
  6
Continuous
100
AcDbLine
 10
-9.726387126393431
 20
9.596387549958313
 30
0.0
 11
-9.726387126393431
 21
9.61638754995832
 31
0.0
  0
LINE
  5
27F
330
75
100
AcDbEntity
  8
HALLE_0_1_EG
  6
Continuous
100
AcDbLine
 10
-9.726387126393431
 20
9.61638754995832
 30
0.0
 11
-9.466387126393431
 21
9.61638754995832
 31
0.0
  0
LINE
  5
280
330
75
100
AcDbEntity
  8
HALLE_0_1_EG
  6
Continuous
100
AcDbLine
 10
-9.466387126393431
 20
9.61638754995832
 30
0.0
 11
-9.466387126393431
 21
9.596387549958313
 31
0.0
  0
LINE
  5
281
330
75
100
AcDbEntity
  8
HALLE_0_1_EG
  6
Continuous
100
AcDbLine
 10
-9.466387126393431
 20
9.596387549958313
 30
0.0
 11
-9.586387126393427
 21
9.596387549958313
 31
0.0
  0
LINE
  5
282
330
75
100
AcDbEntity
  8
HALLE_0_1_EG
  6
Continuous
100
AcDbLine
 10
-9.586387126393427
 20
9.596387549958313
 30
0.0
 11
-9.586387126393427
 21
9.376387549958963
 31
0.0
  0
LINE
  5
283
330
75
100
AcDbEntity
  8
HALLE_0_1_EG
  6
Continuous
100
AcDbLine
 10
-9.586387126393427
 20
9.376387549958963
 30
0.0
 11
-9.466387126393431
 21
9.376387549958963
 31
0.0
  0
LINE
  5
284
330
75
100
AcDbEntity
  8
HALLE_0_1_EG
  6
Continuous
100
AcDbLine
 10
-9.466387126393431
 20
9.376387549958963
 30
0.0
 11
-9.466387126393431
 21
9.356387549958956
 31
0.0
  0
LINE
  5
285
330
75
100
AcDbEntity
  8
HALLE_0_1_EG
  6
Continuous
100
AcDbLine
 10
-9.466387126393431
 20
9.356387549958956
 30
0.0
 11
-9.586387126393427
 21
9.35638754995832
 31
0.0
  0
LINE
  5
286
330
75
100
AcDbEntity
  8
HALLE_0_1_EG
  6
Continuous
100
AcDbLine
 10
43.45161287360673
 20
7.356387549958268
 30
0.0
 11
43.39161287360674
 21
7.356387549958268
 31
0.0
  0
LINE
  5
287
330
75
100
AcDbEntity
  8
HALLE_0_1_EG
  6
Continuous
100
AcDbLine
 10
43.39161287360674
 20
7.356387549958268
 30
0.0
 11
43.39161287360674
 21
7.406387549958267
 31
0.0
  0
LINE
  5
288
330
75
100
AcDbEntity
  8
HALLE_0_1_EG
  6
Continuous
100
AcDbLine
 10
43.39161287360674
 20
7.406387549958267
 30
0.0
 11
43.45161287360673
 21
7.406387549958267
 31
0.0
  0
LINE
  5
289
330
75
100
AcDbEntity
  8
HALLE_0_1_EG
  6
Continuous
100
AcDbLine
 10
43.45161287360673
 20
7.406387549958267
 30
0.0
 11
43.45161287360673
 21
7.356387549958268
 31
0.0
  0
LINE
  5
28A
330
75
100
AcDbEntity
  8
HALLE_0_1_EG
  6
Continuous
100
AcDbLine
 10
-11.25838712639873
 20
9.766387549958331
 30
0.0
 11
-11.29838712639873
 21
9.766387549958331
 31
0.0
  0
LINE
  5
28B
330
75
100
AcDbEntity
  8
HALLE_0_1_EG
  6
Continuous
100
AcDbLine
 10
-11.29838712639873
 20
9.766387549958331
 30
0.0
 11
-11.29838712639872
 21
11.5065009668296
 31
0.0
  0
LINE
  5
28C
330
75
100
AcDbEntity
  8
HALLE_0_1_EG
  6
Continuous
100
AcDbLine
 10
-11.29838712639872
 20
11.5065009668296
 30
0.0
 11
-11.25838712639872
 21
11.5065009668296
 31
0.0
  0
LINE
  5
28D
330
75
100
AcDbEntity
  8
HALLE_0_1_EG
  6
Continuous
100
AcDbLine
 10
-11.25838712639872
 20
11.5065009668296
 30
0.0
 11
-11.25838712639873
 21
9.766387549958331
 31
0.0
  0
LINE
  5
28E
330
75
100
AcDbEntity
  8
HALLE_0_1_EG
  6
Continuous
100
AcDbLine
 10
-11.25838712639872
 20
11.46650096682959
 30
0.0
 11
-13.26838712639872
 21
11.46650096682959
 31
0.0
  0
LINE
  5
28F
330
75
100
AcDbEntity
  8
HALLE_0_1_EG
  6
Continuous
100
AcDbLine
 10
-13.26838712639872
 20
11.46650096682959
 30
0.0
 11
-13.26838712639872
 21
11.5065009668296
 31
0.0
  0
LINE
  5
290
330
75
100
AcDbEntity
  8
HALLE_0_1_EG
  6
Continuous
100
AcDbLine
 10
-13.26838712639872
 20
11.5065009668296
 30
0.0
 11
-11.25838712639872
 21
11.5065009668296
 31
0.0
  0
LINE
  5
291
330
75
100
AcDbEntity
  8
HALLE_0_1_EG
  6
Continuous
100
AcDbLine
 10
-11.25838712639872
 20
11.5065009668296
 30
0.0
 11
-11.25838712639872
 21
11.46650096682959
 31
0.0
  0
LINE
  5
292
330
75
100
AcDbEntity
  8
HALLE_0_1_EG
  6
Continuous
100
AcDbLine
 10
-11.12638712639343
 20
7.356387549958314
 30
0.0
 11
-11.17638712639343
 21
7.356387549958314
 31
0.0
  0
LINE
  5
293
330
75
100
AcDbEntity
  8
HALLE_0_1_EG
  6
Continuous
100
AcDbLine
 10
-11.17638712639343
 20
7.356387549958314
 30
0.0
 11
-11.17638712639343
 21
9.61638754995832
 31
0.0
  0
LINE
  5
294
330
75
100
AcDbEntity
  8
HALLE_0_1_EG
  6
Continuous
100
AcDbLine
 10
-11.17638712639343
 20
9.61638754995832
 30
0.0
 11
-11.12638712639343
 21
9.61638754995832
 31
0.0
  0
LINE
  5
295
330
75
100
AcDbEntity
  8
HALLE_0_1_EG
  6
Continuous
100
AcDbLine
 10
-11.12638712639343
 20
9.61638754995832
 30
0.0
 11
-11.12638712639343
 21
7.356387549958314
 31
0.0
  0
LINE
  5
296
330
75
100
AcDbEntity
  8
HALLE_0_1_EG
  6
Continuous
100
AcDbLine
 10
-13.74138712639342
 20
13.00650096682961
 30
0.0
 11
-15.94138712639343
 21
13.00650096682961
 31
0.0
  0
LINE
  5
297
330
75
100
AcDbEntity
  8
HALLE_0_1_EG
  6
Continuous
100
AcDbLine
 10
-15.94138712639343
 20
13.00650096682961
 30
0.0
 11
-15.94138712639343
 21
13.0565009668296
 31
0.0
  0
LINE
  5
298
330
75
100
AcDbEntity
  8
HALLE_0_1_EG
  6
Continuous
100
AcDbLine
 10
-15.94138712639343
 20
13.0565009668296
 30
0.0
 11
-13.74138712639342
 21
13.05650096682958
 31
0.0
  0
LINE
  5
299
330
75
100
AcDbEntity
  8
HALLE_0_1_EG
  6
Continuous
100
AcDbLine
 10
-13.74138712639342
 20
13.05650096682958
 30
0.0
 11
-13.74138712639342
 21
13.00650096682961
 31
0.0
  0
LINE
  5
29A
330
75
100
AcDbEntity
  8
HALLE_0_1_EG
  6
Continuous
100
AcDbLine
 10
11.73661287360658
 20
27.0363875499583
 30
0.0
 11
10.73661287360656
 21
27.0363875499583
 31
0.0
  0
LINE
  5
29B
330
75
100
AcDbEntity
  8
HALLE_0_1_EG
  6
Continuous
100
AcDbLine
 10
10.73661287360656
 20
27.0363875499583
 30
0.0
 11
10.73661287360656
 21
27.2363875499583
 31
0.0
  0
LINE
  5
29C
330
75
100
AcDbEntity
  8
HALLE_0_1_EG
  6
Continuous
100
AcDbLine
 10
10.73661287360656
 20
27.2363875499583
 30
0.0
 11
11.73661287360658
 21
27.2363875499583
 31
0.0
  0
LINE
  5
29D
330
75
100
AcDbEntity
  8
HALLE_0_1_EG
  6
Continuous
100
AcDbLine
 10
11.73661287360658
 20
27.2363875499583
 30
0.0
 11
11.73661287360658
 21
27.0363875499583
 31
0.0
  0
LINE
  5
29E
330
75
100
AcDbEntity
  8
HALLE_0_1_EG
  6
Continuous
100
AcDbLine
 10
4.631612873606607
 20
6.61638754995832
 30
0.0
 11
3.65161287360661
 21
6.61638754995832
 31
0.0
  0
LINE
  5
29F
330
75
100
AcDbEntity
  8
HALLE_0_1_EG
  6
Continuous
100
AcDbLine
 10
3.65161287360661
 20
6.61638754995832
 30
0.0
 11
3.65161287360661
 21
7.056387549958312
 31
0.0
  0
LINE
  5
2A0
330
75
100
AcDbEntity
  8
HALLE_0_1_EG
  6
Continuous
100
AcDbLine
 10
3.65161287360661
 20
7.056387549958312
 30
0.0
 11
4.631612873606618
 21
7.056387549958312
 31
0.0
  0
LINE
  5
2A1
330
75
100
AcDbEntity
  8
HALLE_0_1_EG
  6
Continuous
100
AcDbLine
 10
4.631612873606618
 20
7.056387549958312
 30
0.0
 11
4.631612873606607
 21
6.61638754995832
 31
0.0
  0
LINE
  5
2A2
330
75
100
AcDbEntity
  8
HALLE_0_1_EG
  6
Continuous
100
AcDbLine
 10
26.22161287360674
 20
6.616387549958297
 30
0.0
 11
25.22161287360674
 21
6.616387549958297
 31
0.0
  0
LINE
  5
2A3
330
75
100
AcDbEntity
  8
HALLE_0_1_EG
  6
Continuous
100
AcDbLine
 10
25.22161287360674
 20
6.616387549958297
 30
0.0
 11
25.22161287360674
 21
7.056387549958301
 31
0.0
  0
LINE
  5
2A4
330
75
100
AcDbEntity
  8
HALLE_0_1_EG
  6
Continuous
100
AcDbLine
 10
25.22161287360674
 20
7.056387549958301
 30
0.0
 11
26.22161287360674
 21
7.056387549958301
 31
0.0
  0
LINE
  5
2A5
330
75
100
AcDbEntity
  8
HALLE_0_1_EG
  6
Continuous
100
AcDbLine
 10
26.22161287360674
 20
7.056387549958301
 30
0.0
 11
26.22161287360674
 21
6.616387549958297
 31
0.0
  0
LINE
  5
2A6
330
75
100
AcDbEntity
  8
HALLE_0_1_EG
  6
Continuous
100
AcDbLine
 10
38.76990877360676
 20
26.46909858926086
 30
0.0
 11
38.46161287360676
 21
26.48054058926085
 31
0.0
  0
LINE
  5
2A7
330
75
100
AcDbEntity
  8
HALLE_0_1_EG
  6
Continuous
100
AcDbLine
 10
38.46161287360676
 20
26.48054058926085
 30
0.0
 11
38.46161287360676
 21
26.81765458926085
 31
0.0
  0
LINE
  5
2A8
330
75
100
AcDbEntity
  8
HALLE_0_1_EG
  6
Continuous
100
AcDbLine
 10
38.46161287360676
 20
26.81765458926085
 30
0.0
 11
38.76990887360676
 21
26.82909698926087
 31
0.0
  0
ARC
  5
2A9
330
75
100
AcDbEntity
  8
HALLE_0_1_EG
  6
Continuous
100
AcDbCircle
 10
38.77959766263274
 20
26.54743267919968
 30
0.0
 40
0.2818309000000223
100
AcDbArc
 50
38.92718890356006
 51
91.97019445673319
  0
LINE
  5
2AA
330
75
100
AcDbEntity
  8
HALLE_0_1_EG
  6
Continuous
100
AcDbLine
 10
38.99884827360677
 20
26.72451408926086
 30
0.0
 11
38.99884817360677
 21
26.57368128926088
 31
0.0
  0
ARC
  5
2AB
330
75
100
AcDbEntity
  8
HALLE_0_1_EG
  6
Continuous
100
AcDbCircle
 10
38.77959785913493
 20
26.75076258895599
 30
0.0
 40
0.2818306000000053
100
AcDbArc
 50
268.0303431058813
 51
321.0735619421057
  0
LINE
  5
2AC
330
75
100
AcDbEntity
  8
HALLE_0_1_EG
  6
Continuous
100
AcDbLine
 10
38.52721087360676
 20
26.81448758926088
 30
0.0
 11
38.52161287360676
 21
26.80061058926086
 31
0.0
  0
LINE
  5
2AD
330
75
100
AcDbEntity
  8
HALLE_0_1_EG
  6
Continuous
100
AcDbLine
 10
38.52161287360676
 20
26.80061058926086
 30
0.0
 11
38.52161287360676
 21
26.49758458926086
 31
0.0
  0
LINE
  5
2AE
330
75
100
AcDbEntity
  8
HALLE_0_1_EG
  6
Continuous
100
AcDbLine
 10
38.52161287360676
 20
26.49758458926086
 30
0.0
 11
38.52721087360676
 21
26.48370758926086
 31
0.0
  0
LINE
  5
2AF
330
75
100
AcDbEntity
  8
HALLE_0_1_EG
  6
Continuous
100
AcDbLine
 10
38.52721087360676
 20
26.48370758926086
 30
0.0
 11
38.54087087360677
 21
26.47759858926086
 31
0.0
  0
ARC
  5
2B0
330
75
100
AcDbEntity
  8
HALLE_0_1_EG
  6
Continuous
100
AcDbCircle
 10
38.88530698052037
 20
26.64909758926085
 30
0.0
 40
0.0963056187058232
100
AcDbArc
 50
327.4675249527175
 51
32.53247504728248
  0
ARC
  5
2B1
330
75
100
AcDbEntity
  8
HALLE_0_1_EG
  6
Continuous
100
AcDbCircle
 10
38.77980284524409
 20
26.75077529805596
 30
0.0
 40
0.2416792000000024
100
AcDbArc
 50
268.0148850527143
 51
320.5794747400732
  0
LINE
  5
2B2
330
75
100
AcDbEntity
  8
HALLE_0_1_EG
  6
Continuous
100
AcDbLine
 10
38.77142967360676
 20
26.50924118926087
 30
0.0
 11
38.64196837360676
 21
26.64909758926085
 31
0.0
  0
LINE
  5
2B3
330
75
100
AcDbEntity
  8
HALLE_0_1_EG
  6
Continuous
100
AcDbLine
 10
38.64196837360676
 20
26.64909758926085
 30
0.0
 11
38.77142967360676
 21
26.78895408926085
 31
0.0
  0
ARC
  5
2B4
330
75
100
AcDbEntity
  8
HALLE_0_1_EG
  6
Continuous
100
AcDbCircle
 10
38.7798027653007
 20
26.54741997769706
 30
0.0
 40
0.2416792000000151
100
AcDbArc
 50
39.42133954603404
 51
91.9856462720643
  0
LINE
  5
2B5
330
75
100
AcDbEntity
  8
HALLE_0_1_EG
  6
Continuous
100
AcDbLine
 10
38.71188287360676
 20
26.60409758926086
 30
0.0
 11
38.68396287360676
 21
26.59976508926086
 31
0.0
  0
LINE
  5
2B6
330
75
100
AcDbEntity
  8
HALLE_0_1_EG
  6
Continuous
100
AcDbLine
 10
38.68396287360676
 20
26.59976508926086
 30
0.0
 11
38.68050207360676
 21
26.60049388926085
 31
0.0
  0
LINE
  5
2B7
330
75
100
AcDbEntity
  8
HALLE_0_1_EG
  6
Continuous
100
AcDbLine
 10
38.68050207360676
 20
26.60049388926085
 30
0.0
 11
38.67838917360677
 21
26.60333008926086
 31
0.0
  0
LINE
  5
2B8
330
75
100
AcDbEntity
  8
HALLE_0_1_EG
  6
Continuous
100
AcDbLine
 10
38.67838917360677
 20
26.60333008926086
 30
0.0
 11
38.67196837360676
 21
26.64909758926085
 31
0.0
  0
LINE
  5
2B9
330
75
100
AcDbEntity
  8
HALLE_0_1_EG
  6
Continuous
100
AcDbLine
 10
38.67196837360676
 20
26.64909758926085
 30
0.0
 11
38.67838917360677
 21
26.69486508926086
 31
0.0
  0
LINE
  5
2BA
330
75
100
AcDbEntity
  8
HALLE_0_1_EG
  6
Continuous
100
AcDbLine
 10
38.67838917360677
 20
26.69486508926086
 30
0.0
 11
38.68050207360676
 21
26.69770128926087
 31
0.0
  0
LINE
  5
2BB
330
75
100
AcDbEntity
  8
HALLE_0_1_EG
  6
Continuous
100
AcDbLine
 10
38.68050207360676
 20
26.69770128926087
 30
0.0
 11
38.68396287360676
 21
26.69843008926086
 31
0.0
  0
LINE
  5
2BC
330
75
100
AcDbEntity
  8
HALLE_0_1_EG
  6
Continuous
100
AcDbLine
 10
38.68396287360676
 20
26.69843008926086
 30
0.0
 11
38.71188287360676
 21
26.69409758926088
 31
0.0
  0
ARC
  5
2BD
330
75
100
AcDbEntity
  8
HALLE_0_1_EG
  6
Continuous
100
AcDbCircle
 10
38.78487192312138
 20
26.57194294600602
 30
0.0
 40
0.2178819243354964
100
AcDbArc
 50
36.28589657385617
 51
58.70876250971254
  0
LINE
  5
2BE
330
75
100
AcDbEntity
  8
HALLE_0_1_EG
  6
Continuous
100
AcDbLine
 10
38.96050087360677
 20
26.70088868926085
 30
0.0
 11
38.96050077360675
 21
26.59730668926085
 31
0.0
  0
LINE
  5
2BF
330
75
100
AcDbEntity
  8
HALLE_0_1_EG
  6
Continuous
100
AcDbLine
 10
38.96050077360675
 20
26.59730668926085
 30
0.0
 11
38.89906217360676
 21
26.54058688926085
 31
0.0
  0
ARC
  5
2C0
330
75
100
AcDbEntity
  8
HALLE_0_1_EG
  6
Continuous
100
AcDbCircle
 10
38.48891875957318
 20
25.5398826141116
 30
0.0
 40
0.4044179000000029
100
AcDbArc
 50
266.1290426984125
 51
314.322163944474
  0
LINE
  5
2C1
330
75
100
AcDbEntity
  8
HALLE_0_1_EG
  6
Continuous
100
AcDbLine
 10
38.46161287360676
 20
25.13638759995829
 30
0.0
 11
38.46161287360676
 21
25.43638749995829
 31
0.0
  0
ARC
  5
2C2
330
75
100
AcDbEntity
  8
HALLE_0_1_EG
  6
Continuous
100
AcDbCircle
 10
38.48891875955777
 20
25.03289248582192
 30
0.0
 40
0.4044178999999869
100
AcDbArc
 50
45.67824808677535
 51
93.87153782113541
  0
LINE
  5
2C3
330
75
100
AcDbEntity
  8
HALLE_0_1_EG
  6
Continuous
100
AcDbLine
 10
38.77148117360677
 20
25.32222329995829
 30
0.0
 11
38.78661277360677
 21
25.28638749995832
 31
0.0
  0
ARC
  5
2C4
330
75
100
AcDbEntity
  8
HALLE_0_1_EG
  6
Continuous
100
AcDbCircle
 10
38.73661277360676
 20
25.28638746210853
 30
0.0
 40
0.0500000000000069
100
AcDbArc
 50
314.2168523489179
 51
0.0
  0
LINE
  5
2C5
330
75
100
AcDbEntity
  8
HALLE_0_1_EG
  6
Continuous
100
AcDbLine
 10
38.55114167360677
 20
25.17009679995828
 30
0.0
 11
38.71509887360675
 21
25.24520579995828
 31
0.0
  0
ARC
  5
2C6
330
75
100
AcDbEntity
  8
HALLE_0_1_EG
  6
Continuous
100
AcDbCircle
 10
38.68674297360675
 20
25.28638762769062
 30
0.0
 40
0.0500000000000192
100
AcDbArc
 50
304.549992106654
 51
359.9999999999861
  0
LINE
  5
2C7
330
75
100
AcDbEntity
  8
HALLE_0_1_EG
  6
Continuous
100
AcDbLine
 10
38.73674297360675
 20
25.28638759995829
 30
0.0
 11
38.71509887360675
 21
25.32756939995828
 31
0.0
  0
ARC
  5
2C8
330
75
100
AcDbEntity
  8
HALLE_0_1_EG
  6
Continuous
100
AcDbCircle
 10
38.46609832752481
 20
25.00052777138136
 30
0.0
 40
0.4110443999999953
100
AcDbArc
 50
52.71534454279049
 51
78.05915275379892
  0
LINE
  5
2C9
330
75
100
AcDbEntity
  8
HALLE_0_1_EG
  6
Continuous
100
AcDbLine
 10
38.55114167360677
 20
25.40267839995828
 30
0.0
 11
38.50980427360676
 21
25.39217219995829
 31
0.0
  0
LINE
  5
2CA
330
75
100
AcDbEntity
  8
HALLE_0_1_EG
  6
Continuous
100
AcDbLine
 10
38.50980427360676
 20
25.39217219995829
 30
0.0
 11
38.49161277360676
 21
25.35359469995827
 31
0.0
  0
LINE
  5
2CB
330
75
100
AcDbEntity
  8
HALLE_0_1_EG
  6
Continuous
100
AcDbLine
 10
38.49161277360676
 20
25.35359469995827
 30
0.0
 11
38.49161287360676
 21
25.21918049995827
 31
0.0
  0
ARC
  5
2CC
330
75
100
AcDbEntity
  8
HALLE_0_1_EG
  6
Continuous
100
AcDbCircle
 10
38.54161287360677
 20
25.21918044580112
 30
0.0
 40
0.0500000000000061
100
AcDbArc
 50
180.0
 51
230.4930909582998
  0
ARC
  5
2CD
330
75
100
AcDbEntity
  8
HALLE_0_1_EG
  6
Continuous
100
AcDbCircle
 10
38.54161289679373
 20
25.21918042668315
 30
0.0
 40
0.0499999999999937
100
AcDbArc
 50
230.4934001431408
 51
280.9865249687707
  0
LINE
  5
2CE
330
75
100
AcDbEntity
  8
HALLE_0_1_EG
  6
Continuous
100
AcDbLine
 10
44.12161287360673
 20
-3.223612450041729
 30
0.0
 11
44.12161287360673
 21
-2.063612450041738
 31
0.0
  0
LINE
  5
2CF
330
75
100
AcDbEntity
  8
HALLE_0_1_EG
  6
Continuous
100
AcDbLine
 10
44.12161287360673
 20
-2.063612450041738
 30
0.0
 11
43.54161287360674
 21
-2.063612450041738
 31
0.0
  0
LINE
  5
2D0
330
75
100
AcDbEntity
  8
HALLE_0_1_EG
  6
Continuous
100
AcDbLine
 10
43.54161287360674
 20
-2.063612450041738
 30
0.0
 11
43.54161287360674
 21
-2.143612450041732
 31
0.0
  0
LINE
  5
2D1
330
75
100
AcDbEntity
  8
HALLE_0_1_EG
  6
Continuous
100
AcDbLine
 10
43.54161287360674
 20
-2.143612450041732
 30
0.0
 11
44.04161287360675
 21
-2.143612450041732
 31
0.0
  0
LINE
  5
2D2
330
75
100
AcDbEntity
  8
HALLE_0_1_EG
  6
Continuous
100
AcDbLine
 10
44.04161287360675
 20
-2.143612450041732
 30
0.0
 11
44.04161287360675
 21
-3.143612450041724
 31
0.0
  0
LINE
  5
2D3
330
75
100
AcDbEntity
  8
HALLE_0_1_EG
  6
Continuous
100
AcDbLine
 10
44.04161287360675
 20
-3.143612450041724
 30
0.0
 11
43.54161287360674
 21
-3.143612450041724
 31
0.0
  0
LINE
  5
2D4
330
75
100
AcDbEntity
  8
HALLE_0_1_EG
  6
Continuous
100
AcDbLine
 10
43.54161287360674
 20
-3.143612450041724
 30
0.0
 11
43.54161287360674
 21
-3.223612450041729
 31
0.0
  0
LINE
  5
2D5
330
75
100
AcDbEntity
  8
HALLE_0_1_EG
  6
Continuous
100
AcDbLine
 10
43.54161287360674
 20
-3.223612450041729
 30
0.0
 11
44.12161287360673
 21
-3.223612450041729
 31
0.0
  0
LINE
  5
2D6
330
75
100
AcDbEntity
  8
HALLE_0_1_EG
  6
Continuous
100
AcDbLine
 10
44.12161287360672
 20
-23.22361245004173
 30
0.0
 11
44.12161287360672
 21
-22.06361245004173
 31
0.0
  0
LINE
  5
2D7
330
75
100
AcDbEntity
  8
HALLE_0_1_EG
  6
Continuous
100
AcDbLine
 10
44.12161287360672
 20
-22.06361245004173
 30
0.0
 11
43.54161287360671
 21
-22.06361245004173
 31
0.0
  0
LINE
  5
2D8
330
75
100
AcDbEntity
  8
HALLE_0_1_EG
  6
Continuous
100
AcDbLine
 10
43.54161287360671
 20
-22.06361245004173
 30
0.0
 11
43.54161287360671
 21
-22.14361245004173
 31
0.0
  0
LINE
  5
2D9
330
75
100
AcDbEntity
  8
HALLE_0_1_EG
  6
Continuous
100
AcDbLine
 10
43.54161287360671
 20
-22.14361245004173
 30
0.0
 11
44.04161287360671
 21
-22.14361245004173
 31
0.0
  0
LINE
  5
2DA
330
75
100
AcDbEntity
  8
HALLE_0_1_EG
  6
Continuous
100
AcDbLine
 10
44.04161287360671
 20
-22.14361245004173
 30
0.0
 11
44.04161287360671
 21
-23.14361245004173
 31
0.0
  0
LINE
  5
2DB
330
75
100
AcDbEntity
  8
HALLE_0_1_EG
  6
Continuous
100
AcDbLine
 10
44.04161287360671
 20
-23.14361245004173
 30
0.0
 11
43.54161287360671
 21
-23.14361245004173
 31
0.0
  0
LINE
  5
2DC
330
75
100
AcDbEntity
  8
HALLE_0_1_EG
  6
Continuous
100
AcDbLine
 10
43.54161287360671
 20
-23.14361245004173
 30
0.0
 11
43.54161287360671
 21
-23.22361245004173
 31
0.0
  0
LINE
  5
2DD
330
75
100
AcDbEntity
  8
HALLE_0_1_EG
  6
Continuous
100
AcDbLine
 10
43.54161287360671
 20
-23.22361245004173
 30
0.0
 11
44.12161287360672
 21
-23.22361245004173
 31
0.0
  0
LINE
  5
2DE
330
75
100
AcDbEntity
  8
HALLE_0_1_EG
  6
Continuous
100
AcDbLine
 10
34.79161287360676
 20
25.66130087084411
 30
0.0
 11
34.79161287360676
 21
25.61448004529049
 31
0.0
  0
LINE
  5
2DF
330
75
100
AcDbEntity
  8
HALLE_0_1_EG
  6
Continuous
100
AcDbLine
 10
34.79161287360676
 20
25.61448004529049
 30
0.0
 11
34.74161287360678
 21
25.61448004529049
 31
0.0
  0
LINE
  5
2E0
330
75
100
AcDbEntity
  8
HALLE_0_1_EG
  6
Continuous
100
AcDbLine
 10
36.64161287360676
 20
23.7163875499624
 30
0.0
 11
36.61161287360676
 21
23.7163875499624
 31
0.0
  0
LINE
  5
2E1
330
75
100
AcDbEntity
  8
HALLE_0_1_EG
  6
Continuous
100
AcDbLine
 10
36.61161287360676
 20
23.7163875499624
 30
0.0
 11
36.61161287360676
 21
25.6163875499583
 31
0.0
  0
LINE
  5
2E2
330
75
100
AcDbEntity
  8
HALLE_0_1_EG
  6
Continuous
100
AcDbLine
 10
36.61161287360676
 20
25.61448004529049
 30
0.0
 11
36.64161287360676
 21
25.61448004529049
 31
0.0
  0
LINE
  5
2E3
330
75
100
AcDbEntity
  8
HALLE_0_1_EG
  6
Continuous
100
AcDbLine
 10
36.64161287360676
 20
25.6163875499583
 30
0.0
 11
36.64161287360676
 21
23.7163875499624
 31
0.0
  0
LINE
  5
2E4
330
75
100
AcDbEntity
  8
HALLE_0_1_EG
  6
Continuous
100
AcDbLine
 10
36.64161287360676
 20
25.58638754995827
 30
0.0
 11
34.74161287360678
 21
25.58638754995827
 31
0.0
  0
LINE
  5
2E5
330
75
100
AcDbEntity
  8
HALLE_0_1_EG
  6
Continuous
100
AcDbLine
 10
34.74161287360678
 20
25.58638754995827
 30
0.0
 11
34.74161287360678
 21
25.61448004529049
 31
0.0
  0
LINE
  5
2E6
330
75
100
AcDbEntity
  8
HALLE_0_1_EG
  6
Continuous
100
AcDbLine
 10
34.74161287360678
 20
25.61448004529049
 30
0.0
 11
36.64161287360676
 21
25.61448004529049
 31
0.0
  0
LINE
  5
2E7
330
75
100
AcDbEntity
  8
HALLE_0_1_EG
  6
Continuous
100
AcDbLine
 10
36.64161287360676
 20
25.61448004529049
 30
0.0
 11
36.64161287360676
 21
25.58638754995827
 31
0.0
  0
LINE
  5
2E8
330
75
100
AcDbEntity
  8
HALLE_0_1_EG
  6
Continuous
100
AcDbLine
 10
-11.40838712639872
 20
12.25650096683062
 30
0.0
 11
-13.22838712639872
 21
12.25650096682961
 31
0.0
  0
LINE
  5
2E9
330
75
100
AcDbEntity
  8
HALLE_0_1_EG
  6
Continuous
100
AcDbLine
 10
-13.22838712639872
 20
12.25650096682961
 30
0.0
 11
-12.96838712639872
 21
11.5065009668296
 31
0.0
  0
LINE
  5
2EA
330
75
100
AcDbEntity
  8
HALLE_0_1_EG
  6
Continuous
100
AcDbLine
 10
-13.22838712639872
 20
12.25650096682961
 30
0.0
 11
-12.96838712639872
 21
13.00650096682961
 31
0.0
  0
LINE
  5
2EB
330
75
100
AcDbEntity
  8
HALLE_0_1_EG
  6
Continuous
100
AcDbLine
 10
-10.50838712639873
 20
9.776387549967628
 30
0.0
 11
-10.50838712639873
 21
11.33638754996762
 31
0.0
  0
LINE
  5
2EC
330
75
100
AcDbEntity
  8
HALLE_0_1_EG
  6
Continuous
100
AcDbLine
 10
-10.50838712639873
 20
11.33638754996762
 30
0.0
 11
-11.25838712639873
 21
11.07638754996763
 31
0.0
  0
LINE
  5
2ED
330
75
100
AcDbEntity
  8
HALLE_0_1_EG
  6
Continuous
100
AcDbLine
 10
-10.50838712639873
 20
11.33638754996762
 30
0.0
 11
-9.758387126398737
 21
11.07638754996763
 31
0.0
  0
LINE
  5
2EE
330
75
100
AcDbEntity
  8
HALLE_0_1_EG
  6
Continuous
100
AcDbLine
 10
-13.22838712639872
 20
9.61638754995832
 30
0.0
 11
-13.26838712639873
 21
9.61638754995832
 31
0.0
  0
LINE
  5
2EF
330
75
100
AcDbEntity
  8
HALLE_0_1_EG
  6
Continuous
100
AcDbLine
 10
-13.26838712639873
 20
9.61638754995832
 30
0.0
 11
-13.26838712639872
 21
11.5065009668296
 31
0.0
  0
LINE
  5
2F0
330
75
100
AcDbEntity
  8
HALLE_0_1_EG
  6
Continuous
100
AcDbLine
 10
-13.26838712639872
 20
11.5065009668296
 30
0.0
 11
-13.22838712639872
 21
11.5065009668296
 31
0.0
  0
LINE
  5
2F1
330
75
100
AcDbEntity
  8
HALLE_0_1_EG
  6
Continuous
100
AcDbLine
 10
-13.22838712639872
 20
11.5065009668296
 30
0.0
 11
-13.22838712639872
 21
9.61638754995832
 31
0.0
  0
LINE
  5
2F2
330
75
100
AcDbEntity
  8
HALLE_0_1_EG
  6
Continuous
100
AcDbLine
 10
35.09161287360676
 20
25.61448004529049
 30
0.0
 11
34.79161287360676
 21
25.61448004529049
 31
0.0
  0
LINE
  5
2F3
330
75
100
AcDbEntity
  8
HALLE_0_1_EG
  6
Continuous
100
AcDbLine
 10
34.79161287360676
 20
25.61448004529049
 30
0.0
 11
34.79161287360676
 21
27.01910481189981
 31
0.0
  0
LINE
  5
2F4
330
75
100
AcDbEntity
  8
HALLE_0_1_EG
  6
Continuous
100
AcDbLine
 10
34.79161287360676
 20
27.01910481189981
 30
0.0
 11
35.09161287360676
 21
27.01910481189981
 31
0.0
  0
LINE
  5
2F5
330
75
100
AcDbEntity
  8
HALLE_0_1_EG
  6
Continuous
100
AcDbLine
 10
35.09161287360676
 20
27.01910481189981
 30
0.0
 11
35.09161287360676
 21
25.61448004529049
 31
0.0
  0
LINE
  5
2F6
330
75
100
AcDbEntity
  8
HALLE_0_1_EG
  6
Continuous
100
AcDbLine
 10
35.39161287360677
 20
25.61448004529049
 30
0.0
 11
35.09161287360676
 21
25.61448004529049
 31
0.0
  0
LINE
  5
2F7
330
75
100
AcDbEntity
  8
HALLE_0_1_EG
  6
Continuous
100
AcDbLine
 10
35.09161287360676
 20
25.61448004529049
 30
0.0
 11
35.09161287360676
 21
27.01910481189981
 31
0.0
  0
LINE
  5
2F8
330
75
100
AcDbEntity
  8
HALLE_0_1_EG
  6
Continuous
100
AcDbLine
 10
35.09161287360676
 20
27.01910481189981
 30
0.0
 11
35.39161287360677
 21
27.01910481189981
 31
0.0
  0
LINE
  5
2F9
330
75
100
AcDbEntity
  8
HALLE_0_1_EG
  6
Continuous
100
AcDbLine
 10
35.39161287360677
 20
27.01910481189981
 30
0.0
 11
35.39161287360677
 21
25.61448004529049
 31
0.0
  0
LINE
  5
2FA
330
75
100
AcDbEntity
  8
HALLE_0_1_EG
  6
Continuous
100
AcDbLine
 10
35.69161287360677
 20
25.61448004529049
 30
0.0
 11
35.39161287360677
 21
25.61448004529049
 31
0.0
  0
LINE
  5
2FB
330
75
100
AcDbEntity
  8
HALLE_0_1_EG
  6
Continuous
100
AcDbLine
 10
35.39161287360677
 20
25.61448004529049
 30
0.0
 11
35.39161287360677
 21
27.01910481189981
 31
0.0
  0
LINE
  5
2FC
330
75
100
AcDbEntity
  8
HALLE_0_1_EG
  6
Continuous
100
AcDbLine
 10
35.39161287360677
 20
27.01910481189981
 30
0.0
 11
35.69161287360677
 21
27.01910481189981
 31
0.0
  0
LINE
  5
2FD
330
75
100
AcDbEntity
  8
HALLE_0_1_EG
  6
Continuous
100
AcDbLine
 10
35.69161287360677
 20
27.01910481189981
 30
0.0
 11
35.69161287360677
 21
25.61448004529049
 31
0.0
  0
LINE
  5
2FE
330
75
100
AcDbEntity
  8
HALLE_0_1_EG
  6
Continuous
100
AcDbLine
 10
35.99161287360677
 20
25.61448004529049
 30
0.0
 11
35.69161287360677
 21
25.61448004529049
 31
0.0
  0
LINE
  5
2FF
330
75
100
AcDbEntity
  8
HALLE_0_1_EG
  6
Continuous
100
AcDbLine
 10
35.69161287360677
 20
25.61448004529049
 30
0.0
 11
35.69161287360677
 21
27.01910481189981
 31
0.0
  0
LINE
  5
300
330
75
100
AcDbEntity
  8
HALLE_0_1_EG
  6
Continuous
100
AcDbLine
 10
35.69161287360677
 20
27.01910481189981
 30
0.0
 11
35.99161287360677
 21
27.01910481189981
 31
0.0
  0
LINE
  5
301
330
75
100
AcDbEntity
  8
HALLE_0_1_EG
  6
Continuous
100
AcDbLine
 10
35.99161287360677
 20
27.01910481189981
 30
0.0
 11
35.99161287360677
 21
25.61448004529049
 31
0.0
  0
LINE
  5
302
330
75
100
AcDbEntity
  8
HALLE_0_1_EG
  6
Continuous
100
AcDbLine
 10
36.29161287360676
 20
25.61448004529049
 30
0.0
 11
35.99161287360677
 21
25.61448004529049
 31
0.0
  0
LINE
  5
303
330
75
100
AcDbEntity
  8
HALLE_0_1_EG
  6
Continuous
100
AcDbLine
 10
35.99161287360677
 20
25.61448004529049
 30
0.0
 11
35.99161287360677
 21
27.01910481189981
 31
0.0
  0
LINE
  5
304
330
75
100
AcDbEntity
  8
HALLE_0_1_EG
  6
Continuous
100
AcDbLine
 10
35.99161287360677
 20
27.01910481189981
 30
0.0
 11
36.29161287360676
 21
27.01910481189981
 31
0.0
  0
LINE
  5
305
330
75
100
AcDbEntity
  8
HALLE_0_1_EG
  6
Continuous
100
AcDbLine
 10
36.29161287360676
 20
27.01910481189981
 30
0.0
 11
36.29161287360676
 21
25.61448004529049
 31
0.0
  0
LINE
  5
306
330
75
100
AcDbEntity
  8
HALLE_0_1_EG
  6
Continuous
100
AcDbLine
 10
36.59161287360676
 20
25.61448004529049
 30
0.0
 11
36.29161287360676
 21
25.61448004529049
 31
0.0
  0
LINE
  5
307
330
75
100
AcDbEntity
  8
HALLE_0_1_EG
  6
Continuous
100
AcDbLine
 10
36.29161287360676
 20
25.61448004529049
 30
0.0
 11
36.29161287360676
 21
27.01910481189981
 31
0.0
  0
LINE
  5
308
330
75
100
AcDbEntity
  8
HALLE_0_1_EG
  6
Continuous
100
AcDbLine
 10
36.29161287360676
 20
27.01910481189981
 30
0.0
 11
36.59161287360676
 21
27.01910481189981
 31
0.0
  0
LINE
  5
309
330
75
100
AcDbEntity
  8
HALLE_0_1_EG
  6
Continuous
100
AcDbLine
 10
36.59161287360676
 20
27.01910481189981
 30
0.0
 11
36.59161287360676
 21
25.61448004529049
 31
0.0
  0
LINE
  5
30A
330
75
100
AcDbEntity
  8
HALLE_0_1_EG
  6
Continuous
100
AcDbLine
 10
38.14161287360676
 20
25.26638754996036
 30
0.0
 11
36.64161287360676
 21
25.26638754996036
 31
0.0
  0
LINE
  5
30B
330
75
100
AcDbEntity
  8
HALLE_0_1_EG
  6
Continuous
100
AcDbLine
 10
36.64161287360676
 20
25.26638754996036
 30
0.0
 11
36.64161287360676
 21
25.56638754996035
 31
0.0
  0
LINE
  5
30C
330
75
100
AcDbEntity
  8
HALLE_0_1_EG
  6
Continuous
100
AcDbLine
 10
36.64161287360676
 20
25.56638754996035
 30
0.0
 11
38.14161287360676
 21
25.56638754996035
 31
0.0
  0
LINE
  5
30D
330
75
100
AcDbEntity
  8
HALLE_0_1_EG
  6
Continuous
100
AcDbLine
 10
38.14161287360676
 20
25.56638754996035
 30
0.0
 11
38.14161287360676
 21
25.26638754996036
 31
0.0
  0
LINE
  5
30E
330
75
100
AcDbEntity
  8
HALLE_0_1_EG
  6
Continuous
100
AcDbLine
 10
38.14161287360676
 20
24.96638754996035
 30
0.0
 11
36.64161287360676
 21
24.96638754996035
 31
0.0
  0
LINE
  5
30F
330
75
100
AcDbEntity
  8
HALLE_0_1_EG
  6
Continuous
100
AcDbLine
 10
36.64161287360676
 20
24.96638754996035
 30
0.0
 11
36.64161287360676
 21
25.26638754996036
 31
0.0
  0
LINE
  5
310
330
75
100
AcDbEntity
  8
HALLE_0_1_EG
  6
Continuous
100
AcDbLine
 10
36.64161287360676
 20
25.26638754996036
 30
0.0
 11
38.14161287360676
 21
25.26638754996036
 31
0.0
  0
LINE
  5
311
330
75
100
AcDbEntity
  8
HALLE_0_1_EG
  6
Continuous
100
AcDbLine
 10
38.14161287360676
 20
25.26638754996036
 30
0.0
 11
38.14161287360676
 21
24.96638754996035
 31
0.0
  0
LINE
  5
312
330
75
100
AcDbEntity
  8
HALLE_0_1_EG
  6
Continuous
100
AcDbLine
 10
38.14161287360676
 20
24.66638754996035
 30
0.0
 11
36.64161287360676
 21
24.66638754996035
 31
0.0
  0
LINE
  5
313
330
75
100
AcDbEntity
  8
HALLE_0_1_EG
  6
Continuous
100
AcDbLine
 10
36.64161287360676
 20
24.66638754996035
 30
0.0
 11
36.64161287360676
 21
24.96638754996035
 31
0.0
  0
LINE
  5
314
330
75
100
AcDbEntity
  8
HALLE_0_1_EG
  6
Continuous
100
AcDbLine
 10
36.64161287360676
 20
24.96638754996035
 30
0.0
 11
38.14161287360676
 21
24.96638754996035
 31
0.0
  0
LINE
  5
315
330
75
100
AcDbEntity
  8
HALLE_0_1_EG
  6
Continuous
100
AcDbLine
 10
38.14161287360676
 20
24.96638754996035
 30
0.0
 11
38.14161287360676
 21
24.66638754996035
 31
0.0
  0
LINE
  5
316
330
75
100
AcDbEntity
  8
HALLE_0_1_EG
  6
Continuous
100
AcDbLine
 10
38.14161287360676
 20
24.36638754996033
 30
0.0
 11
36.64161287360676
 21
24.36638754996033
 31
0.0
  0
LINE
  5
317
330
75
100
AcDbEntity
  8
HALLE_0_1_EG
  6
Continuous
100
AcDbLine
 10
36.64161287360676
 20
24.36638754996033
 30
0.0
 11
36.64161287360676
 21
24.66638754996035
 31
0.0
  0
LINE
  5
318
330
75
100
AcDbEntity
  8
HALLE_0_1_EG
  6
Continuous
100
AcDbLine
 10
36.64161287360676
 20
24.66638754996035
 30
0.0
 11
38.14161287360676
 21
24.66638754996035
 31
0.0
  0
LINE
  5
319
330
75
100
AcDbEntity
  8
HALLE_0_1_EG
  6
Continuous
100
AcDbLine
 10
38.14161287360676
 20
24.66638754996035
 30
0.0
 11
38.14161287360676
 21
24.36638754996033
 31
0.0
  0
LINE
  5
31A
330
75
100
AcDbEntity
  8
HALLE_0_1_EG
  6
Continuous
100
AcDbLine
 10
38.14161287360676
 20
24.06638754996035
 30
0.0
 11
36.64161287360676
 21
24.06638754996035
 31
0.0
  0
LINE
  5
31B
330
75
100
AcDbEntity
  8
HALLE_0_1_EG
  6
Continuous
100
AcDbLine
 10
36.64161287360676
 20
24.06638754996035
 30
0.0
 11
36.64161287360676
 21
24.36638754996033
 31
0.0
  0
LINE
  5
31C
330
75
100
AcDbEntity
  8
HALLE_0_1_EG
  6
Continuous
100
AcDbLine
 10
36.64161287360676
 20
24.36638754996033
 30
0.0
 11
38.14161287360676
 21
24.36638754996033
 31
0.0
  0
LINE
  5
31D
330
75
100
AcDbEntity
  8
HALLE_0_1_EG
  6
Continuous
100
AcDbLine
 10
38.14161287360676
 20
24.36638754996033
 30
0.0
 11
38.14161287360676
 21
24.06638754996035
 31
0.0
  0
LINE
  5
31E
330
75
100
AcDbEntity
  8
HALLE_0_1_EG
  6
Continuous
100
AcDbLine
 10
38.14161287360676
 20
23.76638754996035
 30
0.0
 11
36.64161287360676
 21
23.76638754996035
 31
0.0
  0
LINE
  5
31F
330
75
100
AcDbEntity
  8
HALLE_0_1_EG
  6
Continuous
100
AcDbLine
 10
36.64161287360676
 20
23.76638754996035
 30
0.0
 11
36.64161287360676
 21
24.06638754996035
 31
0.0
  0
LINE
  5
320
330
75
100
AcDbEntity
  8
HALLE_0_1_EG
  6
Continuous
100
AcDbLine
 10
36.64161287360676
 20
24.06638754996035
 30
0.0
 11
38.14161287360676
 21
24.06638754996035
 31
0.0
  0
LINE
  5
321
330
75
100
AcDbEntity
  8
HALLE_0_1_EG
  6
Continuous
100
AcDbLine
 10
38.14161287360676
 20
24.06638754996035
 30
0.0
 11
38.14161287360676
 21
23.76638754996035
 31
0.0
  0
LINE
  5
322
330
75
100
AcDbEntity
  8
HALLE_0_1_EG
  6
Continuous
100
AcDbLine
 10
-11.40838712639872
 20
11.5065009668296
 30
0.0
 11
-11.66838712639873
 21
11.5065009668296
 31
0.0
  0
LINE
  5
323
330
75
100
AcDbEntity
  8
HALLE_0_1_EG
  6
Continuous
100
AcDbLine
 10
-11.66838712639873
 20
11.5065009668296
 30
0.0
 11
-11.66838712639873
 21
13.00650096682961
 31
0.0
  0
LINE
  5
324
330
75
100
AcDbEntity
  8
HALLE_0_1_EG
  6
Continuous
100
AcDbLine
 10
-11.66838712639873
 20
13.00650096682961
 30
0.0
 11
-11.40838712639872
 21
13.00650096682961
 31
0.0
  0
LINE
  5
325
330
75
100
AcDbEntity
  8
HALLE_0_1_EG
  6
Continuous
100
AcDbLine
 10
-11.40838712639872
 20
13.00650096682961
 30
0.0
 11
-11.40838712639872
 21
11.5065009668296
 31
0.0
  0
LINE
  5
326
330
75
100
AcDbEntity
  8
HALLE_0_1_EG
  6
Continuous
100
AcDbLine
 10
-11.66838712639873
 20
11.5065009668296
 30
0.0
 11
-11.92838712639873
 21
11.5065009668296
 31
0.0
  0
LINE
  5
327
330
75
100
AcDbEntity
  8
HALLE_0_1_EG
  6
Continuous
100
AcDbLine
 10
-11.92838712639873
 20
11.5065009668296
 30
0.0
 11
-11.92838712639873
 21
13.00650096682961
 31
0.0
  0
LINE
  5
328
330
75
100
AcDbEntity
  8
HALLE_0_1_EG
  6
Continuous
100
AcDbLine
 10
-11.92838712639873
 20
13.00650096682961
 30
0.0
 11
-11.66838712639873
 21
13.00650096682961
 31
0.0
  0
LINE
  5
329
330
75
100
AcDbEntity
  8
HALLE_0_1_EG
  6
Continuous
100
AcDbLine
 10
-11.66838712639873
 20
13.00650096682961
 30
0.0
 11
-11.66838712639873
 21
11.5065009668296
 31
0.0
  0
LINE
  5
32A
330
75
100
AcDbEntity
  8
HALLE_0_1_EG
  6
Continuous
100
AcDbLine
 10
-11.92838712639873
 20
11.5065009668296
 30
0.0
 11
-12.18838712639872
 21
11.5065009668296
 31
0.0
  0
LINE
  5
32B
330
75
100
AcDbEntity
  8
HALLE_0_1_EG
  6
Continuous
100
AcDbLine
 10
-12.18838712639872
 20
11.5065009668296
 30
0.0
 11
-12.18838712639872
 21
13.00650096682961
 31
0.0
  0
LINE
  5
32C
330
75
100
AcDbEntity
  8
HALLE_0_1_EG
  6
Continuous
100
AcDbLine
 10
-12.18838712639872
 20
13.00650096682961
 30
0.0
 11
-11.92838712639873
 21
13.00650096682961
 31
0.0
  0
LINE
  5
32D
330
75
100
AcDbEntity
  8
HALLE_0_1_EG
  6
Continuous
100
AcDbLine
 10
-11.92838712639873
 20
13.00650096682961
 30
0.0
 11
-11.92838712639873
 21
11.5065009668296
 31
0.0
  0
LINE
  5
32E
330
75
100
AcDbEntity
  8
HALLE_0_1_EG
  6
Continuous
100
AcDbLine
 10
-12.18838712639872
 20
11.5065009668296
 30
0.0
 11
-12.44838712639871
 21
11.5065009668296
 31
0.0
  0
LINE
  5
32F
330
75
100
AcDbEntity
  8
HALLE_0_1_EG
  6
Continuous
100
AcDbLine
 10
-12.44838712639871
 20
11.5065009668296
 30
0.0
 11
-12.44838712639871
 21
13.00650096682961
 31
0.0
  0
LINE
  5
330
330
75
100
AcDbEntity
  8
HALLE_0_1_EG
  6
Continuous
100
AcDbLine
 10
-12.44838712639871
 20
13.00650096682961
 30
0.0
 11
-12.18838712639872
 21
13.00650096682961
 31
0.0
  0
LINE
  5
331
330
75
100
AcDbEntity
  8
HALLE_0_1_EG
  6
Continuous
100
AcDbLine
 10
-12.18838712639872
 20
13.00650096682961
 30
0.0
 11
-12.18838712639872
 21
11.5065009668296
 31
0.0
  0
LINE
  5
332
330
75
100
AcDbEntity
  8
HALLE_0_1_EG
  6
Continuous
100
AcDbLine
 10
-12.44838712639871
 20
11.5065009668296
 30
0.0
 11
-12.70838712639873
 21
11.5065009668296
 31
0.0
  0
LINE
  5
333
330
75
100
AcDbEntity
  8
HALLE_0_1_EG
  6
Continuous
100
AcDbLine
 10
-12.70838712639873
 20
11.5065009668296
 30
0.0
 11
-12.70838712639873
 21
13.00650096682961
 31
0.0
  0
LINE
  5
334
330
75
100
AcDbEntity
  8
HALLE_0_1_EG
  6
Continuous
100
AcDbLine
 10
-12.70838712639873
 20
13.00650096682961
 30
0.0
 11
-12.44838712639871
 21
13.00650096682961
 31
0.0
  0
LINE
  5
335
330
75
100
AcDbEntity
  8
HALLE_0_1_EG
  6
Continuous
100
AcDbLine
 10
-12.44838712639871
 20
13.00650096682961
 30
0.0
 11
-12.44838712639871
 21
11.5065009668296
 31
0.0
  0
LINE
  5
336
330
75
100
AcDbEntity
  8
HALLE_0_1_EG
  6
Continuous
100
AcDbLine
 10
-12.70838712639873
 20
11.5065009668296
 30
0.0
 11
-12.96838712639872
 21
11.5065009668296
 31
0.0
  0
LINE
  5
337
330
75
100
AcDbEntity
  8
HALLE_0_1_EG
  6
Continuous
100
AcDbLine
 10
-12.96838712639872
 20
11.5065009668296
 30
0.0
 11
-12.96838712639872
 21
13.00650096682961
 31
0.0
  0
LINE
  5
338
330
75
100
AcDbEntity
  8
HALLE_0_1_EG
  6
Continuous
100
AcDbLine
 10
-12.96838712639872
 20
13.00650096682961
 30
0.0
 11
-12.70838712639873
 21
13.00650096682961
 31
0.0
  0
LINE
  5
339
330
75
100
AcDbEntity
  8
HALLE_0_1_EG
  6
Continuous
100
AcDbLine
 10
-12.70838712639873
 20
13.00650096682961
 30
0.0
 11
-12.70838712639873
 21
11.5065009668296
 31
0.0
  0
LINE
  5
33A
330
75
100
AcDbEntity
  8
HALLE_0_1_EG
  6
Continuous
100
AcDbLine
 10
-12.96838712639872
 20
11.5065009668296
 30
0.0
 11
-13.22838712639872
 21
11.5065009668296
 31
0.0
  0
LINE
  5
33B
330
75
100
AcDbEntity
  8
HALLE_0_1_EG
  6
Continuous
100
AcDbLine
 10
-13.22838712639872
 20
11.5065009668296
 30
0.0
 11
-13.22838712639872
 21
13.00650096682961
 31
0.0
  0
LINE
  5
33C
330
75
100
AcDbEntity
  8
HALLE_0_1_EG
  6
Continuous
100
AcDbLine
 10
-13.22838712639872
 20
13.00650096682961
 30
0.0
 11
-12.96838712639872
 21
13.00650096682961
 31
0.0
  0
LINE
  5
33D
330
75
100
AcDbEntity
  8
HALLE_0_1_EG
  6
Continuous
100
AcDbLine
 10
-12.96838712639872
 20
13.00650096682961
 30
0.0
 11
-12.96838712639872
 21
11.5065009668296
 31
0.0
  0
LINE
  5
33E
330
75
100
AcDbEntity
  8
HALLE_0_1_EG
  6
Continuous
100
AcDbLine
 10
-9.758387126398737
 20
9.776387549967628
 30
0.0
 11
-11.25838712639873
 21
9.776387549967628
 31
0.0
  0
LINE
  5
33F
330
75
100
AcDbEntity
  8
HALLE_0_1_EG
  6
Continuous
100
AcDbLine
 10
-11.25838712639873
 20
9.776387549967628
 30
0.0
 11
-11.25838712639873
 21
10.03638754996761
 31
0.0
  0
LINE
  5
340
330
75
100
AcDbEntity
  8
HALLE_0_1_EG
  6
Continuous
100
AcDbLine
 10
-11.25838712639873
 20
10.03638754996761
 30
0.0
 11
-9.758387126398737
 21
10.03638754996761
 31
0.0
  0
LINE
  5
341
330
75
100
AcDbEntity
  8
HALLE_0_1_EG
  6
Continuous
100
AcDbLine
 10
-9.758387126398737
 20
10.03638754996761
 30
0.0
 11
-9.758387126398737
 21
9.776387549967628
 31
0.0
  0
LINE
  5
342
330
75
100
AcDbEntity
  8
HALLE_0_1_EG
  6
Continuous
100
AcDbLine
 10
-9.758387126398737
 20
10.03638754996761
 30
0.0
 11
-11.25838712639873
 21
10.03638754996761
 31
0.0
  0
LINE
  5
343
330
75
100
AcDbEntity
  8
HALLE_0_1_EG
  6
Continuous
100
AcDbLine
 10
-11.25838712639873
 20
10.03638754996761
 30
0.0
 11
-11.25838712639873
 21
10.29638754996762
 31
0.0
  0
LINE
  5
344
330
75
100
AcDbEntity
  8
HALLE_0_1_EG
  6
Continuous
100
AcDbLine
 10
-11.25838712639873
 20
10.29638754996762
 30
0.0
 11
-9.758387126398737
 21
10.29638754996762
 31
0.0
  0
LINE
  5
345
330
75
100
AcDbEntity
  8
HALLE_0_1_EG
  6
Continuous
100
AcDbLine
 10
-9.758387126398737
 20
10.29638754996762
 30
0.0
 11
-9.758387126398737
 21
10.03638754996761
 31
0.0
  0
LINE
  5
346
330
75
100
AcDbEntity
  8
HALLE_0_1_EG
  6
Continuous
100
AcDbLine
 10
-9.758387126398737
 20
10.29638754996762
 30
0.0
 11
-11.25838712639873
 21
10.29638754996762
 31
0.0
  0
LINE
  5
347
330
75
100
AcDbEntity
  8
HALLE_0_1_EG
  6
Continuous
100
AcDbLine
 10
-11.25838712639873
 20
10.29638754996762
 30
0.0
 11
-11.25838712639873
 21
10.55638754996762
 31
0.0
  0
LINE
  5
348
330
75
100
AcDbEntity
  8
HALLE_0_1_EG
  6
Continuous
100
AcDbLine
 10
-11.25838712639873
 20
10.55638754996762
 30
0.0
 11
-9.758387126398737
 21
10.55638754996762
 31
0.0
  0
LINE
  5
349
330
75
100
AcDbEntity
  8
HALLE_0_1_EG
  6
Continuous
100
AcDbLine
 10
-9.758387126398737
 20
10.55638754996762
 30
0.0
 11
-9.758387126398737
 21
10.29638754996762
 31
0.0
  0
LINE
  5
34A
330
75
100
AcDbEntity
  8
HALLE_0_1_EG
  6
Continuous
100
AcDbLine
 10
-9.758387126398737
 20
10.55638754996762
 30
0.0
 11
-11.25838712639873
 21
10.55638754996762
 31
0.0
  0
LINE
  5
34B
330
75
100
AcDbEntity
  8
HALLE_0_1_EG
  6
Continuous
100
AcDbLine
 10
-11.25838712639873
 20
10.55638754996762
 30
0.0
 11
-11.25838712639873
 21
10.81638754996762
 31
0.0
  0
LINE
  5
34C
330
75
100
AcDbEntity
  8
HALLE_0_1_EG
  6
Continuous
100
AcDbLine
 10
-11.25838712639873
 20
10.81638754996762
 30
0.0
 11
-9.758387126398737
 21
10.81638754996762
 31
0.0
  0
LINE
  5
34D
330
75
100
AcDbEntity
  8
HALLE_0_1_EG
  6
Continuous
100
AcDbLine
 10
-9.758387126398737
 20
10.81638754996762
 30
0.0
 11
-9.758387126398737
 21
10.55638754996762
 31
0.0
  0
LINE
  5
34E
330
75
100
AcDbEntity
  8
HALLE_0_1_EG
  6
Continuous
100
AcDbLine
 10
-9.758387126398737
 20
10.81638754996762
 30
0.0
 11
-11.25838712639873
 21
10.81638754996762
 31
0.0
  0
LINE
  5
34F
330
75
100
AcDbEntity
  8
HALLE_0_1_EG
  6
Continuous
100
AcDbLine
 10
-11.25838712639873
 20
10.81638754996762
 30
0.0
 11
-11.25838712639873
 21
11.07638754996763
 31
0.0
  0
LINE
  5
350
330
75
100
AcDbEntity
  8
HALLE_0_1_EG
  6
Continuous
100
AcDbLine
 10
-11.25838712639873
 20
11.07638754996763
 30
0.0
 11
-9.758387126398737
 21
11.07638754996763
 31
0.0
  0
LINE
  5
351
330
75
100
AcDbEntity
  8
HALLE_0_1_EG
  6
Continuous
100
AcDbLine
 10
-9.758387126398737
 20
11.07638754996763
 30
0.0
 11
-9.758387126398737
 21
10.81638754996762
 31
0.0
  0
LINE
  5
352
330
75
100
AcDbEntity
  8
HALLE_0_1_EG
  6
Continuous
100
AcDbLine
 10
-9.758387126398737
 20
11.07638754996763
 30
0.0
 11
-11.25838712639873
 21
11.07638754996763
 31
0.0
  0
LINE
  5
353
330
75
100
AcDbEntity
  8
HALLE_0_1_EG
  6
Continuous
100
AcDbLine
 10
-11.25838712639873
 20
11.07638754996763
 30
0.0
 11
-11.25838712639873
 21
11.33638754996762
 31
0.0
  0
LINE
  5
354
330
75
100
AcDbEntity
  8
HALLE_0_1_EG
  6
Continuous
100
AcDbLine
 10
-11.25838712639873
 20
11.33638754996762
 30
0.0
 11
-9.758387126398737
 21
11.33638754996762
 31
0.0
  0
LINE
  5
355
330
75
100
AcDbEntity
  8
HALLE_0_1_EG
  6
Continuous
100
AcDbLine
 10
-9.758387126398737
 20
11.33638754996762
 30
0.0
 11
-9.758387126398737
 21
11.07638754996763
 31
0.0
  0
LINE
  5
356
330
75
100
AcDbEntity
  8
HALLE_0_1_EG
  6
Continuous
100
AcDbLine
 10
-16.33105263196594
 20
7.356387549958314
 30
0.0
 11
-16.33105263196594
 21
9.35638754995832
 31
0.0
  0
LINE
  5
357
330
75
100
AcDbEntity
  8
GRUNDRISS
  6
Continuous
100
AcDbLine
 10
43.24953772209214
 20
-15.14361244726275
 30
0.0
 11
43.2415196425777
 21
-32.34361244726188
 31
0.0
  0
ARC
  5
358
330
75
100
AcDbEntity
  8
GRUNDRISS
  6
Continuous
100
AcDbCircle
 10
-9.508387123940485
 20
7.356387552735905
 30
0.0
 40
1.5
100
AcDbArc
 50
90.0
 51
180.0
  0
LINE
  5
359
330
75
100
AcDbEntity
  8
GRUNDRISS
  6
Continuous
100
AcDbLine
 10
-16.15838712394063
 20
-17.65170139762917
 30
0.0
 11
-16.45838712394077
 21
-17.65170139762917
 31
0.0
  0
LINE
  5
35A
330
75
100
AcDbEntity
  8
GRUNDRISS
  6
Continuous
100
AcDbLine
 10
-16.15838712394063
 20
-20.86468986160389
 30
0.0
 11
-16.15838712394063
 21
-17.65170139762917
 31
0.0
  0
LINE
  5
35B
330
75
100
AcDbEntity
  8
GRUNDRISS
  6
Continuous
100
AcDbLine
 10
-16.45838712394077
 20
-20.86468986160389
 30
0.0
 11
-16.45838712394077
 21
-19.23361244726345
 31
0.0
  0
LINE
  5
35C
330
75
100
AcDbEntity
  8
GRUNDRISS
  6
Continuous
100
AcDbLine
 10
40.4216128760597
 20
-32.34361244726188
 30
0.0
 11
40.4216128760597
 21
-32.64361244726204
 31
0.0
  0
LINE
  5
35D
330
75
100
AcDbEntity
  8
GRUNDRISS
  6
Continuous
100
AcDbLine
 10
43.54161287606056
 20
-32.64361244726204
 30
0.0
 11
40.4216128760597
 21
-32.64361244726204
 31
0.0
  0
LINE
  5
35E
330
75
100
AcDbEntity
  8
GRUNDRISS
  6
Continuous
100
AcDbLine
 10
43.2415196425777
 20
-32.34361244726188
 30
0.0
 11
40.4216128760597
 21
-32.34361244726188
 31
0.0
  0
LINE
  5
35F
330
75
100
AcDbEntity
  8
GRUNDRISS
  6
Continuous
100
AcDbLine
 10
-5.208387123938488
 20
-32.34361244726187
 30
0.0
 11
-5.208387123938488
 21
-32.64361244726202
 31
0.0
  0
LINE
  5
360
330
75
100
AcDbEntity
  8
GRUNDRISS
  6
Continuous
100
AcDbLine
 10
37.42161287606126
 20
-32.64361244726204
 30
0.0
 11
-5.208387123938488
 21
-32.64361244726202
 31
0.0
  0
LINE
  5
361
330
75
100
AcDbEntity
  8
GRUNDRISS
  6
Continuous
100
AcDbLine
 10
37.42161287606126
 20
-32.34361244726188
 30
0.0
 11
-5.208387123938488
 21
-32.34361244726187
 31
0.0
  0
LINE
  5
362
330
75
100
AcDbEntity
  8
GRUNDRISS
  6
Continuous
100
AcDbLine
 10
37.42161287606126
 20
-32.34361244726188
 30
0.0
 11
37.42161287606126
 21
-32.64361244726204
 31
0.0
  0
LINE
  5
363
330
75
100
AcDbEntity
  8
GRUNDRISS
  6
Continuous
100
AcDbLine
 10
-8.208387123939886
 20
-32.64361244726202
 30
0.0
 11
-16.45838712394077
 21
-32.64361244726202
 31
0.0
  0
LINE
  5
364
330
75
100
AcDbEntity
  8
GRUNDRISS
  6
Continuous
100
AcDbLine
 10
-8.208387123939886
 20
-32.34361244726187
 30
0.0
 11
-16.15838712394063
 21
-32.34361244726187
 31
0.0
  0
LINE
  5
365
330
75
100
AcDbEntity
  8
GRUNDRISS
  6
Continuous
100
AcDbLine
 10
-8.208387123939886
 20
-32.34361244726187
 30
0.0
 11
-8.208387123939886
 21
-32.64361244726202
 31
0.0
  0
LINE
  5
366
330
75
100
AcDbEntity
  8
GRUNDRISS
  6
Continuous
100
AcDbLine
 10
-16.15838712394063
 20
-26.43361244726385
 30
0.0
 11
-16.45838712394077
 21
-26.43361244726385
 31
0.0
  0
LINE
  5
367
330
75
100
AcDbEntity
  8
GRUNDRISS
  6
Continuous
100
AcDbLine
 10
-16.45838712394077
 20
-26.57361244726273
 30
0.0
 11
-16.45838712394077
 21
-26.43361244726385
 31
0.0
  0
LINE
  5
368
330
75
100
AcDbEntity
  8
GRUNDRISS
  6
Continuous
100
AcDbLine
 10
-16.15838712394063
 20
-32.34361244726187
 30
0.0
 11
-16.15838712394063
 21
-26.43361244726385
 31
0.0
  0
LINE
  5
369
330
75
100
AcDbEntity
  8
GRUNDRISS
  6
Continuous
100
AcDbLine
 10
-16.45838712394077
 20
-32.64361244726202
 30
0.0
 11
-16.45838712394077
 21
-26.90361244726348
 31
0.0
  0
LINE
  5
36A
330
75
100
AcDbEntity
  8
GRUNDRISS
  6
Continuous
100
AcDbLine
 10
-16.45838712394077
 20
-26.43361244726385
 30
0.0
 11
-16.45838712394077
 21
-25.48861244726253
 31
0.0
  0
LINE
  5
36B
330
75
100
AcDbEntity
  8
GRUNDRISS
  6
Continuous
100
AcDbLine
 10
-16.15838712394063
 20
-26.43361244726385
 30
0.0
 11
-16.15838712394063
 21
-25.48861244726253
 31
0.0
  0
LINE
  5
36C
330
75
100
AcDbEntity
  8
GRUNDRISS
  6
Continuous
100
AcDbLine
 10
-16.15838712394063
 20
-25.35861244726188
 30
0.0
 11
-16.45838712394077
 21
-25.35861244726188
 31
0.0
  0
LINE
  5
36D
330
75
100
AcDbEntity
  8
GRUNDRISS
  6
Continuous
100
AcDbLine
 10
-16.45838712394077
 20
-25.48861244726253
 30
0.0
 11
-16.45838712394077
 21
-25.35861244726188
 31
0.0
  0
LINE
  5
36E
330
75
100
AcDbEntity
  8
GRUNDRISS
  6
Continuous
100
AcDbLine
 10
-16.15838712394063
 20
-25.48861244726253
 30
0.0
 11
-16.15838712394063
 21
-25.35861244726188
 31
0.0
  0
LINE
  5
36F
330
75
100
AcDbEntity
  8
GRUNDRISS
  6
Continuous
100
AcDbLine
 10
-16.15838712394063
 20
-25.48861244726253
 30
0.0
 11
-16.45838712394077
 21
-25.48861244726253
 31
0.0
  0
LINE
  5
370
330
75
100
AcDbEntity
  8
GRUNDRISS
  6
Continuous
100
AcDbLine
 10
-16.45838712394077
 20
-25.35861244726188
 30
0.0
 11
-16.45838712394077
 21
-24.05861244726423
 31
0.0
  0
LINE
  5
371
330
75
100
AcDbEntity
  8
GRUNDRISS
  6
Continuous
100
AcDbLine
 10
-16.15838712394063
 20
-25.35861244726188
 30
0.0
 11
-16.15838712394063
 21
-24.05861244726423
 31
0.0
  0
LINE
  5
372
330
75
100
AcDbEntity
  8
GRUNDRISS
  6
Continuous
100
AcDbLine
 10
-16.45838712394077
 20
-23.72861244726348
 30
0.0
 11
-16.45838712394077
 21
-21.18861244726348
 31
0.0
  0
LINE
  5
373
330
75
100
AcDbEntity
  8
GRUNDRISS
  6
Continuous
100
AcDbLine
 10
-16.15838712394063
 20
-23.72861244726348
 30
0.0
 11
-16.15838712394063
 21
-21.18861244726348
 31
0.0
  0
LINE
  5
374
330
75
100
AcDbEntity
  8
GRUNDRISS
  6
Continuous
100
AcDbLine
 10
-16.15838712394062
 20
3.573286648303071
 30
0.0
 11
-16.45838712394076
 21
3.573286648303071
 31
0.0
  0
LINE
  5
375
330
75
100
AcDbEntity
  8
GRUNDRISS
  6
Continuous
100
AcDbLine
 10
-16.45838712394077
 20
-10.14361244726336
 30
0.0
 11
-16.45838712394076
 21
3.573286648303071
 31
0.0
  0
LINE
  5
376
330
75
100
AcDbEntity
  8
GRUNDRISS
  6
Continuous
100
AcDbLine
 10
-16.15838712394063
 20
-12.64809640579849
 30
0.0
 11
-16.45838712394077
 21
-12.64809640579849
 31
0.0
  0
LINE
  5
377
330
75
100
AcDbEntity
  8
GRUNDRISS
  6
Continuous
100
AcDbLine
 10
-16.45838712394076
 20
5.551662141535674
 30
0.0
 11
-16.45838712394076
 21
7.356387552735905
 31
0.0
  0
LINE
  5
378
330
75
100
AcDbEntity
  8
GRUNDRISS
  6
Continuous
100
AcDbLine
 10
-16.15838712394062
 20
5.551662141535674
 30
0.0
 11
-16.45838712394076
 21
5.551662141535674
 31
0.0
  0
LINE
  5
379
330
75
100
AcDbEntity
  8
GRUNDRISS
  6
Continuous
100
AcDbLine
 10
-9.508387123940485
 20
7.056387552735778
 30
0.0
 11
-9.508387123940485
 21
7.356387552735905
 31
0.0
  0
LINE
  5
37A
330
75
100
AcDbEntity
  8
GRUNDRISS
  6
Continuous
100
AcDbLine
 10
-16.45838712394076
 20
7.356387552735905
 30
0.0
 11
-9.508387123940485
 21
7.356387552735905
 31
0.0
  0
LINE
  5
37B
330
75
100
AcDbEntity
  8
GRUNDRISS
  6
Continuous
100
AcDbLine
 10
-16.15838712394062
 20
7.056387552735778
 30
0.0
 11
-11.08838712393885
 21
7.056387552735778
 31
0.0
  0
LINE
  5
37C
330
75
100
AcDbEntity
  8
GRUNDRISS
  6
Continuous
100
AcDbLine
 10
37.54161287606076
 20
7.05638755273576
 30
0.0
 11
37.54161287606076
 21
7.3563875527359
 31
0.0
  0
LINE
  5
37D
330
75
100
AcDbEntity
  8
GRUNDRISS
  6
Continuous
100
AcDbLine
 10
-6.508387123939088
 20
7.356387552735905
 30
0.0
 11
37.54161287606076
 21
7.3563875527359
 31
0.0
  0
LINE
  5
37E
330
75
100
AcDbEntity
  8
GRUNDRISS
  6
Continuous
100
AcDbLine
 10
-6.508387123939088
 20
7.056387552735778
 30
0.0
 11
37.54161287606076
 21
7.05638755273576
 31
0.0
  0
LINE
  5
37F
330
75
100
AcDbEntity
  8
GRUNDRISS
  6
Continuous
100
AcDbLine
 10
-6.508387123939088
 20
7.056387552735778
 30
0.0
 11
-6.508387123939088
 21
7.356387552735905
 31
0.0
  0
LINE
  5
380
330
75
100
AcDbEntity
  8
GRUNDRISS
  6
Continuous
100
AcDbLine
 10
40.54161287606214
 20
7.3563875527359
 30
0.0
 11
43.54161287606059
 21
7.3563875527359
 31
0.0
  0
LINE
  5
381
330
75
100
AcDbEntity
  8
GRUNDRISS
  6
Continuous
100
AcDbLine
 10
40.54161287606214
 20
7.05638755273576
 30
0.0
 11
43.24161287606044
 21
7.05638755273576
 31
0.0
  0
LINE
  5
382
330
75
100
AcDbEntity
  8
GRUNDRISS
  6
Continuous
100
AcDbLine
 10
40.54161287606214
 20
7.05638755273576
 30
0.0
 11
40.54161287606214
 21
7.3563875527359
 31
0.0
  0
LINE
  5
383
330
75
100
AcDbEntity
  8
GRUNDRISS
  6
Continuous
100
AcDbLine
 10
43.24161287606044
 20
-10.14361244726337
 30
0.0
 11
43.54161287606057
 21
-10.14361244726337
 31
0.0
  0
LINE
  5
384
330
75
100
AcDbEntity
  8
GRUNDRISS
  6
Continuous
100
AcDbLine
 10
43.54161287606059
 20
7.3563875527359
 30
0.0
 11
43.54161287606057
 21
-10.14361244726337
 31
0.0
  0
LINE
  5
385
330
75
100
AcDbEntity
  8
GRUNDRISS
  6
Continuous
100
AcDbLine
 10
43.24161287606044
 20
7.05638755273576
 30
0.0
 11
43.24161287606044
 21
-10.14361244726337
 31
0.0
  0
LINE
  5
386
330
75
100
AcDbEntity
  8
GRUNDRISS
  6
Continuous
100
AcDbLine
 10
43.54161287606057
 20
-15.14361244726275
 30
0.0
 11
43.54161287606056
 21
-32.64361244726204
 31
0.0
  0
LINE
  5
387
330
75
100
AcDbEntity
  8
GRUNDRISS
  6
Continuous
100
AcDbLine
 10
43.24953772209214
 20
-15.14361244726275
 30
0.0
 11
43.54161287606057
 21
-15.14361244726275
 31
0.0
  0
LINE
  5
388
330
75
100
AcDbEntity
  8
GRUNDRISS
  6
Continuous
100
AcDbLine
 10
43.42161287606111
 20
-15.14361244726275
 30
0.0
 11
43.42161287606111
 21
-10.14361244726337
 31
0.0
  0
LINE
  5
389
330
75
100
AcDbEntity
  8
GRUNDRISS
  6
Continuous
100
AcDbLine
 10
-16.15838712394063
 20
-17.64930713053864
 30
0.0
 11
-16.15838712394063
 21
-12.64930713053927
 31
0.0
  0
LINE
  5
38A
330
75
100
AcDbEntity
  8
GRUNDRISS
  6
Continuous
100
AcDbLine
 10
44.14161287606085
 20
1.056387552735924
 30
0.0
 11
44.14161287606087
 21
6.256387552738345
 31
0.0
  0
LINE
  5
38B
330
75
100
AcDbEntity
  8
GRUNDRISS
  6
Continuous
100
AcDbLine
 10
44.14161287606087
 20
6.256387552738345
 30
0.0
 11
43.54161287606059
 21
5.996387552737041
 31
0.0
  0
LINE
  5
38C
330
75
100
AcDbEntity
  8
GRUNDRISS
  6
Continuous
100
AcDbLine
 10
44.14161287606087
 20
6.256387552738345
 30
0.0
 11
44.74161287606114
 21
5.996387552737041
 31
0.0
  0
LINE
  5
38D
330
75
100
AcDbEntity
  8
GRUNDRISS
  6
Continuous
100
AcDbLine
 10
-13.16838712394041
 20
7.056387552735778
 30
0.0
 11
-13.16838712394041
 21
5.988733834694708
 31
0.0
  0
LINE
  5
38E
330
75
100
AcDbEntity
  8
GRUNDRISS
  6
Continuous
100
AcDbLine
 10
-13.16838712394041
 20
5.988733834694708
 30
0.0
 11
-13.16838712394041
 21
5.856387552738176
 31
0.0
  0
LINE
  5
38F
330
75
100
AcDbEntity
  8
GRUNDRISS
  6
Continuous
100
AcDbLine
 10
-13.43838712393995
 20
7.056387552735778
 30
0.0
 11
-13.16838712394041
 21
7.056387552735778
 31
0.0
  0
LINE
  5
390
330
75
100
AcDbEntity
  8
GRUNDRISS
  6
Continuous
100
AcDbLine
 10
-13.43838712393995
 20
5.856387552738176
 30
0.0
 11
-13.43838712393995
 21
7.056387552735778
 31
0.0
  0
LINE
  5
391
330
75
100
AcDbEntity
  8
GRUNDRISS
  6
Continuous
100
AcDbLine
 10
-13.16838712394041
 20
5.856387552738176
 30
0.0
 11
-13.24479728545411
 21
5.856387552738176
 31
0.0
  0
LINE
  5
392
330
75
100
AcDbEntity
  8
GRUNDRISS
  6
Continuous
100
AcDbLine
 10
-13.24479728545411
 20
5.856387552738176
 30
0.0
 11
-13.43838712393995
 21
5.856387552738176
 31
0.0
  0
LINE
  5
393
330
75
100
AcDbEntity
  8
GRUNDRISS
  6
Continuous
100
AcDbLine
 10
-12.89838712393792
 20
7.056387552735778
 30
0.0
 11
-12.89838712393792
 21
6.456387552735498
 31
0.0
  0
LINE
  5
394
330
75
100
AcDbEntity
  8
GRUNDRISS
  6
Continuous
100
AcDbLine
 10
-12.89838712393792
 20
6.456387552735498
 30
0.0
 11
-12.89838712393792
 21
5.856387552738176
 31
0.0
  0
LINE
  5
395
330
75
100
AcDbEntity
  8
GRUNDRISS
  6
Continuous
100
AcDbLine
 10
-13.16838712394041
 20
7.056387552735778
 30
0.0
 11
-12.89838712393792
 21
7.056387552735778
 31
0.0
  0
LINE
  5
396
330
75
100
AcDbEntity
  8
GRUNDRISS
  6
Continuous
100
AcDbLine
 10
-12.89838712393792
 20
5.856387552738176
 30
0.0
 11
-13.16838712394041
 21
5.856387552738176
 31
0.0
  0
LINE
  5
397
330
75
100
AcDbEntity
  8
GRUNDRISS
  6
Continuous
100
AcDbLine
 10
-12.62838712393839
 20
7.056387552735778
 30
0.0
 11
-12.62838712393839
 21
5.856387552738176
 31
0.0
  0
LINE
  5
398
330
75
100
AcDbEntity
  8
GRUNDRISS
  6
Continuous
100
AcDbLine
 10
-12.89838712393792
 20
7.056387552735778
 30
0.0
 11
-12.62838712393839
 21
7.056387552735778
 31
0.0
  0
LINE
  5
399
330
75
100
AcDbEntity
  8
GRUNDRISS
  6
Continuous
100
AcDbLine
 10
-12.62838712393839
 20
5.856387552738176
 30
0.0
 11
-12.89838712393792
 21
5.856387552738176
 31
0.0
  0
LINE
  5
39A
330
75
100
AcDbEntity
  8
GRUNDRISS
  6
Continuous
100
AcDbLine
 10
-11.08838712393885
 20
6.456387552735498
 30
0.0
 11
-14.78838712394058
 21
6.456387552735498
 31
0.0
  0
LINE
  5
39B
330
75
100
AcDbEntity
  8
GRUNDRISS
  6
Continuous
100
AcDbLine
 10
-14.78838712394058
 20
6.456387552735498
 30
0.0
 11
-14.51838712393809
 21
5.856387552738176
 31
0.0
  0
LINE
  5
39C
330
75
100
AcDbEntity
  8
GRUNDRISS
  6
Continuous
100
AcDbLine
 10
-14.78838712394058
 20
6.456387552735498
 30
0.0
 11
-14.51838712393809
 21
7.056387552735778
 31
0.0
  0
LINE
  5
39D
330
75
100
AcDbEntity
  8
GRUNDRISS
  6
Continuous
100
AcDbLine
 10
40.54161287606214
 20
7.3563875527359
 30
0.0
 11
37.54161287606076
 21
7.3563875527359
 31
0.0
  0
ARC
  5
39E
330
75
100
AcDbEntity
  8
GRUNDRISS
  6
Continuous
100
AcDbCircle
 10
37.54161287606076
 20
7.3563875527359
 30
0.0
 40
1.5
100
AcDbArc
 50
0.0
 51
180.0
  0
ARC
  5
39F
330
75
100
AcDbEntity
  8
GRUNDRISS
  6
Continuous
100
AcDbCircle
 10
40.54161287606214
 20
7.3563875527359
 30
0.0
 40
1.5
100
AcDbArc
 50
0.0
 51
180.0
  0
LINE
  5
3A0
330
75
100
AcDbEntity
  8
GRUNDRISS
  6
Continuous
100
AcDbLine
 10
40.54161287606214
 20
7.3563875527359
 30
0.0
 11
40.54161287606214
 21
8.856387552736597
 31
0.0
  0
LINE
  5
3A1
330
75
100
AcDbEntity
  8
GRUNDRISS
  6
Continuous
100
AcDbLine
 10
37.54161287606076
 20
7.3563875527359
 30
0.0
 11
37.54161287606076
 21
8.856387552736597
 31
0.0
  0
LINE
  5
3A2
330
75
100
AcDbEntity
  8
GRUNDRISS
  6
Continuous
100
AcDbLine
 10
43.54161287606057
 20
-15.14361244726275
 30
0.0
 11
43.54161287606057
 21
-10.14361244726337
 31
0.0
  0
LINE
  5
3A3
330
75
100
AcDbEntity
  8
GRUNDRISS
  6
Continuous
100
AcDbLine
 10
40.4216128760597
 20
-32.64361244726204
 30
0.0
 11
37.42161287606126
 21
-32.64361244726204
 31
0.0
  0
ARC
  5
3A4
330
75
100
AcDbEntity
  8
GRUNDRISS
  6
Continuous
100
AcDbCircle
 10
40.4216128760597
 20
-32.64361244726204
 30
0.0
 40
1.5
100
AcDbArc
 50
180.0
 51
0.0
  0
LINE
  5
3A5
330
75
100
AcDbEntity
  8
GRUNDRISS
  6
Continuous
100
AcDbLine
 10
40.4216128760597
 20
-32.64361244726204
 30
0.0
 11
40.4216128760597
 21
-34.14361244726273
 31
0.0
  0
ARC
  5
3A6
330
75
100
AcDbEntity
  8
GRUNDRISS
  6
Continuous
100
AcDbCircle
 10
37.42161287606126
 20
-32.64361244726204
 30
0.0
 40
1.5
100
AcDbArc
 50
180.0
 51
0.0
  0
LINE
  5
3A7
330
75
100
AcDbEntity
  8
GRUNDRISS
  6
Continuous
100
AcDbLine
 10
37.42161287606126
 20
-32.34361244726188
 30
0.0
 11
37.42161287606126
 21
-34.14361244726273
 31
0.0
  0
LINE
  5
3A8
330
75
100
AcDbEntity
  8
GRUNDRISS
  6
Continuous
100
AcDbLine
 10
-5.208387123938488
 20
-32.64361244726202
 30
0.0
 11
-8.208387123939886
 21
-32.64361244726202
 31
0.0
  0
ARC
  5
3A9
330
75
100
AcDbEntity
  8
GRUNDRISS
  6
Continuous
100
AcDbCircle
 10
-5.208387123938488
 20
-32.64361244726202
 30
0.0
 40
1.5
100
AcDbArc
 50
180.0
 51
0.0
  0
LINE
  5
3AA
330
75
100
AcDbEntity
  8
GRUNDRISS
  6
Continuous
100
AcDbLine
 10
-5.208387123938488
 20
-32.64361244726202
 30
0.0
 11
-5.208387123938488
 21
-34.14361244726272
 31
0.0
  0
ARC
  5
3AB
330
75
100
AcDbEntity
  8
GRUNDRISS
  6
Continuous
100
AcDbCircle
 10
-8.208387123939886
 20
-32.64361244726202
 30
0.0
 40
1.5
100
AcDbArc
 50
180.0
 51
0.0
  0
LINE
  5
3AC
330
75
100
AcDbEntity
  8
GRUNDRISS
  6
Continuous
100
AcDbLine
 10
-8.208387123939886
 20
-32.64361244726202
 30
0.0
 11
-8.208387123939886
 21
-34.14361244726272
 31
0.0
  0
LINE
  5
3AD
330
75
100
AcDbEntity
  8
GRUNDRISS
  6
Continuous
100
AcDbLine
 10
-10.93838712393878
 20
7.056387552735778
 30
0.0
 11
-10.93838712393878
 21
2.614539425688165
 31
0.0
  0
LINE
  5
3AE
330
75
100
AcDbEntity
  8
GRUNDRISS
  6
Continuous
100
AcDbLine
 10
-11.08838712393885
 20
7.056387552735778
 30
0.0
 11
-11.08838712393885
 21
2.614539425688165
 31
0.0
  0
LINE
  5
3AF
330
75
100
AcDbEntity
  8
GRUNDRISS
  6
Continuous
100
AcDbLine
 10
-11.08838712393885
 20
5.781387552736651
 30
0.0
 11
-14.78838712394058
 21
5.781387552736663
 31
0.0
  0
LINE
  5
3B0
330
75
100
AcDbEntity
  8
GRUNDRISS
  6
Continuous
100
AcDbLine
 10
-6.508387123939088
 20
7.356387552735905
 30
0.0
 11
-9.508387123940485
 21
7.356387552735905
 31
0.0
  0
ARC
  5
3B1
330
75
100
AcDbEntity
  8
GRUNDRISS
  6
Continuous
100
AcDbCircle
 10
-9.508387123940485
 20
7.356387552735905
 30
0.0
 40
1.5
100
AcDbArc
 50
0.0
 51
90.0
  0
LINE
  5
3B2
330
75
100
AcDbEntity
  8
GRUNDRISS
  6
Continuous
100
AcDbLine
 10
-9.508387123940485
 20
7.356387552735905
 30
0.0
 11
-9.508387123940485
 21
8.856387552736604
 31
0.0
  0
ARC
  5
3B3
330
75
100
AcDbEntity
  8
GRUNDRISS
  6
Continuous
100
AcDbCircle
 10
-6.508387123939088
 20
7.356387552735905
 30
0.0
 40
1.5
100
AcDbArc
 50
90.0
 51
180.0
  0
ARC
  5
3B4
330
75
100
AcDbEntity
  8
GRUNDRISS
  6
Continuous
100
AcDbCircle
 10
-6.508387123939088
 20
7.356387552735905
 30
0.0
 40
1.5
100
AcDbArc
 50
0.0
 51
90.0
  0
LINE
  5
3B5
330
75
100
AcDbEntity
  8
GRUNDRISS
  6
Continuous
100
AcDbLine
 10
-6.508387123939088
 20
7.356387552735905
 30
0.0
 11
-6.508387123939088
 21
8.856387552736604
 31
0.0
  0
TEXT
  5
3B6
330
75
100
AcDbEntity
  8
GRUNDRISS
100
AcDbText
 10
-9.726012359339739
 20
6.464120929308548
 30
0.0
 40
0.1136434108527132
  1
F
  7
ARIALB
 11
-9.726012359339739
 21
6.577764340161261
 31
0.0
100
AcDbText
 73
     3
  0
TEXT
  5
3B7
330
75
100
AcDbEntity
  8
GRUNDRISS
100
AcDbText
 10
-8.75838712394014
 20
-32.00496903641054
 30
0.0
 40
0.1136434108527132
  1
F
 50
180.0
  7
ARIALB
 11
-8.75838712394014
 21
-32.11861244726325
 31
0.0
100
AcDbText
 73
     3
  0
TEXT
  5
3B8
330
75
100
AcDbEntity
  8
GRUNDRISS
100
AcDbText
 10
40.97161287605996
 20
-32.00496903641055
 30
0.0
 40
0.1136434108527132
  1
F
 50
180.0
  7
ARIALB
 11
40.97161287605996
 21
-32.11861244726326
 31
0.0
100
AcDbText
 73
     3
  0
TEXT
  5
3B9
330
75
100
AcDbEntity
  8
GRUNDRISS
100
AcDbText
 10
41.09161287605945
 20
6.757705963589845
 30
0.0
 40
0.1136434108527132
  1
F
 50
180.0
  7
ARIALB
 11
41.09161287605945
 21
6.644062552737132
 31
0.0
100
AcDbText
 73
     3
  0
CIRCLE
  5
3BA
330
75
100
AcDbEntity
  8
GRUNDRISS
  6
Continuous
100
AcDbCircle
 10
7.631612876060423
 20
7.006387552735737
 30
0.0
 40
0.05
  0
CIRCLE
  5
3BB
330
75
100
AcDbEntity
  8
GRUNDRISS
  6
Continuous
100
AcDbCircle
 10
16.35161287606093
 20
7.006387552735737
 30
0.0
 40
0.05
  0
CIRCLE
  5
3BC
330
75
100
AcDbEntity
  8
GRUNDRISS
  6
Continuous
100
AcDbCircle
 10
24.22161287606106
 20
7.006387552735737
 30
0.0
 40
0.05
  0
CIRCLE
  5
3BD
330
75
100
AcDbEntity
  8
GRUNDRISS
  6
Continuous
100
AcDbCircle
 10
34.07161287605973
 20
7.006387552735737
 30
0.0
 40
0.05
  0
LINE
  5
3BE
330
75
100
AcDbEntity
  8
GRUNDRISS
  6
Continuous
100
AcDbLine
 10
-16.45838712394077
 20
-32.64361244726202
 30
0.0
 11
-16.45838712394077
 21
-26.43361244726385
 31
0.0
  0
LINE
  5
3BF
330
75
100
AcDbEntity
  8
GRUNDRISS
  6
Continuous
100
AcDbLine
 10
-16.15838712394063
 20
-21.19468986160464
 30
0.0
 11
-16.55838712394082
 21
-21.19468986160464
 31
0.0
  0
LINE
  5
3C0
330
75
100
AcDbEntity
  8
GRUNDRISS
  6
Continuous
100
AcDbLine
 10
-16.55838712394082
 20
-21.19468986160464
 30
0.0
 11
-16.55838712394082
 21
-20.86468986160389
 31
0.0
  0
LINE
  5
3C1
330
75
100
AcDbEntity
  8
GRUNDRISS
  6
Continuous
100
AcDbLine
 10
-16.55838712394082
 20
-20.86468986160389
 30
0.0
 11
-16.15838712394063
 21
-20.86468986160389
 31
0.0
  0
LINE
  5
3C2
330
75
100
AcDbEntity
  8
GRUNDRISS
  6
Continuous
100
AcDbLine
 10
-16.15838712394063
 20
-20.86468986160389
 30
0.0
 11
-16.15838712394063
 21
-21.19468986160464
 31
0.0
  0
LINE
  5
3C3
330
75
100
AcDbEntity
  8
GRUNDRISS
  6
Continuous
100
AcDbLine
 10
-16.45838712394077
 20
-22.01361244726239
 30
0.0
 11
-16.45838712394077
 21
-23.01361244726285
 31
0.0
  0
LINE
  5
3C4
330
75
100
AcDbEntity
  8
GRUNDRISS
  6
Continuous
100
AcDbLine
 10
44.94161287606122
 20
-0.4436124472618172
 30
0.0
 11
44.94161287606124
 21
6.456387552735481
 31
0.0
  0
LINE
  5
3C5
330
75
100
AcDbEntity
  8
GRUNDRISS
  6
Continuous
100
AcDbLine
 10
44.94161287606124
 20
6.456387552735481
 30
0.0
 11
43.54161287606059
 21
6.456387552735481
 31
0.0
  0
LINE
  5
3C6
330
75
100
AcDbEntity
  8
GRUNDRISS
  6
Continuous
100
AcDbLine
 10
43.54161287606059
 20
6.456387552735481
 30
0.0
 11
43.54161287606059
 21
6.256387552738345
 31
0.0
  0
LINE
  5
3C7
330
75
100
AcDbEntity
  8
GRUNDRISS
  6
Continuous
100
AcDbLine
 10
43.54161287606059
 20
6.256387552738345
 30
0.0
 11
44.74161287606114
 21
6.256387552738345
 31
0.0
  0
LINE
  5
3C8
330
75
100
AcDbEntity
  8
GRUNDRISS
  6
Continuous
100
AcDbLine
 10
44.74161287606114
 20
6.256387552738345
 30
0.0
 11
44.74161287606113
 21
-0.2436124472617241
 31
0.0
  0
LINE
  5
3C9
330
75
100
AcDbEntity
  8
GRUNDRISS
  6
Continuous
100
AcDbLine
 10
44.74161287606113
 20
-0.2436124472617241
 30
0.0
 11
43.54161287606057
 21
-0.2436124472617241
 31
0.0
  0
LINE
  5
3CA
330
75
100
AcDbEntity
  8
GRUNDRISS
  6
Continuous
100
AcDbLine
 10
43.54161287606057
 20
-0.2436124472617241
 30
0.0
 11
43.54161287606057
 21
-0.4436124472618172
 31
0.0
  0
LINE
  5
3CB
330
75
100
AcDbEntity
  8
GRUNDRISS
  6
Continuous
100
AcDbLine
 10
43.54161287606057
 20
-0.4436124472618172
 30
0.0
 11
44.94161287606122
 21
-0.4436124472618172
 31
0.0
  0
LINE
  5
3CC
330
75
100
AcDbEntity
  8
GRUNDRISS
  6
Continuous
100
AcDbLine
 10
44.74161287606113
 20
1.056387552735924
 30
0.0
 11
43.54161287606057
 21
1.056387552735924
 31
0.0
  0
LINE
  5
3CD
330
75
100
AcDbEntity
  8
GRUNDRISS
  6
Continuous
100
AcDbLine
 10
43.54161287606057
 20
1.056387552735924
 30
0.0
 11
43.54161287606057
 21
1.316387552737228
 31
0.0
  0
LINE
  5
3CE
330
75
100
AcDbEntity
  8
GRUNDRISS
  6
Continuous
100
AcDbLine
 10
43.54161287606057
 20
1.316387552737228
 30
0.0
 11
44.74161287606113
 21
1.316387552737228
 31
0.0
  0
LINE
  5
3CF
330
75
100
AcDbEntity
  8
GRUNDRISS
  6
Continuous
100
AcDbLine
 10
44.74161287606113
 20
1.316387552737228
 30
0.0
 11
44.74161287606113
 21
1.056387552735924
 31
0.0
  0
LINE
  5
3D0
330
75
100
AcDbEntity
  8
GRUNDRISS
  6
Continuous
100
AcDbLine
 10
44.74161287606113
 20
1.316387552737228
 30
0.0
 11
43.54161287606057
 21
1.316387552737228
 31
0.0
  0
LINE
  5
3D1
330
75
100
AcDbEntity
  8
GRUNDRISS
  6
Continuous
100
AcDbLine
 10
43.54161287606057
 20
1.316387552737228
 30
0.0
 11
43.54161287606057
 21
1.576387552735575
 31
0.0
  0
LINE
  5
3D2
330
75
100
AcDbEntity
  8
GRUNDRISS
  6
Continuous
100
AcDbLine
 10
43.54161287606057
 20
1.576387552735575
 30
0.0
 11
44.74161287606113
 21
1.576387552735575
 31
0.0
  0
LINE
  5
3D3
330
75
100
AcDbEntity
  8
GRUNDRISS
  6
Continuous
100
AcDbLine
 10
44.74161287606113
 20
1.576387552735575
 30
0.0
 11
44.74161287606113
 21
1.316387552737228
 31
0.0
  0
LINE
  5
3D4
330
75
100
AcDbEntity
  8
GRUNDRISS
  6
Continuous
100
AcDbLine
 10
44.74161287606113
 20
1.576387552735575
 30
0.0
 11
43.54161287606057
 21
1.576387552735575
 31
0.0
  0
LINE
  5
3D5
330
75
100
AcDbEntity
  8
GRUNDRISS
  6
Continuous
100
AcDbLine
 10
43.54161287606057
 20
1.576387552735575
 30
0.0
 11
43.54161287606057
 21
1.836387552736878
 31
0.0
  0
LINE
  5
3D6
330
75
100
AcDbEntity
  8
GRUNDRISS
  6
Continuous
100
AcDbLine
 10
43.54161287606057
 20
1.836387552736878
 30
0.0
 11
44.74161287606113
 21
1.836387552736878
 31
0.0
  0
LINE
  5
3D7
330
75
100
AcDbEntity
  8
GRUNDRISS
  6
Continuous
100
AcDbLine
 10
44.74161287606113
 20
1.836387552736878
 30
0.0
 11
44.74161287606113
 21
1.576387552735575
 31
0.0
  0
LINE
  5
3D8
330
75
100
AcDbEntity
  8
GRUNDRISS
  6
Continuous
100
AcDbLine
 10
44.74161287606113
 20
1.836387552736878
 30
0.0
 11
43.54161287606057
 21
1.836387552736878
 31
0.0
  0
LINE
  5
3D9
330
75
100
AcDbEntity
  8
GRUNDRISS
  6
Continuous
100
AcDbLine
 10
43.54161287606057
 20
1.836387552736878
 30
0.0
 11
43.54161287606057
 21
2.096387552738182
 31
0.0
  0
LINE
  5
3DA
330
75
100
AcDbEntity
  8
GRUNDRISS
  6
Continuous
100
AcDbLine
 10
43.54161287606057
 20
2.096387552738182
 30
0.0
 11
44.74161287606113
 21
2.096387552738182
 31
0.0
  0
LINE
  5
3DB
330
75
100
AcDbEntity
  8
GRUNDRISS
  6
Continuous
100
AcDbLine
 10
44.74161287606113
 20
2.096387552738182
 30
0.0
 11
44.74161287606113
 21
1.836387552736878
 31
0.0
  0
LINE
  5
3DC
330
75
100
AcDbEntity
  8
GRUNDRISS
  6
Continuous
100
AcDbLine
 10
44.74161287606113
 20
2.096387552738182
 30
0.0
 11
43.54161287606057
 21
2.096387552738182
 31
0.0
  0
LINE
  5
3DD
330
75
100
AcDbEntity
  8
GRUNDRISS
  6
Continuous
100
AcDbLine
 10
43.54161287606057
 20
2.096387552738182
 30
0.0
 11
43.54161287606057
 21
2.356387552736529
 31
0.0
  0
LINE
  5
3DE
330
75
100
AcDbEntity
  8
GRUNDRISS
  6
Continuous
100
AcDbLine
 10
43.54161287606057
 20
2.356387552736529
 30
0.0
 11
44.74161287606113
 21
2.356387552736529
 31
0.0
  0
LINE
  5
3DF
330
75
100
AcDbEntity
  8
GRUNDRISS
  6
Continuous
100
AcDbLine
 10
44.74161287606113
 20
2.356387552736529
 30
0.0
 11
44.74161287606113
 21
2.096387552738182
 31
0.0
  0
LINE
  5
3E0
330
75
100
AcDbEntity
  8
GRUNDRISS
  6
Continuous
100
AcDbLine
 10
44.74161287606113
 20
2.356387552736529
 30
0.0
 11
43.54161287606057
 21
2.356387552736529
 31
0.0
  0
LINE
  5
3E1
330
75
100
AcDbEntity
  8
GRUNDRISS
  6
Continuous
100
AcDbLine
 10
43.54161287606057
 20
2.356387552736529
 30
0.0
 11
43.54161287606057
 21
2.616387552737833
 31
0.0
  0
LINE
  5
3E2
330
75
100
AcDbEntity
  8
GRUNDRISS
  6
Continuous
100
AcDbLine
 10
43.54161287606057
 20
2.616387552737833
 30
0.0
 11
44.74161287606113
 21
2.616387552737833
 31
0.0
  0
LINE
  5
3E3
330
75
100
AcDbEntity
  8
GRUNDRISS
  6
Continuous
100
AcDbLine
 10
44.74161287606113
 20
2.616387552737833
 30
0.0
 11
44.74161287606113
 21
2.356387552736529
 31
0.0
  0
LINE
  5
3E4
330
75
100
AcDbEntity
  8
GRUNDRISS
  6
Continuous
100
AcDbLine
 10
44.74161287606113
 20
2.616387552737833
 30
0.0
 11
43.54161287606057
 21
2.616387552737833
 31
0.0
  0
LINE
  5
3E5
330
75
100
AcDbEntity
  8
GRUNDRISS
  6
Continuous
100
AcDbLine
 10
43.54161287606057
 20
2.616387552737833
 30
0.0
 11
43.54161287606057
 21
2.87638755273618
 31
0.0
  0
LINE
  5
3E6
330
75
100
AcDbEntity
  8
GRUNDRISS
  6
Continuous
100
AcDbLine
 10
43.54161287606057
 20
2.87638755273618
 30
0.0
 11
44.74161287606113
 21
2.87638755273618
 31
0.0
  0
LINE
  5
3E7
330
75
100
AcDbEntity
  8
GRUNDRISS
  6
Continuous
100
AcDbLine
 10
44.74161287606113
 20
2.87638755273618
 30
0.0
 11
44.74161287606113
 21
2.616387552737833
 31
0.0
  0
LINE
  5
3E8
330
75
100
AcDbEntity
  8
GRUNDRISS
  6
Continuous
100
AcDbLine
 10
44.74161287606113
 20
2.87638755273618
 30
0.0
 11
43.54161287606057
 21
2.87638755273618
 31
0.0
  0
LINE
  5
3E9
330
75
100
AcDbEntity
  8
GRUNDRISS
  6
Continuous
100
AcDbLine
 10
43.54161287606057
 20
2.87638755273618
 30
0.0
 11
43.54161287606059
 21
3.136387552737484
 31
0.0
  0
LINE
  5
3EA
330
75
100
AcDbEntity
  8
GRUNDRISS
  6
Continuous
100
AcDbLine
 10
43.54161287606059
 20
3.136387552737484
 30
0.0
 11
44.74161287606114
 21
3.136387552737484
 31
0.0
  0
LINE
  5
3EB
330
75
100
AcDbEntity
  8
GRUNDRISS
  6
Continuous
100
AcDbLine
 10
44.74161287606114
 20
3.136387552737484
 30
0.0
 11
44.74161287606113
 21
2.87638755273618
 31
0.0
  0
LINE
  5
3EC
330
75
100
AcDbEntity
  8
GRUNDRISS
  6
Continuous
100
AcDbLine
 10
44.74161287606114
 20
3.136387552737484
 30
0.0
 11
43.54161287606059
 21
3.136387552737484
 31
0.0
  0
LINE
  5
3ED
330
75
100
AcDbEntity
  8
GRUNDRISS
  6
Continuous
100
AcDbLine
 10
43.54161287606059
 20
3.136387552737484
 30
0.0
 11
43.54161287606059
 21
3.396387552735831
 31
0.0
  0
LINE
  5
3EE
330
75
100
AcDbEntity
  8
GRUNDRISS
  6
Continuous
100
AcDbLine
 10
43.54161287606059
 20
3.396387552735831
 30
0.0
 11
44.74161287606114
 21
3.396387552735831
 31
0.0
  0
LINE
  5
3EF
330
75
100
AcDbEntity
  8
GRUNDRISS
  6
Continuous
100
AcDbLine
 10
44.74161287606114
 20
3.396387552735831
 30
0.0
 11
44.74161287606114
 21
3.136387552737484
 31
0.0
  0
LINE
  5
3F0
330
75
100
AcDbEntity
  8
GRUNDRISS
  6
Continuous
100
AcDbLine
 10
44.74161287606114
 20
3.396387552735831
 30
0.0
 11
43.54161287606059
 21
3.396387552735831
 31
0.0
  0
LINE
  5
3F1
330
75
100
AcDbEntity
  8
GRUNDRISS
  6
Continuous
100
AcDbLine
 10
43.54161287606059
 20
3.396387552735831
 30
0.0
 11
43.54161287606059
 21
3.656387552737134
 31
0.0
  0
LINE
  5
3F2
330
75
100
AcDbEntity
  8
GRUNDRISS
  6
Continuous
100
AcDbLine
 10
43.54161287606059
 20
3.656387552737134
 30
0.0
 11
44.74161287606114
 21
3.656387552737134
 31
0.0
  0
LINE
  5
3F3
330
75
100
AcDbEntity
  8
GRUNDRISS
  6
Continuous
100
AcDbLine
 10
44.74161287606114
 20
3.656387552737134
 30
0.0
 11
44.74161287606114
 21
3.396387552735831
 31
0.0
  0
LINE
  5
3F4
330
75
100
AcDbEntity
  8
GRUNDRISS
  6
Continuous
100
AcDbLine
 10
44.74161287606114
 20
3.656387552737134
 30
0.0
 11
43.54161287606059
 21
3.656387552737134
 31
0.0
  0
LINE
  5
3F5
330
75
100
AcDbEntity
  8
GRUNDRISS
  6
Continuous
100
AcDbLine
 10
43.54161287606059
 20
3.656387552737134
 30
0.0
 11
43.54161287606059
 21
3.916387552738438
 31
0.0
  0
LINE
  5
3F6
330
75
100
AcDbEntity
  8
GRUNDRISS
  6
Continuous
100
AcDbLine
 10
43.54161287606059
 20
3.916387552738438
 30
0.0
 11
44.74161287606114
 21
3.916387552738438
 31
0.0
  0
LINE
  5
3F7
330
75
100
AcDbEntity
  8
GRUNDRISS
  6
Continuous
100
AcDbLine
 10
44.74161287606114
 20
3.916387552738438
 30
0.0
 11
44.74161287606114
 21
3.656387552737134
 31
0.0
  0
LINE
  5
3F8
330
75
100
AcDbEntity
  8
GRUNDRISS
  6
Continuous
100
AcDbLine
 10
44.74161287606114
 20
3.916387552738438
 30
0.0
 11
43.54161287606059
 21
3.916387552738438
 31
0.0
  0
LINE
  5
3F9
330
75
100
AcDbEntity
  8
GRUNDRISS
  6
Continuous
100
AcDbLine
 10
43.54161287606059
 20
3.916387552738438
 30
0.0
 11
43.54161287606059
 21
4.176387552736785
 31
0.0
  0
LINE
  5
3FA
330
75
100
AcDbEntity
  8
GRUNDRISS
  6
Continuous
100
AcDbLine
 10
43.54161287606059
 20
4.176387552736785
 30
0.0
 11
44.74161287606114
 21
4.176387552736785
 31
0.0
  0
LINE
  5
3FB
330
75
100
AcDbEntity
  8
GRUNDRISS
  6
Continuous
100
AcDbLine
 10
44.74161287606114
 20
4.176387552736785
 30
0.0
 11
44.74161287606114
 21
3.916387552738438
 31
0.0
  0
LINE
  5
3FC
330
75
100
AcDbEntity
  8
GRUNDRISS
  6
Continuous
100
AcDbLine
 10
44.74161287606114
 20
4.176387552736785
 30
0.0
 11
43.54161287606059
 21
4.176387552736785
 31
0.0
  0
LINE
  5
3FD
330
75
100
AcDbEntity
  8
GRUNDRISS
  6
Continuous
100
AcDbLine
 10
43.54161287606059
 20
4.176387552736785
 30
0.0
 11
43.54161287606059
 21
4.436387552738089
 31
0.0
  0
LINE
  5
3FE
330
75
100
AcDbEntity
  8
GRUNDRISS
  6
Continuous
100
AcDbLine
 10
43.54161287606059
 20
4.436387552738089
 30
0.0
 11
44.74161287606114
 21
4.436387552738089
 31
0.0
  0
LINE
  5
3FF
330
75
100
AcDbEntity
  8
GRUNDRISS
  6
Continuous
100
AcDbLine
 10
44.74161287606114
 20
4.436387552738089
 30
0.0
 11
44.74161287606114
 21
4.176387552736785
 31
0.0
  0
LINE
  5
400
330
75
100
AcDbEntity
  8
GRUNDRISS
  6
Continuous
100
AcDbLine
 10
44.74161287606114
 20
4.436387552738089
 30
0.0
 11
43.54161287606059
 21
4.436387552738089
 31
0.0
  0
LINE
  5
401
330
75
100
AcDbEntity
  8
GRUNDRISS
  6
Continuous
100
AcDbLine
 10
43.54161287606059
 20
4.436387552738089
 30
0.0
 11
43.54161287606059
 21
4.696387552736436
 31
0.0
  0
LINE
  5
402
330
75
100
AcDbEntity
  8
GRUNDRISS
  6
Continuous
100
AcDbLine
 10
43.54161287606059
 20
4.696387552736436
 30
0.0
 11
44.74161287606114
 21
4.696387552736436
 31
0.0
  0
LINE
  5
403
330
75
100
AcDbEntity
  8
GRUNDRISS
  6
Continuous
100
AcDbLine
 10
44.74161287606114
 20
4.696387552736436
 30
0.0
 11
44.74161287606114
 21
4.436387552738089
 31
0.0
  0
LINE
  5
404
330
75
100
AcDbEntity
  8
GRUNDRISS
  6
Continuous
100
AcDbLine
 10
44.74161287606114
 20
4.696387552736436
 30
0.0
 11
43.54161287606059
 21
4.696387552736436
 31
0.0
  0
LINE
  5
405
330
75
100
AcDbEntity
  8
GRUNDRISS
  6
Continuous
100
AcDbLine
 10
43.54161287606059
 20
4.696387552736436
 30
0.0
 11
43.54161287606059
 21
4.95638755273774
 31
0.0
  0
LINE
  5
406
330
75
100
AcDbEntity
  8
GRUNDRISS
  6
Continuous
100
AcDbLine
 10
43.54161287606059
 20
4.95638755273774
 30
0.0
 11
44.74161287606114
 21
4.95638755273774
 31
0.0
  0
LINE
  5
407
330
75
100
AcDbEntity
  8
GRUNDRISS
  6
Continuous
100
AcDbLine
 10
44.74161287606114
 20
4.95638755273774
 30
0.0
 11
44.74161287606114
 21
4.696387552736436
 31
0.0
  0
LINE
  5
408
330
75
100
AcDbEntity
  8
GRUNDRISS
  6
Continuous
100
AcDbLine
 10
44.74161287606114
 20
4.95638755273774
 30
0.0
 11
43.54161287606059
 21
4.95638755273774
 31
0.0
  0
LINE
  5
409
330
75
100
AcDbEntity
  8
GRUNDRISS
  6
Continuous
100
AcDbLine
 10
43.54161287606059
 20
4.95638755273774
 30
0.0
 11
43.54161287606059
 21
5.216387552736087
 31
0.0
  0
LINE
  5
40A
330
75
100
AcDbEntity
  8
GRUNDRISS
  6
Continuous
100
AcDbLine
 10
43.54161287606059
 20
5.216387552736087
 30
0.0
 11
44.74161287606114
 21
5.216387552736087
 31
0.0
  0
LINE
  5
40B
330
75
100
AcDbEntity
  8
GRUNDRISS
  6
Continuous
100
AcDbLine
 10
44.74161287606114
 20
5.216387552736087
 30
0.0
 11
44.74161287606114
 21
4.95638755273774
 31
0.0
  0
LINE
  5
40C
330
75
100
AcDbEntity
  8
GRUNDRISS
  6
Continuous
100
AcDbLine
 10
44.74161287606114
 20
5.216387552736087
 30
0.0
 11
43.54161287606059
 21
5.216387552736087
 31
0.0
  0
LINE
  5
40D
330
75
100
AcDbEntity
  8
GRUNDRISS
  6
Continuous
100
AcDbLine
 10
43.54161287606059
 20
5.216387552736087
 30
0.0
 11
43.54161287606059
 21
5.47638755273739
 31
0.0
  0
LINE
  5
40E
330
75
100
AcDbEntity
  8
GRUNDRISS
  6
Continuous
100
AcDbLine
 10
43.54161287606059
 20
5.47638755273739
 30
0.0
 11
44.74161287606114
 21
5.47638755273739
 31
0.0
  0
LINE
  5
40F
330
75
100
AcDbEntity
  8
GRUNDRISS
  6
Continuous
100
AcDbLine
 10
44.74161287606114
 20
5.47638755273739
 30
0.0
 11
44.74161287606114
 21
5.216387552736087
 31
0.0
  0
LINE
  5
410
330
75
100
AcDbEntity
  8
GRUNDRISS
  6
Continuous
100
AcDbLine
 10
44.74161287606114
 20
5.47638755273739
 30
0.0
 11
43.54161287606059
 21
5.47638755273739
 31
0.0
  0
LINE
  5
411
330
75
100
AcDbEntity
  8
GRUNDRISS
  6
Continuous
100
AcDbLine
 10
43.54161287606059
 20
5.47638755273739
 30
0.0
 11
43.54161287606059
 21
5.736387552738694
 31
0.0
  0
LINE
  5
412
330
75
100
AcDbEntity
  8
GRUNDRISS
  6
Continuous
100
AcDbLine
 10
43.54161287606059
 20
5.736387552738694
 30
0.0
 11
44.74161287606114
 21
5.736387552738694
 31
0.0
  0
LINE
  5
413
330
75
100
AcDbEntity
  8
GRUNDRISS
  6
Continuous
100
AcDbLine
 10
44.74161287606114
 20
5.736387552738694
 30
0.0
 11
44.74161287606114
 21
5.47638755273739
 31
0.0
  0
LINE
  5
414
330
75
100
AcDbEntity
  8
GRUNDRISS
  6
Continuous
100
AcDbLine
 10
44.74161287606114
 20
5.736387552738694
 30
0.0
 11
43.54161287606059
 21
5.736387552738694
 31
0.0
  0
LINE
  5
415
330
75
100
AcDbEntity
  8
GRUNDRISS
  6
Continuous
100
AcDbLine
 10
43.54161287606059
 20
5.736387552738694
 30
0.0
 11
43.54161287606059
 21
5.996387552737041
 31
0.0
  0
LINE
  5
416
330
75
100
AcDbEntity
  8
GRUNDRISS
  6
Continuous
100
AcDbLine
 10
43.54161287606059
 20
5.996387552737041
 30
0.0
 11
44.74161287606114
 21
5.996387552737041
 31
0.0
  0
LINE
  5
417
330
75
100
AcDbEntity
  8
GRUNDRISS
  6
Continuous
100
AcDbLine
 10
44.74161287606114
 20
5.996387552737041
 30
0.0
 11
44.74161287606114
 21
5.736387552738694
 31
0.0
  0
LINE
  5
418
330
75
100
AcDbEntity
  8
GRUNDRISS
  6
Continuous
100
AcDbLine
 10
44.74161287606114
 20
5.996387552737041
 30
0.0
 11
43.54161287606059
 21
5.996387552737041
 31
0.0
  0
LINE
  5
419
330
75
100
AcDbEntity
  8
GRUNDRISS
  6
Continuous
100
AcDbLine
 10
43.54161287606059
 20
5.996387552737041
 30
0.0
 11
43.54161287606059
 21
6.256387552738345
 31
0.0
  0
LINE
  5
41A
330
75
100
AcDbEntity
  8
GRUNDRISS
  6
Continuous
100
AcDbLine
 10
43.54161287606059
 20
6.256387552738345
 30
0.0
 11
44.74161287606114
 21
6.256387552738345
 31
0.0
  0
LINE
  5
41B
330
75
100
AcDbEntity
  8
GRUNDRISS
  6
Continuous
100
AcDbLine
 10
44.74161287606114
 20
6.256387552738345
 30
0.0
 11
44.74161287606114
 21
5.996387552737041
 31
0.0
  0
LINE
  5
41C
330
75
100
AcDbEntity
  8
GRUNDRISS
  6
Continuous
100
AcDbLine
 10
43.54161287606057
 20
-3.143612447263074
 30
0.0
 11
43.54161287606057
 21
-2.143612447262608
 31
0.0
  0
LINE
  5
41D
330
75
100
AcDbEntity
  8
GRUNDRISS
  6
Continuous
100
AcDbLine
 10
43.54161287606057
 20
-23.14361244726352
 30
0.0
 11
43.54161287606057
 21
-22.14361244726305
 31
0.0
  0
LINE
  5
41E
330
75
100
AcDbEntity
  8
GRUNDRISS
  6
Continuous
100
AcDbLine
 10
-14.51838712393809
 20
5.856387552738176
 30
0.0
 11
-14.78838712394058
 21
5.856387552738176
 31
0.0
  0
LINE
  5
41F
330
75
100
AcDbEntity
  8
GRUNDRISS
  6
Continuous
100
AcDbLine
 10
-14.78838712394058
 20
5.856387552738176
 30
0.0
 11
-14.78838712394058
 21
7.056387552735778
 31
0.0
  0
LINE
  5
420
330
75
100
AcDbEntity
  8
GRUNDRISS
  6
Continuous
100
AcDbLine
 10
-14.78838712394058
 20
7.056387552735778
 30
0.0
 11
-14.51838712393809
 21
7.056387552735778
 31
0.0
  0
LINE
  5
421
330
75
100
AcDbEntity
  8
GRUNDRISS
  6
Continuous
100
AcDbLine
 10
-14.51838712393809
 20
7.056387552735778
 30
0.0
 11
-14.51838712393809
 21
5.856387552738176
 31
0.0
  0
LINE
  5
422
330
75
100
AcDbEntity
  8
GRUNDRISS
  6
Continuous
100
AcDbLine
 10
-14.24838712393855
 20
5.856387552738176
 30
0.0
 11
-14.51838712393809
 21
5.856387552738176
 31
0.0
  0
LINE
  5
423
330
75
100
AcDbEntity
  8
GRUNDRISS
  6
Continuous
100
AcDbLine
 10
-14.51838712393809
 20
5.856387552738176
 30
0.0
 11
-14.51838712393809
 21
7.056387552735778
 31
0.0
  0
LINE
  5
424
330
75
100
AcDbEntity
  8
GRUNDRISS
  6
Continuous
100
AcDbLine
 10
-14.51838712393809
 20
7.056387552735778
 30
0.0
 11
-14.24838712393855
 21
7.056387552735778
 31
0.0
  0
LINE
  5
425
330
75
100
AcDbEntity
  8
GRUNDRISS
  6
Continuous
100
AcDbLine
 10
-14.24838712393855
 20
7.056387552735778
 30
0.0
 11
-14.24838712393855
 21
5.856387552738176
 31
0.0
  0
LINE
  5
426
330
75
100
AcDbEntity
  8
GRUNDRISS
  6
Continuous
100
AcDbLine
 10
-13.97838712393902
 20
5.856387552738176
 30
0.0
 11
-14.24838712393855
 21
5.856387552738176
 31
0.0
  0
LINE
  5
427
330
75
100
AcDbEntity
  8
GRUNDRISS
  6
Continuous
100
AcDbLine
 10
-14.24838712393855
 20
5.856387552738176
 30
0.0
 11
-14.24838712393855
 21
7.056387552735778
 31
0.0
  0
LINE
  5
428
330
75
100
AcDbEntity
  8
GRUNDRISS
  6
Continuous
100
AcDbLine
 10
-14.24838712393855
 20
7.056387552735778
 30
0.0
 11
-13.97838712393902
 21
7.056387552735778
 31
0.0
  0
LINE
  5
429
330
75
100
AcDbEntity
  8
GRUNDRISS
  6
Continuous
100
AcDbLine
 10
-13.97838712393902
 20
7.056387552735778
 30
0.0
 11
-13.97838712393902
 21
5.856387552738176
 31
0.0
  0
LINE
  5
42A
330
75
100
AcDbEntity
  8
GRUNDRISS
  6
Continuous
100
AcDbLine
 10
-13.70838712393948
 20
5.856387552738176
 30
0.0
 11
-13.97838712393902
 21
5.856387552738176
 31
0.0
  0
LINE
  5
42B
330
75
100
AcDbEntity
  8
GRUNDRISS
  6
Continuous
100
AcDbLine
 10
-13.97838712393902
 20
5.856387552738176
 30
0.0
 11
-13.97838712393902
 21
7.056387552735778
 31
0.0
  0
LINE
  5
42C
330
75
100
AcDbEntity
  8
GRUNDRISS
  6
Continuous
100
AcDbLine
 10
-13.97838712393902
 20
7.056387552735778
 30
0.0
 11
-13.70838712393948
 21
7.056387552735778
 31
0.0
  0
LINE
  5
42D
330
75
100
AcDbEntity
  8
GRUNDRISS
  6
Continuous
100
AcDbLine
 10
-13.70838712393948
 20
7.056387552735778
 30
0.0
 11
-13.70838712393948
 21
5.856387552738176
 31
0.0
  0
LINE
  5
42E
330
75
100
AcDbEntity
  8
GRUNDRISS
  6
Continuous
100
AcDbLine
 10
-13.43838712393995
 20
5.856387552738176
 30
0.0
 11
-13.70838712393948
 21
5.856387552738176
 31
0.0
  0
LINE
  5
42F
330
75
100
AcDbEntity
  8
GRUNDRISS
  6
Continuous
100
AcDbLine
 10
-13.70838712393948
 20
5.856387552738176
 30
0.0
 11
-13.70838712393948
 21
7.056387552735778
 31
0.0
  0
LINE
  5
430
330
75
100
AcDbEntity
  8
GRUNDRISS
  6
Continuous
100
AcDbLine
 10
-13.70838712393948
 20
7.056387552735778
 30
0.0
 11
-13.43838712393995
 21
7.056387552735778
 31
0.0
  0
LINE
  5
431
330
75
100
AcDbEntity
  8
GRUNDRISS
  6
Continuous
100
AcDbLine
 10
-13.43838712393995
 20
7.056387552735778
 30
0.0
 11
-13.43838712393995
 21
5.856387552738176
 31
0.0
  0
LINE
  5
432
330
75
100
AcDbEntity
  8
GRUNDRISS
  6
Continuous
100
AcDbLine
 10
-12.35838712393885
 20
5.856387552738176
 30
0.0
 11
-12.62838712393839
 21
5.856387552738176
 31
0.0
  0
LINE
  5
433
330
75
100
AcDbEntity
  8
GRUNDRISS
  6
Continuous
100
AcDbLine
 10
-12.62838712393839
 20
5.856387552738176
 30
0.0
 11
-12.62838712393839
 21
7.056387552735778
 31
0.0
  0
LINE
  5
434
330
75
100
AcDbEntity
  8
GRUNDRISS
  6
Continuous
100
AcDbLine
 10
-12.62838712393839
 20
7.056387552735778
 30
0.0
 11
-12.35838712393885
 21
7.056387552735778
 31
0.0
  0
LINE
  5
435
330
75
100
AcDbEntity
  8
GRUNDRISS
  6
Continuous
100
AcDbLine
 10
-12.35838712393885
 20
7.056387552735778
 30
0.0
 11
-12.35838712393885
 21
5.856387552738176
 31
0.0
  0
LINE
  5
436
330
75
100
AcDbEntity
  8
GRUNDRISS
  6
Continuous
100
AcDbLine
 10
-12.08838712393932
 20
5.856387552738176
 30
0.0
 11
-12.35838712393885
 21
5.856387552738176
 31
0.0
  0
LINE
  5
437
330
75
100
AcDbEntity
  8
GRUNDRISS
  6
Continuous
100
AcDbLine
 10
-12.35838712393885
 20
5.856387552738176
 30
0.0
 11
-12.35838712393885
 21
7.056387552735778
 31
0.0
  0
LINE
  5
438
330
75
100
AcDbEntity
  8
GRUNDRISS
  6
Continuous
100
AcDbLine
 10
-12.35838712393885
 20
7.056387552735778
 30
0.0
 11
-12.08838712393932
 21
7.056387552735778
 31
0.0
  0
LINE
  5
439
330
75
100
AcDbEntity
  8
GRUNDRISS
  6
Continuous
100
AcDbLine
 10
-12.08838712393932
 20
7.056387552735778
 30
0.0
 11
-12.08838712393932
 21
5.856387552738176
 31
0.0
  0
LINE
  5
43A
330
75
100
AcDbEntity
  8
GRUNDRISS
  6
Continuous
100
AcDbLine
 10
-11.81838712393978
 20
5.856387552738176
 30
0.0
 11
-12.08838712393932
 21
5.856387552738176
 31
0.0
  0
LINE
  5
43B
330
75
100
AcDbEntity
  8
GRUNDRISS
  6
Continuous
100
AcDbLine
 10
-12.08838712393932
 20
5.856387552738176
 30
0.0
 11
-12.08838712393932
 21
7.056387552735778
 31
0.0
  0
LINE
  5
43C
330
75
100
AcDbEntity
  8
GRUNDRISS
  6
Continuous
100
AcDbLine
 10
-12.08838712393932
 20
7.056387552735778
 30
0.0
 11
-11.81838712393978
 21
7.056387552735778
 31
0.0
  0
LINE
  5
43D
330
75
100
AcDbEntity
  8
GRUNDRISS
  6
Continuous
100
AcDbLine
 10
-11.81838712393978
 20
7.056387552735778
 30
0.0
 11
-11.81838712393978
 21
5.856387552738176
 31
0.0
  0
LINE
  5
43E
330
75
100
AcDbEntity
  8
GRUNDRISS
  6
Continuous
100
AcDbLine
 10
-11.54838712394025
 20
5.856387552738176
 30
0.0
 11
-11.81838712393978
 21
5.856387552738176
 31
0.0
  0
LINE
  5
43F
330
75
100
AcDbEntity
  8
GRUNDRISS
  6
Continuous
100
AcDbLine
 10
-11.81838712393978
 20
5.856387552738176
 30
0.0
 11
-11.81838712393978
 21
7.056387552735778
 31
0.0
  0
LINE
  5
440
330
75
100
AcDbEntity
  8
GRUNDRISS
  6
Continuous
100
AcDbLine
 10
-11.81838712393978
 20
7.056387552735778
 30
0.0
 11
-11.54838712394025
 21
7.056387552735778
 31
0.0
  0
LINE
  5
441
330
75
100
AcDbEntity
  8
GRUNDRISS
  6
Continuous
100
AcDbLine
 10
-11.54838712394025
 20
7.056387552735778
 30
0.0
 11
-11.54838712394025
 21
5.856387552738176
 31
0.0
  0
LINE
  5
442
330
75
100
AcDbEntity
  8
GRUNDRISS
  6
Continuous
100
AcDbLine
 10
-11.27838712394072
 20
5.856387552738176
 30
0.0
 11
-11.54838712394025
 21
5.856387552738176
 31
0.0
  0
LINE
  5
443
330
75
100
AcDbEntity
  8
GRUNDRISS
  6
Continuous
100
AcDbLine
 10
-11.54838712394025
 20
5.856387552738176
 30
0.0
 11
-11.54838712394025
 21
7.056387552735778
 31
0.0
  0
LINE
  5
444
330
75
100
AcDbEntity
  8
GRUNDRISS
  6
Continuous
100
AcDbLine
 10
-11.54838712394025
 20
7.056387552735778
 30
0.0
 11
-11.27838712394072
 21
7.056387552735778
 31
0.0
  0
LINE
  5
445
330
75
100
AcDbEntity
  8
GRUNDRISS
  6
Continuous
100
AcDbLine
 10
-11.27838712394072
 20
7.056387552735778
 30
0.0
 11
-11.27838712394072
 21
5.856387552738176
 31
0.0
  0
LINE
  5
446
330
75
100
AcDbEntity
  8
GRUNDRISS
  6
Continuous
100
AcDbLine
 10
-11.08838712393885
 20
5.706387552738094
 30
0.0
 11
-14.78838712394058
 21
5.706387552738107
 31
0.0
  0
LINE
  5
447
330
75
100
AcDbEntity
  8
GRUNDRISS
  6
Continuous
100
AcDbLine
 10
-14.78838712394058
 20
5.706387552738107
 30
0.0
 11
-14.78838712394058
 21
5.856387552738176
 31
0.0
  0
LINE
  5
448
330
75
100
AcDbEntity
  8
GRUNDRISS
  6
Continuous
100
AcDbLine
 10
-14.78838712394058
 20
5.856387552738176
 30
0.0
 11
-11.08838712393885
 21
5.856387552738165
 31
0.0
  0
LINE
  5
449
330
75
100
AcDbEntity
  8
GRUNDRISS
  6
Continuous
100
AcDbLine
 10
-11.08838712393885
 20
5.856387552738165
 30
0.0
 11
-11.08838712393885
 21
5.706387552738094
 31
0.0
  0
LINE
  5
44A
330
75
100
AcDbEntity
  8
GRUNDRISS
  6
Continuous
100
AcDbLine
 10
-9.809437806196552
 20
6.004592809283917
 30
0.0
 11
-9.809437806196552
 21
7.004592809284394
 31
0.0
  0
LINE
  5
44B
330
75
100
AcDbEntity
  8
GRUNDRISS
  6
Continuous
100
AcDbLine
 10
-9.809437806196552
 20
7.004592809284394
 30
0.0
 11
-9.60943780619646
 21
7.004592809284394
 31
0.0
  0
LINE
  5
44C
330
75
100
AcDbEntity
  8
GRUNDRISS
  6
Continuous
100
AcDbLine
 10
-9.60943780619646
 20
7.004592809284394
 30
0.0
 11
-9.60943780619646
 21
6.004592809283917
 31
0.0
  0
LINE
  5
44D
330
75
100
AcDbEntity
  8
GRUNDRISS
  6
Continuous
100
AcDbLine
 10
-9.60943780619646
 20
6.004592809283917
 30
0.0
 11
-9.809437806196552
 21
6.004592809283917
 31
0.0
  0
LINE
  5
44E
330
75
100
AcDbEntity
  8
GRUNDRISS
  6
Continuous
100
AcDbLine
 10
-8.258387123939908
 20
-32.31861244726334
 30
0.0
 11
-9.258387123940373
 21
-32.31861244726334
 31
0.0
  0
LINE
  5
44F
330
75
100
AcDbEntity
  8
GRUNDRISS
  6
Continuous
100
AcDbLine
 10
-9.258387123940373
 20
-32.31861244726334
 30
0.0
 11
-9.258387123940373
 21
-32.11861244726325
 31
0.0
  0
LINE
  5
450
330
75
100
AcDbEntity
  8
GRUNDRISS
  6
Continuous
100
AcDbLine
 10
-9.258387123940373
 20
-32.11861244726325
 30
0.0
 11
-8.258387123939908
 21
-32.11861244726325
 31
0.0
  0
LINE
  5
451
330
75
100
AcDbEntity
  8
GRUNDRISS
  6
Continuous
100
AcDbLine
 10
-8.258387123939908
 20
-32.11861244726325
 30
0.0
 11
-8.258387123939908
 21
-32.31861244726334
 31
0.0
  0
LINE
  5
452
330
75
100
AcDbEntity
  8
GRUNDRISS
  6
Continuous
100
AcDbLine
 10
41.47161287606019
 20
-32.31861244726335
 30
0.0
 11
40.47161287605972
 21
-32.31861244726335
 31
0.0
  0
LINE
  5
453
330
75
100
AcDbEntity
  8
GRUNDRISS
  6
Continuous
100
AcDbLine
 10
40.47161287605972
 20
-32.31861244726335
 30
0.0
 11
40.47161287605972
 21
-32.11861244726326
 31
0.0
  0
LINE
  5
454
330
75
100
AcDbEntity
  8
GRUNDRISS
  6
Continuous
100
AcDbLine
 10
40.47161287605972
 20
-32.11861244726326
 30
0.0
 11
41.47161287606019
 21
-32.11861244726326
 31
0.0
  0
LINE
  5
455
330
75
100
AcDbEntity
  8
GRUNDRISS
  6
Continuous
100
AcDbLine
 10
41.47161287606019
 20
-32.11861244726326
 30
0.0
 11
41.47161287606019
 21
-32.31861244726335
 31
0.0
  0
LINE
  5
456
330
75
100
AcDbEntity
  8
GRUNDRISS
  6
Continuous
100
AcDbLine
 10
41.59161287605967
 20
6.831387552737133
 30
0.0
 11
40.59161287606217
 21
6.831387552737133
 31
0.0
  0
LINE
  5
457
330
75
100
AcDbEntity
  8
GRUNDRISS
  6
Continuous
100
AcDbLine
 10
40.59161287606217
 20
6.831387552737133
 30
0.0
 11
40.59161287606217
 21
7.031387552737227
 31
0.0
  0
LINE
  5
458
330
75
100
AcDbEntity
  8
GRUNDRISS
  6
Continuous
100
AcDbLine
 10
40.59161287606217
 20
7.031387552737227
 30
0.0
 11
41.59161287605967
 21
7.031387552737227
 31
0.0
  0
LINE
  5
459
330
75
100
AcDbEntity
  8
GRUNDRISS
  6
Continuous
100
AcDbLine
 10
41.59161287605967
 20
7.031387552737227
 30
0.0
 11
41.59161287605967
 21
6.831387552737133
 31
0.0
  0
LINE
  5
45A
330
75
100
AcDbEntity
  8
GRUNDRISS
  6
Continuous
100
AcDbLine
 10
-16.15838712394063
 20
-24.05861244726423
 30
0.0
 11
-16.55838712394082
 21
-24.05861244726423
 31
0.0
  0
LINE
  5
45B
330
75
100
AcDbEntity
  8
GRUNDRISS
  6
Continuous
100
AcDbLine
 10
-16.55838712394082
 20
-24.05861244726423
 30
0.0
 11
-16.55838712394082
 21
-23.72861244726348
 31
0.0
  0
LINE
  5
45C
330
75
100
AcDbEntity
  8
GRUNDRISS
  6
Continuous
100
AcDbLine
 10
-16.55838712394082
 20
-23.72861244726348
 30
0.0
 11
-16.15838712394063
 21
-23.72861244726348
 31
0.0
  0
LINE
  5
45D
330
75
100
AcDbEntity
  8
GRUNDRISS
  6
Continuous
100
AcDbLine
 10
-16.15838712394063
 20
-23.72861244726348
 30
0.0
 11
-16.15838712394063
 21
-24.05861244726423
 31
0.0
  0
LINE
  5
45E
330
75
100
AcDbEntity
  8
GRUNDRISS
  6
Continuous
100
AcDbLine
 10
43.45161287606173
 20
7.3563875527359
 30
0.0
 11
43.39161287606052
 21
7.3563875527359
 31
0.0
  0
LINE
  5
45F
330
75
100
AcDbEntity
  8
GRUNDRISS
  6
Continuous
100
AcDbLine
 10
43.39161287606052
 20
7.3563875527359
 30
0.0
 11
43.39161287606052
 21
7.406387552735923
 31
0.0
  0
LINE
  5
460
330
75
100
AcDbEntity
  8
GRUNDRISS
  6
Continuous
100
AcDbLine
 10
43.39161287606052
 20
7.406387552735923
 30
0.0
 11
43.45161287606173
 21
7.406387552735923
 31
0.0
  0
LINE
  5
461
330
75
100
AcDbEntity
  8
GRUNDRISS
  6
Continuous
100
AcDbLine
 10
43.45161287606173
 20
7.406387552735923
 30
0.0
 11
43.45161287606173
 21
7.3563875527359
 31
0.0
  0
LINE
  5
462
330
75
100
AcDbEntity
  8
GRUNDRISS
  6
Continuous
100
AcDbLine
 10
-11.12638712393922
 20
7.356387552735905
 30
0.0
 11
-11.17638712393925
 21
7.356387552735905
 31
0.0
  0
LINE
  5
463
330
75
100
AcDbEntity
  8
GRUNDRISS
  6
Continuous
100
AcDbLine
 10
-2.835387123940275
 20
7.356387552735905
 30
0.0
 11
-3.135387123940415
 21
7.356387552735905
 31
0.0
  0
LINE
  5
464
330
75
100
AcDbEntity
  8
GRUNDRISS
  6
Continuous
100
AcDbLine
 10
-3.135387123940415
 20
7.356387552735905
 30
0.0
 11
-3.135387123940415
 21
7.541387552738653
 31
0.0
  0
LINE
  5
465
330
75
100
AcDbEntity
  8
GRUNDRISS
  6
Continuous
100
AcDbLine
 10
-3.135387123940415
 20
7.541387552738653
 30
0.0
 11
-2.835387123940275
 21
7.541387552738653
 31
0.0
  0
LINE
  5
466
330
75
100
AcDbEntity
  8
GRUNDRISS
  6
Continuous
100
AcDbLine
 10
-2.835387123940275
 20
7.541387552738653
 30
0.0
 11
-2.835387123940275
 21
7.356387552735905
 31
0.0
  0
LINE
  5
467
330
75
100
AcDbEntity
  8
GRUNDRISS
  6
Continuous
100
AcDbLine
 10
3.775612876060282
 20
7.3563875527359
 30
0.0
 11
3.475612876060143
 21
7.3563875527359
 31
0.0
  0
LINE
  5
468
330
75
100
AcDbEntity
  8
GRUNDRISS
  6
Continuous
100
AcDbLine
 10
3.475612876060143
 20
7.3563875527359
 30
0.0
 11
3.475612876060143
 21
7.541387552738647
 31
0.0
  0
LINE
  5
469
330
75
100
AcDbEntity
  8
GRUNDRISS
  6
Continuous
100
AcDbLine
 10
3.475612876060143
 20
7.541387552738647
 30
0.0
 11
3.775612876060282
 21
7.541387552738647
 31
0.0
  0
LINE
  5
46A
330
75
100
AcDbEntity
  8
GRUNDRISS
  6
Continuous
100
AcDbLine
 10
3.775612876060282
 20
7.541387552738647
 30
0.0
 11
3.775612876060282
 21
7.3563875527359
 31
0.0
  0
LINE
  5
46B
330
75
100
AcDbEntity
  8
GRUNDRISS
  6
Continuous
100
AcDbLine
 10
23.60861287606189
 20
7.3563875527359
 30
0.0
 11
23.30861287606175
 21
7.3563875527359
 31
0.0
  0
LINE
  5
46C
330
75
100
AcDbEntity
  8
GRUNDRISS
  6
Continuous
100
AcDbLine
 10
23.30861287606175
 20
7.3563875527359
 30
0.0
 11
23.30861287606175
 21
7.54138755273569
 31
0.0
  0
LINE
  5
46D
330
75
100
AcDbEntity
  8
GRUNDRISS
  6
Continuous
100
AcDbLine
 10
23.30861287606175
 20
7.54138755273569
 30
0.0
 11
23.60861287606189
 21
7.54138755273569
 31
0.0
  0
LINE
  5
46E
330
75
100
AcDbEntity
  8
GRUNDRISS
  6
Continuous
100
AcDbLine
 10
23.60861287606189
 20
7.54138755273569
 30
0.0
 11
23.60861287606189
 21
7.3563875527359
 31
0.0
  0
LINE
  5
46F
330
75
100
AcDbEntity
  8
GRUNDRISS
  6
Continuous
100
AcDbLine
 10
30.21961287605947
 20
7.3563875527359
 30
0.0
 11
29.91961287605932
 21
7.3563875527359
 31
0.0
  0
LINE
  5
470
330
75
100
AcDbEntity
  8
GRUNDRISS
  6
Continuous
100
AcDbLine
 10
29.91961287605932
 20
7.3563875527359
 30
0.0
 11
29.91961287605932
 21
7.54138755273569
 31
0.0
  0
LINE
  5
471
330
75
100
AcDbEntity
  8
GRUNDRISS
  6
Continuous
100
AcDbLine
 10
29.91961287605932
 20
7.54138755273569
 30
0.0
 11
30.21961287605947
 21
7.54138755273569
 31
0.0
  0
LINE
  5
472
330
75
100
AcDbEntity
  8
GRUNDRISS
  6
Continuous
100
AcDbLine
 10
30.21961287605947
 20
7.54138755273569
 30
0.0
 11
30.21961287605947
 21
7.3563875527359
 31
0.0
  0
LINE
  5
473
330
75
100
AcDbEntity
  8
GRUNDRISS
  6
Continuous
100
AcDbLine
 10
3.651612876060934
 20
7.05638755273576
 30
0.0
 11
4.631612876061982
 21
7.05638755273576
 31
0.0
  0
LINE
  5
474
330
75
100
AcDbEntity
  8
GRUNDRISS
  6
Continuous
100
AcDbLine
 10
25.22161287606151
 20
7.05638755273576
 30
0.0
 11
26.22161287605902
 21
7.05638755273576
 31
0.0
  0
LINE
  5
475
330
75
100
AcDbEntity
  8
GRUNDRISS
  6
Continuous
100
AcDbLine
 10
-16.45838712394077
 20
-32.64361244726202
 30
0.0
 11
-16.45838712394077
 21
-32.3936124472619
 31
0.0
  0
LINE
  5
476
330
75
100
AcDbEntity
  8
GRUNDRISS
  6
Continuous
100
AcDbLine
 10
-16.45838712394077
 20
-28.17361244726348
 30
0.0
 11
-16.45838712394077
 21
-27.97361244726339
 31
0.0
  0
LINE
  5
477
330
75
100
AcDbEntity
  8
GRUNDRISS
  6
Continuous
100
AcDbLine
 10
-16.45734016702387
 20
-30.03960677081741
 30
0.0
 11
-16.45734016702387
 21
-29.77960677081611
 31
0.0
  0
LINE
  5
478
330
75
100
AcDbEntity
  8
GRUNDRISS
  6
Continuous
100
AcDbLine
 10
-16.45734016702387
 20
-30.29960677081576
 30
0.0
 11
-16.45734016702387
 21
-30.03960677081741
 31
0.0
  0
LINE
  5
479
330
75
100
AcDbEntity
  8
GRUNDRISS
  6
Continuous
100
AcDbLine
 10
-16.45734016702387
 20
-30.55960677081707
 30
0.0
 11
-16.45734016702387
 21
-30.29960677081576
 31
0.0
  0
LINE
  5
47A
330
75
100
AcDbEntity
  8
GRUNDRISS
  6
Continuous
100
AcDbLine
 10
-16.45734016702387
 20
-30.81960677081541
 30
0.0
 11
-16.45734016702387
 21
-30.55960677081707
 31
0.0
  0
LINE
  5
47B
330
75
100
AcDbEntity
  8
GRUNDRISS
  6
Continuous
100
AcDbLine
 10
-16.45734016702387
 20
-31.07960677081672
 30
0.0
 11
-16.45734016702387
 21
-30.81960677081541
 31
0.0
  0
LINE
  5
47C
330
75
100
AcDbEntity
  8
GRUNDRISS
  6
Continuous
100
AcDbLine
 10
-16.45734016702387
 20
-31.33960677081506
 30
0.0
 11
-16.45734016702387
 21
-31.07960677081672
 31
0.0
  0
LINE
  5
47D
330
75
100
AcDbEntity
  8
GRUNDRISS
  6
Continuous
100
AcDbLine
 10
-16.45734016702387
 20
-31.59960677081637
 30
0.0
 11
-16.45734016702387
 21
-31.33960677081506
 31
0.0
  0
LINE
  5
47E
330
75
100
AcDbEntity
  8
GRUNDRISS
  6
Continuous
100
AcDbLine
 10
-16.45734016702387
 20
-31.85960677081471
 30
0.0
 11
-16.45734016702387
 21
-31.59960677081637
 31
0.0
  0
LINE
  5
47F
330
75
100
AcDbEntity
  8
GRUNDRISS
  6
Continuous
100
AcDbLine
 10
-16.45734016702387
 20
-32.11960677081602
 30
0.0
 11
-16.45734016702387
 21
-31.85960677081471
 31
0.0
  0
LINE
  5
480
330
75
100
AcDbEntity
  8
GRUNDRISS
  6
Continuous
100
AcDbLine
 10
-16.45734016702387
 20
-32.37960677081733
 30
0.0
 11
-16.45734016702387
 21
-32.11960677081602
 31
0.0
  0
LINE
  5
481
330
75
100
AcDbEntity
  8
GRUNDRISS
  6
Continuous
100
AcDbLine
 10
-16.45734016702387
 20
-32.63960677081568
 30
0.0
 11
-16.45734016702387
 21
-32.37960677081733
 31
0.0
  0
LINE
  5
482
330
75
100
AcDbEntity
  8
GRUNDRISS
  6
Continuous
100
AcDbLine
 10
-16.45838712394077
 20
-23.09361244726348
 30
0.0
 11
-16.45838712394077
 21
-23.01361244726285
 31
0.0
  0
LINE
  5
483
330
75
100
AcDbEntity
  8
GRUNDRISS
  6
Continuous
100
AcDbLine
 10
-16.45838712394077
 20
-22.01361244726239
 30
0.0
 11
-16.45838712394077
 21
-21.93361244726176
 31
0.0
  0
LINE
  5
484
330
75
100
AcDbEntity
  8
GRUNDRISS
  6
Continuous
100
AcDbLine
 10
44.12161287606144
 20
-3.223612447263703
 30
0.0
 11
44.12161287606144
 21
-2.06361244726198
 31
0.0
  0
LINE
  5
485
330
75
100
AcDbEntity
  8
GRUNDRISS
  6
Continuous
100
AcDbLine
 10
44.12161287606144
 20
-2.06361244726198
 30
0.0
 11
43.54161287606057
 21
-2.06361244726198
 31
0.0
  0
LINE
  5
486
330
75
100
AcDbEntity
  8
GRUNDRISS
  6
Continuous
100
AcDbLine
 10
43.54161287606057
 20
-2.06361244726198
 30
0.0
 11
43.54161287606057
 21
-2.143612447262608
 31
0.0
  0
LINE
  5
487
330
75
100
AcDbEntity
  8
GRUNDRISS
  6
Continuous
100
AcDbLine
 10
43.54161287606057
 20
-2.143612447262608
 30
0.0
 11
44.04161287606081
 21
-2.143612447262608
 31
0.0
  0
LINE
  5
488
330
75
100
AcDbEntity
  8
GRUNDRISS
  6
Continuous
100
AcDbLine
 10
44.04161287606081
 20
-2.143612447262608
 30
0.0
 11
44.04161287606081
 21
-3.143612447263074
 31
0.0
  0
LINE
  5
489
330
75
100
AcDbEntity
  8
GRUNDRISS
  6
Continuous
100
AcDbLine
 10
44.04161287606081
 20
-3.143612447263074
 30
0.0
 11
43.54161287606057
 21
-3.143612447263074
 31
0.0
  0
LINE
  5
48A
330
75
100
AcDbEntity
  8
GRUNDRISS
  6
Continuous
100
AcDbLine
 10
43.54161287606057
 20
-3.143612447263074
 30
0.0
 11
43.54161287606057
 21
-3.223612447263703
 31
0.0
  0
LINE
  5
48B
330
75
100
AcDbEntity
  8
GRUNDRISS
  6
Continuous
100
AcDbLine
 10
43.54161287606057
 20
-3.223612447263703
 30
0.0
 11
44.12161287606144
 21
-3.223612447263703
 31
0.0
  0
LINE
  5
48C
330
75
100
AcDbEntity
  8
GRUNDRISS
  6
Continuous
100
AcDbLine
 10
44.12161287606144
 20
-23.22361244726415
 30
0.0
 11
44.12161287606144
 21
-22.06361244726242
 31
0.0
  0
LINE
  5
48D
330
75
100
AcDbEntity
  8
GRUNDRISS
  6
Continuous
100
AcDbLine
 10
44.12161287606144
 20
-22.06361244726242
 30
0.0
 11
43.54161287606057
 21
-22.06361244726242
 31
0.0
  0
LINE
  5
48E
330
75
100
AcDbEntity
  8
GRUNDRISS
  6
Continuous
100
AcDbLine
 10
43.54161287606057
 20
-22.06361244726242
 30
0.0
 11
43.54161287606057
 21
-22.14361244726305
 31
0.0
  0
LINE
  5
48F
330
75
100
AcDbEntity
  8
GRUNDRISS
  6
Continuous
100
AcDbLine
 10
43.54161287606057
 20
-22.14361244726305
 30
0.0
 11
44.04161287606081
 21
-22.14361244726305
 31
0.0
  0
LINE
  5
490
330
75
100
AcDbEntity
  8
GRUNDRISS
  6
Continuous
100
AcDbLine
 10
44.04161287606081
 20
-22.14361244726305
 30
0.0
 11
44.04161287606081
 21
-23.14361244726352
 31
0.0
  0
LINE
  5
491
330
75
100
AcDbEntity
  8
GRUNDRISS
  6
Continuous
100
AcDbLine
 10
44.04161287606081
 20
-23.14361244726352
 30
0.0
 11
43.54161287606057
 21
-23.14361244726352
 31
0.0
  0
LINE
  5
492
330
75
100
AcDbEntity
  8
GRUNDRISS
  6
Continuous
100
AcDbLine
 10
43.54161287606057
 20
-23.14361244726352
 30
0.0
 11
43.54161287606057
 21
-23.22361244726415
 31
0.0
  0
LINE
  5
493
330
75
100
AcDbEntity
  8
GRUNDRISS
  6
Continuous
100
AcDbLine
 10
43.54161287606057
 20
-23.22361244726415
 30
0.0
 11
44.12161287606144
 21
-23.22361244726415
 31
0.0
  0
LINE
  5
494
330
75
100
AcDbEntity
  8
GRUNDRISS
  6
Continuous
100
AcDbLine
 10
-9.603481649528136
 20
7.056387552735778
 30
0.0
 11
-9.603481649528136
 21
2.464539425688096
 31
0.0
  0
LINE
  5
495
330
75
100
AcDbEntity
  8
GRUNDRISS
  6
Continuous
100
AcDbLine
 10
-9.753481649528206
 20
7.056387552735778
 30
0.0
 11
-9.753481649528206
 21
2.614539425688165
 31
0.0
  0
LINE
  5
496
330
75
100
AcDbEntity
  8
GRUNDRISS
  6
Continuous
100
AcDbLine
 10
-11.16484707636057
 20
2.614539425688177
 30
0.0
 11
-11.16484707636057
 21
2.464539425688107
 31
0.0
  0
LINE
  5
497
330
75
100
AcDbEntity
  8
GRUNDRISS
  6
Continuous
100
AcDbLine
 10
-9.753481649528206
 20
2.614539425688165
 30
0.0
 11
-10.93838712393878
 21
2.614539425688165
 31
0.0
  0
LINE
  5
498
330
75
100
AcDbEntity
  8
GRUNDRISS
  6
Continuous
100
AcDbLine
 10
-11.08838712393885
 20
2.614539425688165
 30
0.0
 11
-11.16484707636057
 21
2.614539425688177
 31
0.0
  0
LINE
  5
499
330
75
100
AcDbEntity
  8
GRUNDRISS
  6
Continuous
100
AcDbLine
 10
-13.17599894518577
 20
2.614539425688177
 30
0.0
 11
-15.95455927671729
 21
2.614539425688177
 31
0.0
  0
LINE
  5
49A
330
75
100
AcDbEntity
  8
GRUNDRISS
  6
Continuous
100
AcDbLine
 10
-15.83455927671487
 20
2.464539425688107
 30
0.0
 11
-13.17599894518577
 21
2.464539425688107
 31
0.0
  0
LINE
  5
49B
330
75
100
AcDbEntity
  8
GRUNDRISS
  6
Continuous
100
AcDbLine
 10
-11.16484707636057
 20
2.464539425688107
 30
0.0
 11
-9.603481649528136
 21
2.464539425688096
 31
0.0
  0
LINE
  5
49C
330
75
100
AcDbEntity
  8
GRUNDRISS
  6
Continuous
100
AcDbLine
 10
-13.17599894518577
 20
2.614539425688177
 30
0.0
 11
-13.17599894518577
 21
2.464539425688107
 31
0.0
  0
LINE
  5
49D
330
75
100
AcDbEntity
  8
GRUNDRISS
  6
Continuous
100
AcDbLine
 10
-15.83455927671487
 20
1.266609803030906
 30
0.0
 11
-15.83455927671487
 21
2.464539425688107
 31
0.0
  0
LINE
  5
49E
330
75
100
AcDbEntity
  8
GRUNDRISS
  6
Continuous
100
AcDbLine
 10
-15.95455927671729
 20
2.614539425688177
 30
0.0
 11
-15.95455927671729
 21
1.38660980303037
 31
0.0
  0
LINE
  5
49F
330
75
100
AcDbEntity
  8
GRUNDRISS
  6
Continuous
100
AcDbLine
 10
-16.15838712394063
 20
-12.64809640579849
 30
0.0
 11
-16.15838712394062
 21
1.266609803030906
 31
0.0
  0
LINE
  5
4A0
330
75
100
AcDbEntity
  8
GRUNDRISS
  6
Continuous
100
AcDbLine
 10
-16.15838712394062
 20
1.38660980303037
 30
0.0
 11
-16.15838712394062
 21
7.056387552735778
 31
0.0
  0
LINE
  5
4A1
330
75
100
AcDbEntity
  8
GRUNDRISS
  6
Continuous
100
AcDbLine
 10
-15.95455927671729
 20
1.38660980303037
 30
0.0
 11
-16.15838712394062
 21
1.38660980303037
 31
0.0
  0
LINE
  5
4A2
330
75
100
AcDbEntity
  8
GRUNDRISS
  6
Continuous
100
AcDbLine
 10
-16.15838712394062
 20
1.266609803030906
 30
0.0
 11
-15.83455927671487
 21
1.266609803030906
 31
0.0
  0
LINE
  5
4A3
330
75
100
AcDbEntity
  8
GRUNDRISS
  6
Continuous
100
AcDbLine
 10
-10.93838712393878
 20
7.056387552735778
 30
0.0
 11
-9.753481649528206
 21
7.056387552735778
 31
0.0
  0
LINE
  5
4A4
330
75
100
AcDbEntity
  8
GRUNDRISS
  6
Continuous
100
AcDbLine
 10
-9.603481649528136
 20
7.056387552735778
 30
0.0
 11
-9.508387123940485
 21
7.056387552735778
 31
0.0
  0
LINE
  5
4A5
330
75
100
AcDbEntity
  8
GRUNDRISS
  6
Continuous
100
AcDbLine
 10
-16.24405227305684
 20
3.573286648303071
 30
0.0
 11
-16.24405227305684
 21
5.551662141535674
 31
0.0
  0
LINE
  5
4A6
330
75
100
AcDbEntity
  8
GRUNDRISS
  6
Continuous
100
AcDbLine
 10
-16.45838712394077
 20
-12.64809640579849
 30
0.0
 11
-16.45838712394076
 21
-4.283612447262405
 31
0.0
  0
LINE
  5
4A7
330
75
100
AcDbEntity
  8
GRUNDRISS
  6
Continuous
100
AcDbLine
 10
-16.45838712394077
 20
-26.43361244726385
 30
0.0
 11
-16.45838712394077
 21
-17.65170139762917
 31
0.0
  0
LINE
  5
4A8
330
75
100
AcDbEntity
  8
GRUNDRISS
  6
Continuous
100
AcDbLine
 10
-16.27838712394009
 20
-17.64920139762961
 30
0.0
 11
-16.27838712394009
 21
-12.65059640579805
 31
0.0
  0
LINE
  5
4A9
330
75
100
AcDbEntity
  8
GRUNDRISS
  6
Continuous
100
AcDbLine
 10
-11.16484707636057
 20
2.614539425688177
 30
0.0
 11
-13.17599894518577
 21
2.614539425688177
 31
0.0
  0
LINE
  5
4AA
330
75
100
AcDbEntity
  8
GRUNDRISS
  6
Continuous
100
AcDbLine
 10
-11.16484707636057
 20
2.535085603374268
 30
0.0
 11
-13.17599894518577
 21
2.535085603374268
 31
0.0
  0
LINE
  5
4AB
330
75
100
AcDbEntity
  8
HALLE_0_1_EG
  6
Continuous
100
AcDbLine
 10
-16.27105263196594
 20
16.35638754995832
 30
0.0
 11
-16.27105263196594
 21
20.35638754995836
 31
0.0
  0
LINE
  5
4AC
330
75
100
AcDbEntity
  8
HALLE_0_1_EG
  6
Continuous
100
AcDbLine
 10
-12.96795440894671
 20
27.35638754995833
 30
0.0
 11
-12.96795440894671
 21
27.03638754995834
 31
0.0
  0
LINE
  5
4AD
330
75
100
AcDbEntity
  8
HALLE_0_1_EG
  6
Continuous
100
AcDbLine
 10
-12.97424614380534
 20
27.12267101532932
 30
0.0
 11
-15.07938712639342
 21
27.12267101532932
 31
0.0
  0
LINE
  5
4AE
330
75
100
AcDbEntity
  8
SW_HALLENWAND
100
AcDbLine
 10
-16.15887943651848
 20
1.22985916350578
 30
0.0
 11
-16.15817983080957
 21
-32.34550334407091
 31
0.0
  0
LINE
  5
4AF
330
75
100
AcDbEntity
  8
SW_HALLENWAND
100
AcDbLine
 10
-16.15817983080957
 20
-32.34550334407091
 30
0.0
 11
43.24057971397674
 21
-32.34334609202802
 31
0.0
  0
LINE
  5
4B0
330
75
100
AcDbEntity
  8
SW_HALLENWAND
100
AcDbLine
 10
43.24057971397674
 20
-32.34334609202802
 30
0.0
 11
43.24088451743313
 21
7.056221333793216
 31
0.0
  0
LINE
  5
4B1
330
75
100
AcDbEntity
  8
SW_HALLENWAND
100
AcDbLine
 10
43.24088451743313
 20
7.056221333793216
 30
0.0
 11
-9.603481649528136
 21
7.056366899983408
 31
0.0
  0
LINE
  5
4B2
330
75
100
AcDbEntity
  8
SW_HALLENWAND
100
AcDbLine
 10
-15.81980497772942
 20
1.229858869762449
 30
0.0
 11
-16.15887943651848
 21
1.22985916350578
 31
0.0
  0
LINE
  5
4B3
330
75
100
AcDbEntity
  8
SW_HALLENWAND
100
AcDbLine
 10
-15.81980497772942
 20
1.229858869762449
 30
0.0
 11
-15.81980497772942
 21
2.464541716037444
 31
0.0
  0
LINE
  5
4B4
330
75
100
AcDbEntity
  8
SW_HALLENWAND
100
AcDbLine
 10
-9.603481649528136
 20
2.464536330791328
 30
0.0
 11
-15.81980497772942
 21
2.464541716037444
 31
0.0
  0
LINE
  5
4B5
330
75
100
AcDbEntity
  8
SW_HALLENWAND
100
AcDbLine
 10
-9.603481649528136
 20
2.464536330791328
 30
0.0
 11
-9.603481649528136
 21
7.056366899983408
 31
0.0
  0
LINE
  5
4B6
330
75
100
AcDbEntity
  8
GRUNDRISS
  6
Continuous
100
AcDbLine
 10
-11.54430152202298
 20
2.453925150341503
 30
0.0
 11
-12.86264307249005
 21
2.453925150341503
 31
0.0
  0
LINE
  5
4B7
330
75
100
AcDbEntity
  8
GRUNDRISS
  6
Continuous
100
AcDbLine
 10
-12.86264307249005
 20
2.453925150341503
 30
0.0
 11
-12.76643977015783
 21
2.511140342337807
 31
0.0
  0
LINE
  5
4B8
330
75
100
AcDbEntity
  8
GRUNDRISS
  6
Continuous
100
AcDbLine
 10
-12.86264307249005
 20
2.453925150341503
 30
0.0
 11
-12.76643977015783
 21
2.396709958345475
 31
0.0
  0
LINE
  5
4B9
330
75
100
AcDbEntity
  8
GRUNDRISS
  6
Continuous
100
AcDbLine
 10
-12.76643977015783
 20
2.396709958345475
 30
0.0
 11
-12.76643977015783
 21
2.511140342337807
 31
0.0
  0
LINE
  5
4BA
330
75
100
AcDbEntity
  8
GRUNDRISS
  6
Continuous
100
AcDbLine
 10
-16.44290965194294
 20
7.705895014264336
 30
0.0
 11
-16.44290965194294
 21
9.024236564731412
 31
0.0
  0
LINE
  5
4BB
330
75
100
AcDbEntity
  8
GRUNDRISS
  6
Continuous
100
AcDbLine
 10
-16.44290965194294
 20
9.024236564731412
 30
0.0
 11
-16.38569445994663
 21
8.928033262399189
 31
0.0
  0
LINE
  5
4BC
330
75
100
AcDbEntity
  8
GRUNDRISS
  6
Continuous
100
AcDbLine
 10
-16.44290965194294
 20
9.024236564731412
 30
0.0
 11
-16.50012484393896
 21
8.928033262399189
 31
0.0
  0
LINE
  5
4BD
330
75
100
AcDbEntity
  8
GRUNDRISS
  6
Continuous
100
AcDbLine
 10
-16.50012484393896
 20
8.928033262399189
 30
0.0
 11
-16.38569445994663
 21
8.928033262399189
 31
0.0
  0
LINE
  5
4BE
330
75
100
AcDbEntity
  8
HALLE_0_1_EG
  6
Continuous
100
AcDbLine
 10
-17.42874141998008
 20
-18.903425489736
 30
0.0
 11
-17.42874141998008
 21
-19.233425489736
 31
0.0
  0
LINE
  5
4BF
330
75
100
AcDbEntity
  8
HALLE_0_1_EG
  6
Continuous
100
AcDbLine
 10
-16.45874141998008
 20
-19.233425489736
 30
0.0
 11
-17.42874141998008
 21
-19.233425489736
 31
0.0
  0
LINE
  5
4C0
330
75
100
AcDbEntity
  8
HALLE_0_1_EG
  6
Continuous
100
AcDbLine
 10
-16.45874141998008
 20
-18.903425489736
 30
0.0
 11
-17.42874141998008
 21
-18.903425489736
 31
0.0
  0
LINE
  5
4C1
330
75
100
AcDbEntity
  8
HALLE_0_1_EG
  6
Continuous
100
AcDbLine
 10
-18.26874141998008
 20
-19.233425489736
 30
0.0
 11
-20.9587414199801
 21
-19.233425489736
 31
0.0
  0
LINE
  5
4C2
330
75
100
AcDbEntity
  8
HALLE_0_1_EG
  6
Continuous
100
AcDbLine
 10
-18.26874141998008
 20
-18.903425489736
 30
0.0
 11
-21.2887414199801
 21
-18.903425489736
 31
0.0
  0
LINE
  5
4C3
330
75
100
AcDbEntity
  8
HALLE_0_1_EG
  6
Continuous
100
AcDbLine
 10
-18.26874141998008
 20
-18.903425489736
 30
0.0
 11
-18.26874141998008
 21
-19.233425489736
 31
0.0
  0
LINE
  5
4C4
330
75
100
AcDbEntity
  8
HALLE_0_1_EG
  6
Continuous
100
AcDbLine
 10
-20.9587414199801
 20
-19.233425489736
 30
0.0
 11
-20.9587414199801
 21
-26.57342548973601
 31
0.0
  0
LINE
  5
4C5
330
75
100
AcDbEntity
  8
HALLE_0_1_EG
  6
Continuous
100
AcDbLine
 10
-21.2887414199801
 20
-18.903425489736
 30
0.0
 11
-21.2887414199801
 21
-26.903425489736
 31
0.0
  0
LINE
  5
4C6
330
75
100
AcDbEntity
  8
HALLE_0_1_EG
  6
Continuous
100
AcDbLine
 10
-18.99874141998008
 20
-26.903425489736
 30
0.0
 11
-18.99874141998008
 21
-26.57342548973601
 31
0.0
  0
LINE
  5
4C7
330
75
100
AcDbEntity
  8
HALLE_0_1_EG
  6
Continuous
100
AcDbLine
 10
-20.9587414199801
 20
-26.57342548973601
 30
0.0
 11
-18.99874141998008
 21
-26.57342548973601
 31
0.0
  0
LINE
  5
4C8
330
75
100
AcDbEntity
  8
HALLE_0_1_EG
  6
Continuous
100
AcDbLine
 10
-21.2887414199801
 20
-26.903425489736
 30
0.0
 11
-18.99874141998008
 21
-26.903425489736
 31
0.0
  0
LINE
  5
4C9
330
75
100
AcDbEntity
  8
HALLE_0_1_EG
  6
Continuous
100
AcDbLine
 10
-18.99874141998008
 20
-26.57342548973601
 30
0.0
 11
-17.72874141998008
 21
-26.57342548973601
 31
0.0
  0
LINE
  5
4CA
330
75
100
AcDbEntity
  8
HALLE_0_1_EG
  6
Continuous
100
AcDbLine
 10
-18.99874141998008
 20
-26.903425489736
 30
0.0
 11
-17.72874141998008
 21
-26.903425489736
 31
0.0
  0
LINE
  5
4CB
330
75
100
AcDbEntity
  8
HALLE_0_1_EG
  6
Continuous
100
AcDbLine
 10
-17.72874141998008
 20
-26.57342548973601
 30
0.0
 11
-16.45874141998008
 21
-26.57342548973601
 31
0.0
  0
LINE
  5
4CC
330
75
100
AcDbEntity
  8
HALLE_0_1_EG
  6
Continuous
100
AcDbLine
 10
-17.72874141998008
 20
-26.903425489736
 30
0.0
 11
-16.45874141998008
 21
-26.90342548973601
 31
0.0
  0
LINE
  5
4CD
330
75
100
AcDbEntity
  8
HALLE_0_1_EG
  6
Continuous
100
AcDbLine
 10
-17.72874141998008
 20
-26.903425489736
 30
0.0
 11
-17.72874141998008
 21
-26.57342548973601
 31
0.0
  0
ARC
  5
4CE
330
75
100
AcDbEntity
  8
HALLE_0_1_EG
  6
Continuous
100
AcDbCircle
 10
-17.42874141998008
 20
-18.903425489736
 30
0.0
 40
0.84
100
AcDbArc
 50
90.0
 51
180.0
  0
LINE
  5
4CF
330
75
100
AcDbEntity
  8
HALLE_0_1_EG
  6
Continuous
100
AcDbLine
 10
-17.42874141998008
 20
-18.903425489736
 30
0.0
 11
-17.42874141998008
 21
-18.06342548973602
 31
0.0
  0
ARC
  5
4D0
330
75
100
AcDbEntity
  8
HALLE_0_1_EG
  6
Continuous
100
AcDbCircle
 10
-17.72874141998008
 20
-26.903425489736
 30
0.0
 40
1.27
100
AcDbArc
 50
180.0
 51
270.0
  0
LINE
  5
4D1
330
75
100
AcDbEntity
  8
HALLE_0_1_EG
  6
Continuous
100
AcDbLine
 10
-17.72874141998008
 20
-26.903425489736
 30
0.0
 11
-17.72874141998008
 21
-28.173425489736
 31
0.0
  0
LINE
  5
4D2
330
75
100
AcDbEntity
  8
HALLE_0_1_EG
  6
Continuous
100
AcDbLine
 10
-17.05874141998008
 20
-31.19342548973601
 30
0.0
 11
-17.05874141998008
 21
-28.07342548973601
 31
0.0
  0
LINE
  5
4D3
330
75
100
AcDbEntity
  8
HALLE_0_1_EG
  6
Continuous
100
AcDbLine
 10
-17.05874141998008
 20
-28.07342548973601
 30
0.0
 11
-17.65874141998009
 21
-28.333425489736
 31
0.0
  0
LINE
  5
4D4
330
75
100
AcDbEntity
  8
HALLE_0_1_EG
  6
Continuous
100
AcDbLine
 10
-17.05874141998008
 20
-28.07342548973601
 30
0.0
 11
-16.45874141998008
 21
-28.33342548973601
 31
0.0
  0
LINE
  5
4D5
330
75
100
AcDbEntity
  8
HALLE_0_1_EG
  6
Continuous
100
AcDbLine
 10
-18.37874141998008
 20
-29.373425489736
 30
0.0
 11
-18.37874141998008
 21
-31.19342548973601
 31
0.0
  0
LINE
  5
4D6
330
75
100
AcDbEntity
  8
HALLE_0_1_EG
  6
Continuous
100
AcDbLine
 10
-18.37874141998008
 20
-31.19342548973601
 30
0.0
 11
-17.77874141998008
 21
-30.93342548973601
 31
0.0
  0
LINE
  5
4D7
330
75
100
AcDbEntity
  8
HALLE_0_1_EG
  6
Continuous
100
AcDbLine
 10
-18.37874141998008
 20
-31.19342548973601
 30
0.0
 11
-18.97874141998009
 21
-30.93342548973601
 31
0.0
  0
LINE
  5
4D8
330
75
100
AcDbEntity
  8
HALLE_0_1_EG
  6
Continuous
100
AcDbLine
 10
-17.42874141998008
 20
-19.233425489736
 30
0.0
 11
-18.26874141998008
 21
-19.233425489736
 31
0.0
  0
LINE
  5
4D9
330
75
100
AcDbEntity
  8
HALLE_0_1_EG
  6
Continuous
100
AcDbLine
 10
-18.26874141998008
 20
-19.233425489736
 30
0.0
 11
-18.26874141998008
 21
-18.903425489736
 31
0.0
  0
LINE
  5
4DA
330
75
100
AcDbEntity
  8
HALLE_0_1_EG
  6
Continuous
100
AcDbLine
 10
-18.26874141998008
 20
-18.903425489736
 30
0.0
 11
-17.42874141998008
 21
-18.903425489736
 31
0.0
  0
LINE
  5
4DB
330
75
100
AcDbEntity
  8
HALLE_0_1_EG
  6
Continuous
100
AcDbLine
 10
-17.42874141998008
 20
-18.903425489736
 30
0.0
 11
-17.42874141998008
 21
-19.233425489736
 31
0.0
  0
LINE
  5
4DC
330
75
100
AcDbEntity
  8
HALLE_0_1_EG
  6
Continuous
100
AcDbLine
 10
-16.45874141998008
 20
-32.393425489736
 30
0.0
 11
-18.97874141998009
 21
-32.393425489736
 31
0.0
  0
LINE
  5
4DD
330
75
100
AcDbEntity
  8
HALLE_0_1_EG
  6
Continuous
100
AcDbLine
 10
-18.97874141998009
 20
-32.393425489736
 30
0.0
 11
-18.97874141998009
 21
-28.173425489736
 31
0.0
  0
LINE
  5
4DE
330
75
100
AcDbEntity
  8
HALLE_0_1_EG
  6
Continuous
100
AcDbLine
 10
-18.97874141998009
 20
-28.173425489736
 30
0.0
 11
-16.45874141998008
 21
-28.17342548973601
 31
0.0
  0
LINE
  5
4DF
330
75
100
AcDbEntity
  8
HALLE_0_1_EG
  6
Continuous
100
AcDbLine
 10
-16.45874141998008
 20
-27.97342548973601
 30
0.0
 11
-19.17874141998009
 21
-27.973425489736
 31
0.0
  0
LINE
  5
4E0
330
75
100
AcDbEntity
  8
HALLE_0_1_EG
  6
Continuous
100
AcDbLine
 10
-19.17874141998009
 20
-27.973425489736
 30
0.0
 11
-19.17874141998009
 21
-32.643425489736
 31
0.0
  0
LINE
  5
4E1
330
75
100
AcDbEntity
  8
HALLE_0_1_EG
  6
Continuous
100
AcDbLine
 10
-19.17874141998009
 20
-32.643425489736
 30
0.0
 11
-16.45874141998008
 21
-32.643425489736
 31
0.0
  0
LINE
  5
4E2
330
75
100
AcDbEntity
  8
HALLE_0_1_EG
  6
Continuous
100
AcDbLine
 10
-17.77874141998008
 20
-31.19342548973601
 30
0.0
 11
-18.97874141998009
 21
-31.19342548973601
 31
0.0
  0
LINE
  5
4E3
330
75
100
AcDbEntity
  8
HALLE_0_1_EG
  6
Continuous
100
AcDbLine
 10
-18.97874141998009
 20
-31.19342548973601
 30
0.0
 11
-18.97874141998009
 21
-30.93342548973601
 31
0.0
  0
LINE
  5
4E4
330
75
100
AcDbEntity
  8
HALLE_0_1_EG
  6
Continuous
100
AcDbLine
 10
-18.97874141998009
 20
-30.93342548973601
 30
0.0
 11
-17.77874141998008
 21
-30.93342548973601
 31
0.0
  0
LINE
  5
4E5
330
75
100
AcDbEntity
  8
HALLE_0_1_EG
  6
Continuous
100
AcDbLine
 10
-17.77874141998008
 20
-30.93342548973601
 30
0.0
 11
-17.77874141998008
 21
-31.19342548973601
 31
0.0
  0
LINE
  5
4E6
330
75
100
AcDbEntity
  8
HALLE_0_1_EG
  6
Continuous
100
AcDbLine
 10
-17.77874141998008
 20
-30.93342548973601
 30
0.0
 11
-18.97874141998009
 21
-30.93342548973601
 31
0.0
  0
LINE
  5
4E7
330
75
100
AcDbEntity
  8
HALLE_0_1_EG
  6
Continuous
100
AcDbLine
 10
-18.97874141998009
 20
-30.93342548973601
 30
0.0
 11
-18.97874141998009
 21
-30.673425489736
 31
0.0
  0
LINE
  5
4E8
330
75
100
AcDbEntity
  8
HALLE_0_1_EG
  6
Continuous
100
AcDbLine
 10
-18.97874141998009
 20
-30.673425489736
 30
0.0
 11
-17.77874141998008
 21
-30.67342548973601
 31
0.0
  0
LINE
  5
4E9
330
75
100
AcDbEntity
  8
HALLE_0_1_EG
  6
Continuous
100
AcDbLine
 10
-17.77874141998008
 20
-30.67342548973601
 30
0.0
 11
-17.77874141998008
 21
-30.93342548973601
 31
0.0
  0
LINE
  5
4EA
330
75
100
AcDbEntity
  8
HALLE_0_1_EG
  6
Continuous
100
AcDbLine
 10
-17.77874141998008
 20
-30.67342548973601
 30
0.0
 11
-18.97874141998009
 21
-30.673425489736
 31
0.0
  0
LINE
  5
4EB
330
75
100
AcDbEntity
  8
HALLE_0_1_EG
  6
Continuous
100
AcDbLine
 10
-18.97874141998009
 20
-30.673425489736
 30
0.0
 11
-18.97874141998009
 21
-30.413425489736
 31
0.0
  0
LINE
  5
4EC
330
75
100
AcDbEntity
  8
HALLE_0_1_EG
  6
Continuous
100
AcDbLine
 10
-18.97874141998009
 20
-30.413425489736
 30
0.0
 11
-17.77874141998008
 21
-30.41342548973601
 31
0.0
  0
LINE
  5
4ED
330
75
100
AcDbEntity
  8
HALLE_0_1_EG
  6
Continuous
100
AcDbLine
 10
-17.77874141998008
 20
-30.41342548973601
 30
0.0
 11
-17.77874141998008
 21
-30.67342548973601
 31
0.0
  0
LINE
  5
4EE
330
75
100
AcDbEntity
  8
HALLE_0_1_EG
  6
Continuous
100
AcDbLine
 10
-17.77874141998008
 20
-30.41342548973601
 30
0.0
 11
-18.97874141998009
 21
-30.413425489736
 31
0.0
  0
LINE
  5
4EF
330
75
100
AcDbEntity
  8
HALLE_0_1_EG
  6
Continuous
100
AcDbLine
 10
-18.97874141998009
 20
-30.413425489736
 30
0.0
 11
-18.97874141998009
 21
-30.153425489736
 31
0.0
  0
LINE
  5
4F0
330
75
100
AcDbEntity
  8
HALLE_0_1_EG
  6
Continuous
100
AcDbLine
 10
-18.97874141998009
 20
-30.153425489736
 30
0.0
 11
-17.77874141998008
 21
-30.15342548973601
 31
0.0
  0
LINE
  5
4F1
330
75
100
AcDbEntity
  8
HALLE_0_1_EG
  6
Continuous
100
AcDbLine
 10
-17.77874141998008
 20
-30.15342548973601
 30
0.0
 11
-17.77874141998008
 21
-30.41342548973601
 31
0.0
  0
LINE
  5
4F2
330
75
100
AcDbEntity
  8
HALLE_0_1_EG
  6
Continuous
100
AcDbLine
 10
-17.77874141998008
 20
-30.15342548973601
 30
0.0
 11
-18.97874141998009
 21
-30.153425489736
 31
0.0
  0
LINE
  5
4F3
330
75
100
AcDbEntity
  8
HALLE_0_1_EG
  6
Continuous
100
AcDbLine
 10
-18.97874141998009
 20
-30.153425489736
 30
0.0
 11
-18.97874141998009
 21
-29.89342548973601
 31
0.0
  0
LINE
  5
4F4
330
75
100
AcDbEntity
  8
HALLE_0_1_EG
  6
Continuous
100
AcDbLine
 10
-18.97874141998009
 20
-29.89342548973601
 30
0.0
 11
-17.77874141998008
 21
-29.89342548973601
 31
0.0
  0
LINE
  5
4F5
330
75
100
AcDbEntity
  8
HALLE_0_1_EG
  6
Continuous
100
AcDbLine
 10
-17.77874141998008
 20
-29.89342548973601
 30
0.0
 11
-17.77874141998008
 21
-30.15342548973601
 31
0.0
  0
LINE
  5
4F6
330
75
100
AcDbEntity
  8
HALLE_0_1_EG
  6
Continuous
100
AcDbLine
 10
-17.77874141998008
 20
-29.89342548973601
 30
0.0
 11
-18.97874141998009
 21
-29.89342548973601
 31
0.0
  0
LINE
  5
4F7
330
75
100
AcDbEntity
  8
HALLE_0_1_EG
  6
Continuous
100
AcDbLine
 10
-18.97874141998009
 20
-29.89342548973601
 30
0.0
 11
-18.97874141998009
 21
-29.633425489736
 31
0.0
  0
LINE
  5
4F8
330
75
100
AcDbEntity
  8
HALLE_0_1_EG
  6
Continuous
100
AcDbLine
 10
-18.97874141998009
 20
-29.633425489736
 30
0.0
 11
-17.77874141998008
 21
-29.633425489736
 31
0.0
  0
LINE
  5
4F9
330
75
100
AcDbEntity
  8
HALLE_0_1_EG
  6
Continuous
100
AcDbLine
 10
-17.77874141998008
 20
-29.633425489736
 30
0.0
 11
-17.77874141998008
 21
-29.89342548973601
 31
0.0
  0
LINE
  5
4FA
330
75
100
AcDbEntity
  8
HALLE_0_1_EG
  6
Continuous
100
AcDbLine
 10
-17.77874141998008
 20
-29.633425489736
 30
0.0
 11
-18.97874141998009
 21
-29.633425489736
 31
0.0
  0
LINE
  5
4FB
330
75
100
AcDbEntity
  8
HALLE_0_1_EG
  6
Continuous
100
AcDbLine
 10
-18.97874141998009
 20
-29.633425489736
 30
0.0
 11
-18.97874141998009
 21
-29.373425489736
 31
0.0
  0
LINE
  5
4FC
330
75
100
AcDbEntity
  8
HALLE_0_1_EG
  6
Continuous
100
AcDbLine
 10
-18.97874141998009
 20
-29.373425489736
 30
0.0
 11
-17.77874141998008
 21
-29.373425489736
 31
0.0
  0
LINE
  5
4FD
330
75
100
AcDbEntity
  8
HALLE_0_1_EG
  6
Continuous
100
AcDbLine
 10
-17.77874141998008
 20
-29.373425489736
 30
0.0
 11
-17.77874141998008
 21
-29.633425489736
 31
0.0
  0
LINE
  5
4FE
330
75
100
AcDbEntity
  8
HALLE_0_1_EG
  6
Continuous
100
AcDbLine
 10
-16.45874141998008
 20
-31.19342548973601
 30
0.0
 11
-17.65874141998009
 21
-31.19342548973601
 31
0.0
  0
LINE
  5
4FF
330
75
100
AcDbEntity
  8
HALLE_0_1_EG
  6
Continuous
100
AcDbLine
 10
-17.65874141998009
 20
-31.19342548973601
 30
0.0
 11
-17.65874141998009
 21
-30.93342548973601
 31
0.0
  0
LINE
  5
500
330
75
100
AcDbEntity
  8
HALLE_0_1_EG
  6
Continuous
100
AcDbLine
 10
-17.65874141998009
 20
-30.93342548973601
 30
0.0
 11
-16.45874141998008
 21
-30.93342548973601
 31
0.0
  0
LINE
  5
501
330
75
100
AcDbEntity
  8
HALLE_0_1_EG
  6
Continuous
100
AcDbLine
 10
-16.45874141998008
 20
-30.93342548973601
 30
0.0
 11
-17.65874141998009
 21
-30.93342548973601
 31
0.0
  0
LINE
  5
502
330
75
100
AcDbEntity
  8
HALLE_0_1_EG
  6
Continuous
100
AcDbLine
 10
-17.65874141998009
 20
-30.93342548973601
 30
0.0
 11
-17.65874141998009
 21
-30.67342548973601
 31
0.0
  0
LINE
  5
503
330
75
100
AcDbEntity
  8
HALLE_0_1_EG
  6
Continuous
100
AcDbLine
 10
-17.65874141998009
 20
-30.67342548973601
 30
0.0
 11
-16.45874141998008
 21
-30.67342548973601
 31
0.0
  0
LINE
  5
504
330
75
100
AcDbEntity
  8
HALLE_0_1_EG
  6
Continuous
100
AcDbLine
 10
-16.45874141998008
 20
-30.67342548973601
 30
0.0
 11
-17.65874141998009
 21
-30.67342548973601
 31
0.0
  0
LINE
  5
505
330
75
100
AcDbEntity
  8
HALLE_0_1_EG
  6
Continuous
100
AcDbLine
 10
-17.65874141998009
 20
-30.67342548973601
 30
0.0
 11
-17.65874141998009
 21
-30.41342548973601
 31
0.0
  0
LINE
  5
506
330
75
100
AcDbEntity
  8
HALLE_0_1_EG
  6
Continuous
100
AcDbLine
 10
-17.65874141998009
 20
-30.41342548973601
 30
0.0
 11
-16.45874141998008
 21
-30.41342548973601
 31
0.0
  0
LINE
  5
507
330
75
100
AcDbEntity
  8
HALLE_0_1_EG
  6
Continuous
100
AcDbLine
 10
-16.45874141998008
 20
-30.41342548973601
 30
0.0
 11
-17.65874141998009
 21
-30.41342548973601
 31
0.0
  0
LINE
  5
508
330
75
100
AcDbEntity
  8
HALLE_0_1_EG
  6
Continuous
100
AcDbLine
 10
-17.65874141998009
 20
-30.41342548973601
 30
0.0
 11
-17.65874141998009
 21
-30.15342548973601
 31
0.0
  0
LINE
  5
509
330
75
100
AcDbEntity
  8
HALLE_0_1_EG
  6
Continuous
100
AcDbLine
 10
-17.65874141998009
 20
-30.15342548973601
 30
0.0
 11
-16.45874141998008
 21
-30.15342548973601
 31
0.0
  0
LINE
  5
50A
330
75
100
AcDbEntity
  8
HALLE_0_1_EG
  6
Continuous
100
AcDbLine
 10
-16.45874141998008
 20
-30.15342548973601
 30
0.0
 11
-17.65874141998009
 21
-30.15342548973601
 31
0.0
  0
LINE
  5
50B
330
75
100
AcDbEntity
  8
HALLE_0_1_EG
  6
Continuous
100
AcDbLine
 10
-17.65874141998009
 20
-30.15342548973601
 30
0.0
 11
-17.65874141998009
 21
-29.89342548973601
 31
0.0
  0
LINE
  5
50C
330
75
100
AcDbEntity
  8
HALLE_0_1_EG
  6
Continuous
100
AcDbLine
 10
-17.65874141998009
 20
-29.89342548973601
 30
0.0
 11
-16.45874141998008
 21
-29.89342548973601
 31
0.0
  0
LINE
  5
50D
330
75
100
AcDbEntity
  8
HALLE_0_1_EG
  6
Continuous
100
AcDbLine
 10
-16.45874141998008
 20
-29.89342548973601
 30
0.0
 11
-17.65874141998009
 21
-29.89342548973601
 31
0.0
  0
LINE
  5
50E
330
75
100
AcDbEntity
  8
HALLE_0_1_EG
  6
Continuous
100
AcDbLine
 10
-17.65874141998009
 20
-29.89342548973601
 30
0.0
 11
-17.65874141998009
 21
-29.633425489736
 31
0.0
  0
LINE
  5
50F
330
75
100
AcDbEntity
  8
HALLE_0_1_EG
  6
Continuous
100
AcDbLine
 10
-17.65874141998009
 20
-29.633425489736
 30
0.0
 11
-16.45874141998008
 21
-29.633425489736
 31
0.0
  0
LINE
  5
510
330
75
100
AcDbEntity
  8
HALLE_0_1_EG
  6
Continuous
100
AcDbLine
 10
-16.45874141998008
 20
-29.633425489736
 30
0.0
 11
-17.65874141998009
 21
-29.633425489736
 31
0.0
  0
LINE
  5
511
330
75
100
AcDbEntity
  8
HALLE_0_1_EG
  6
Continuous
100
AcDbLine
 10
-17.65874141998009
 20
-29.633425489736
 30
0.0
 11
-17.65874141998009
 21
-29.373425489736
 31
0.0
  0
LINE
  5
512
330
75
100
AcDbEntity
  8
HALLE_0_1_EG
  6
Continuous
100
AcDbLine
 10
-17.65874141998009
 20
-29.373425489736
 30
0.0
 11
-16.45874141998008
 21
-29.373425489736
 31
0.0
  0
LINE
  5
513
330
75
100
AcDbEntity
  8
HALLE_0_1_EG
  6
Continuous
100
AcDbLine
 10
-16.45874141998008
 20
-29.373425489736
 30
0.0
 11
-17.65874141998009
 21
-29.373425489736
 31
0.0
  0
LINE
  5
514
330
75
100
AcDbEntity
  8
HALLE_0_1_EG
  6
Continuous
100
AcDbLine
 10
-17.65874141998009
 20
-29.373425489736
 30
0.0
 11
-17.65874141998009
 21
-29.11342548973601
 31
0.0
  0
LINE
  5
515
330
75
100
AcDbEntity
  8
HALLE_0_1_EG
  6
Continuous
100
AcDbLine
 10
-17.65874141998009
 20
-29.11342548973601
 30
0.0
 11
-16.45874141998008
 21
-29.11342548973601
 31
0.0
  0
LINE
  5
516
330
75
100
AcDbEntity
  8
HALLE_0_1_EG
  6
Continuous
100
AcDbLine
 10
-16.45874141998008
 20
-29.11342548973601
 30
0.0
 11
-17.65874141998009
 21
-29.11342548973601
 31
0.0
  0
LINE
  5
517
330
75
100
AcDbEntity
  8
HALLE_0_1_EG
  6
Continuous
100
AcDbLine
 10
-17.65874141998009
 20
-29.11342548973601
 30
0.0
 11
-17.65874141998009
 21
-28.85342548973601
 31
0.0
  0
LINE
  5
518
330
75
100
AcDbEntity
  8
HALLE_0_1_EG
  6
Continuous
100
AcDbLine
 10
-17.65874141998009
 20
-28.85342548973601
 30
0.0
 11
-16.45874141998008
 21
-28.85342548973601
 31
0.0
  0
LINE
  5
519
330
75
100
AcDbEntity
  8
HALLE_0_1_EG
  6
Continuous
100
AcDbLine
 10
-16.45874141998008
 20
-28.85342548973601
 30
0.0
 11
-17.65874141998009
 21
-28.85342548973601
 31
0.0
  0
LINE
  5
51A
330
75
100
AcDbEntity
  8
HALLE_0_1_EG
  6
Continuous
100
AcDbLine
 10
-17.65874141998009
 20
-28.85342548973601
 30
0.0
 11
-17.65874141998009
 21
-28.593425489736
 31
0.0
  0
LINE
  5
51B
330
75
100
AcDbEntity
  8
HALLE_0_1_EG
  6
Continuous
100
AcDbLine
 10
-17.65874141998009
 20
-28.593425489736
 30
0.0
 11
-16.45874141998008
 21
-28.593425489736
 31
0.0
  0
LINE
  5
51C
330
75
100
AcDbEntity
  8
HALLE_0_1_EG
  6
Continuous
100
AcDbLine
 10
-16.45874141998008
 20
-28.593425489736
 30
0.0
 11
-17.65874141998009
 21
-28.593425489736
 31
0.0
  0
LINE
  5
51D
330
75
100
AcDbEntity
  8
HALLE_0_1_EG
  6
Continuous
100
AcDbLine
 10
-17.65874141998009
 20
-28.593425489736
 30
0.0
 11
-17.65874141998009
 21
-28.333425489736
 31
0.0
  0
LINE
  5
51E
330
75
100
AcDbEntity
  8
HALLE_0_1_EG
  6
Continuous
100
AcDbLine
 10
-17.65874141998009
 20
-28.333425489736
 30
0.0
 11
-16.45874141998008
 21
-28.33342548973601
 31
0.0
  0
LINE
  5
51F
330
75
100
AcDbEntity
  8
HALLE_0_1_EG
  6
Continuous
100
AcDbLine
 10
-16.45874141998008
 20
-28.33342548973601
 30
0.0
 11
-17.65874141998009
 21
-28.333425489736
 31
0.0
  0
LINE
  5
520
330
75
100
AcDbEntity
  8
HALLE_0_1_EG
  6
Continuous
100
AcDbLine
 10
-17.65874141998009
 20
-28.333425489736
 30
0.0
 11
-17.65874141998009
 21
-28.073425489736
 31
0.0
  0
LINE
  5
521
330
75
100
AcDbEntity
  8
HALLE_0_1_EG
  6
Continuous
100
AcDbLine
 10
-17.65874141998009
 20
-28.073425489736
 30
0.0
 11
-16.45874141998008
 21
-28.07342548973601
 31
0.0
  0
LINE
  5
522
330
75
100
AcDbEntity
  8
HALLE_0_1_EG
  6
Continuous
100
AcDbLine
 10
-16.45874141998008
 20
-31.24342548973601
 30
0.0
 11
-17.70874141998009
 21
-31.24342548973601
 31
0.0
  0
LINE
  5
523
330
75
100
AcDbEntity
  8
HALLE_0_1_EG
  6
Continuous
100
AcDbLine
 10
-17.70874141998009
 20
-31.24342548973601
 30
0.0
 11
-17.70874141998009
 21
-28.073425489736
 31
0.0
  0
LINE
  5
524
330
75
100
AcDbEntity
  8
HALLE_0_1_EG
  6
Continuous
100
AcDbLine
 10
-17.70874141998009
 20
-28.073425489736
 30
0.0
 11
-16.45874141998008
 21
-28.07342548973601
 31
0.0
  0
LINE
  5
525
330
75
100
AcDbEntity
  8
GRUNDRISS
  6
Continuous
100
AcDbLine
 10
-16.44290965194264
 20
5.22164517015291
 30
0.0
 11
-16.44290965194264
 21
3.903303619685834
 31
0.0
  0
LINE
  5
526
330
75
100
AcDbEntity
  8
GRUNDRISS
  6
Continuous
100
AcDbLine
 10
-16.44290965194264
 20
3.903303619685834
 30
0.0
 11
-16.50012484393896
 21
3.999506922018057
 31
0.0
  0
LINE
  5
527
330
75
100
AcDbEntity
  8
GRUNDRISS
  6
Continuous
100
AcDbLine
 10
-16.44290965194264
 20
3.903303619685834
 30
0.0
 11
-16.38569445994663
 21
3.999506922018057
 31
0.0
  0
LINE
  5
528
330
75
100
AcDbEntity
  8
GRUNDRISS
  6
Continuous
100
AcDbLine
 10
-16.38569445994663
 20
3.999506922018057
 30
0.0
 11
-16.50012484393896
 21
3.999506922018057
 31
0.0
  0
LINE
  5
529
330
75
100
AcDbEntity
  8
GRUNDRISS
  6
Continuous
100
AcDbLine
 10
-15.64022340719948
 20
13.15650096682975
 30
0.0
 11
-14.3218818567324
 21
13.15650096682975
 31
0.0
  0
LINE
  5
52A
330
75
100
AcDbEntity
  8
GRUNDRISS
  6
Continuous
100
AcDbLine
 10
-14.3218818567324
 20
13.15650096682975
 30
0.0
 11
-14.41808515906463
 21
13.09928577483343
 31
0.0
  0
LINE
  5
52B
330
75
100
AcDbEntity
  8
GRUNDRISS
  6
Continuous
100
AcDbLine
 10
-14.3218818567324
 20
13.15650096682975
 30
0.0
 11
-14.41808515906463
 21
13.21371615882576
 31
0.0
  0
LINE
  5
52C
330
75
100
AcDbEntity
  8
GRUNDRISS
  6
Continuous
100
AcDbLine
 10
-14.41808515906463
 20
13.21371615882576
 30
0.0
 11
-14.41808515906463
 21
13.09928577483343
 31
0.0
  0
LINE
  5
52D
330
75
100
AcDbEntity
  8
GRUNDRISS
  6
Continuous
100
AcDbLine
 10
-16.3576611988383
 20
18.67378577510557
 30
0.0
 11
-16.3576611988383
 21
19.99212732557264
 31
0.0
  0
LINE
  5
52E
330
75
100
AcDbEntity
  8
GRUNDRISS
  6
Continuous
100
AcDbLine
 10
-16.3576611988383
 20
19.99212732557264
 30
0.0
 11
-16.30044600684198
 21
19.89592402324042
 31
0.0
  0
LINE
  5
52F
330
75
100
AcDbEntity
  8
GRUNDRISS
  6
Continuous
100
AcDbLine
 10
-16.3576611988383
 20
19.99212732557264
 30
0.0
 11
-16.41487639083431
 21
19.89592402324042
 31
0.0
  0
LINE
  5
530
330
75
100
AcDbEntity
  8
GRUNDRISS
  6
Continuous
100
AcDbLine
 10
-16.41487639083431
 20
19.89592402324042
 30
0.0
 11
-16.30044600684198
 21
19.89592402324042
 31
0.0
  0
LINE
  5
531
330
75
100
AcDbEntity
  8
GRUNDRISS
  6
Continuous
100
AcDbLine
 10
-16.357661198838
 20
18.05905663412338
 30
0.0
 11
-16.357661198838
 21
16.74071508365631
 31
0.0
  0
LINE
  5
532
330
75
100
AcDbEntity
  8
GRUNDRISS
  6
Continuous
100
AcDbLine
 10
-16.357661198838
 20
16.74071508365631
 30
0.0
 11
-16.41487639083431
 21
16.83691838598853
 31
0.0
  0
LINE
  5
533
330
75
100
AcDbEntity
  8
GRUNDRISS
  6
Continuous
100
AcDbLine
 10
-16.357661198838
 20
16.74071508365631
 30
0.0
 11
-16.30044600684198
 21
16.83691838598853
 31
0.0
  0
LINE
  5
534
330
75
100
AcDbEntity
  8
GRUNDRISS
  6
Continuous
100
AcDbLine
 10
-16.30044600684198
 20
16.83691838598853
 30
0.0
 11
-16.41487639083431
 21
16.83691838598853
 31
0.0
  0
LINE
  5
535
330
75
100
AcDbEntity
  8
GRUNDRISS
  6
Continuous
100
AcDbLine
 10
-14.66198421008836
 20
27.22646911969671
 30
0.0
 11
-13.34364265962128
 21
27.22646911969671
 31
0.0
  0
LINE
  5
536
330
75
100
AcDbEntity
  8
GRUNDRISS
  6
Continuous
100
AcDbLine
 10
-13.34364265962128
 20
27.22646911969671
 30
0.0
 11
-13.4398459619535
 21
27.16925392770039
 31
0.0
  0
LINE
  5
537
330
75
100
AcDbEntity
  8
GRUNDRISS
  6
Continuous
100
AcDbLine
 10
-13.34364265962128
 20
27.22646911969671
 30
0.0
 11
-13.4398459619535
 21
27.28368431169272
 31
0.0
  0
LINE
  5
538
330
75
100
AcDbEntity
  8
GRUNDRISS
  6
Continuous
100
AcDbLine
 10
-13.4398459619535
 20
27.28368431169272
 30
0.0
 11
-13.4398459619535
 21
27.16925392770039
 31
0.0
  0
TEXT
  5
53A
330
75
100
AcDbEntity
  8
HALLE_0_1_EG
  6
Continuous
 62
     9
100
AcDbText
 10
8.257579333266757
 20
-29.18536854575745
 30
0.0
 40
1.6
  1
59.4000 m
  7
ARIAL
 72
     1
 11
13.53888901948777
 21
-28.38536854575745
 31
0.0
100
AcDbText
 73
     2
  0
LINE
  5
53C
330
75
100
AcDbEntity
  8
HALLE_0_1_EG
  6
Continuous
 62
     9
100
AcDbLine
 10
-16.16111098051223
 20
-31.58536854575739
 30
0.0
 11
-16.16111098051223
 21
-27.18536854575744
 31
0.0
  0
LINE
  5
53D
330
75
100
AcDbEntity
  8
HALLE_0_1_EG
  6
Continuous
 62
     9
100
AcDbLine
 10
43.23888901948779
 20
-31.58536854575739
 30
0.0
 11
43.23888901948779
 21
-27.18536854575744
 31
0.0
  0
LINE
  5
53E
330
75
100
AcDbEntity
  8
HALLE_0_1_EG
  6
Continuous
 62
     9
100
AcDbLine
 10
-16.16111098051223
 20
-28.38536854575745
 30
0.0
 11
6.426916924761212
 21
-28.38536854575745
 31
0.0
  0
LINE
  5
53F
330
75
100
AcDbEntity
  8
HALLE_0_1_EG
  6
Continuous
 62
     9
100
AcDbLine
 10
43.23888901948779
 20
-28.38536854575745
 30
0.0
 11
20.65086111421433
 21
-28.38536854575745
 31
0.0
  0
INSERT
  5
545
330
75
100
AcDbEntity
  8
HALLE_0_1_EG
  6
Continuous
 62
     9
100
AcDbBlockReference
  2
LONGARROW
 10
-16.16111098051223
 20
-28.38536854575745
 30
0.0
 41
31.49606299212599
 42
31.49606299212599
  0
INSERT
  5
546
330
75
100
AcDbEntity
  8
HALLE_0_1_EG
  6
Continuous
 62
     9
100
AcDbBlockReference
  2
LONGARROW
 10
43.23888901948779
 20
-28.38536854575745
 30
0.0
 41
31.49606299212599
 42
31.49606299212599
 50
180.0
  0
TEXT
  5
547
330
75
100
AcDbEntity
  8
HALLE_0_1_EG
  6
Continuous
 62
     9
100
AcDbText
 10
-5.685986701119476
 20
-16.14742556012375
 30
0.0
 40
1.6
  1
6.6400 m
  7
ARIAL
 72
     1
 11
-1.026232267285914
 21
-15.34742556012375
 31
0.0
100
AcDbText
 73
     2
  0
LINE
  5
548
330
75
100
AcDbEntity
  8
HALLE_0_1_EG
  6
Continuous
 62
     9
100
AcDbLine
 10
-16.34111098051223
 20
-18.54742556012374
 30
0.0
 11
-16.34111098051223
 21
-14.14742556012375
 31
0.0
  0
LINE
  5
549
330
75
100
AcDbEntity
  8
HALLE_0_1_EG
  6
Continuous
 62
     9
100
AcDbLine
 10
-9.701110980512234
 20
-18.54742556012374
 30
0.0
 11
-9.701110980512234
 21
-14.14742556012375
 31
0.0
  0
LINE
  5
54A
330
75
100
AcDbEntity
  8
HALLE_0_1_EG
  6
Continuous
 62
     9
100
AcDbLine
 10
-16.34111098051223
 20
-15.34742556012375
 30
0.0
 11
-18.74111098051223
 21
-15.34742556012375
 31
0.0
  0
LINE
  5
54B
330
75
100
AcDbEntity
  8
HALLE_0_1_EG
  6
Continuous
 62
     9
100
AcDbLine
 10
-9.701110980512234
 20
-15.34742556012375
 30
0.0
 11
-7.301110980512231
 21
-15.34742556012375
 31
0.0
  0
INSERT
  5
54C
330
75
100
AcDbEntity
  8
HALLE_0_1_EG
  6
Continuous
 62
     9
100
AcDbBlockReference
  2
LONGARROW
 10
-16.34111098051223
 20
-15.34742556012375
 30
0.0
 41
31.49606299212599
 42
31.49606299212599
 50
180.0
  0
INSERT
  5
54D
330
75
100
AcDbEntity
  8
HALLE_0_1_EG
  6
Continuous
 62
     9
100
AcDbBlockReference
  2
LONGARROW
 10
-9.701110980512234
 20
-15.34742556012375
 30
0.0
 41
31.49606299212599
 42
31.49606299212599
  0
TEXT
  5
54E
330
75
100
AcDbEntity
  8
HALLE_0_1_EG
  6
Continuous
 62
     9
100
AcDbText
 10
28.19757933326678
 20
-9.485368545757422
 30
0.0
 40
1.6
  1
19.8800 m
  7
ARIAL
 72
     1
 11
33.47888901948779
 21
-8.685368545757421
 31
0.0
100
AcDbText
 73
     2
  0
LINE
  5
54F
330
75
100
AcDbEntity
  8
HALLE_0_1_EG
  6
Continuous
 62
     9
100
AcDbLine
 10
23.53888901948777
 20
-11.8853685457574
 30
0.0
 11
23.53888901948777
 21
-7.485368545757424
 31
0.0
  0
LINE
  5
550
330
75
100
AcDbEntity
  8
HALLE_0_1_EG
  6
Continuous
 62
     9
100
AcDbLine
 10
43.41888901948779
 20
-11.8853685457574
 30
0.0
 11
43.41888901948779
 21
-7.485368545757424
 31
0.0
  0
LINE
  5
551
330
75
100
AcDbEntity
  8
HALLE_0_1_EG
  6
Continuous
 62
     9
100
AcDbLine
 10
23.53888901948777
 20
-8.685368545757421
 30
0.0
 11
26.36691692476123
 21
-8.685368545757421
 31
0.0
  0
LINE
  5
552
330
75
100
AcDbEntity
  8
HALLE_0_1_EG
  6
Continuous
 62
     9
100
AcDbLine
 10
43.41888901948779
 20
-8.685368545757421
 30
0.0
 11
40.59086111421435
 21
-8.685368545757421
 31
0.0
  0
INSERT
  5
553
330
75
100
AcDbEntity
  8
HALLE_0_1_EG
  6
Continuous
 62
     9
100
AcDbBlockReference
  2
LONGARROW
 10
23.53888901948777
 20
-8.685368545757421
 30
0.0
 41
31.49606299212599
 42
31.49606299212599
  0
INSERT
  5
554
330
75
100
AcDbEntity
  8
HALLE_0_1_EG
  6
Continuous
 62
     9
100
AcDbBlockReference
  2
LONGARROW
 10
43.41888901948779
 20
-8.685368545757421
 30
0.0
 41
31.49606299212599
 42
31.49606299212599
 50
180.0
  0
TEXT
  5
555
330
75
100
AcDbEntity
  8
HALLE_0_1_EG
  6
Continuous
 62
     9
100
AcDbText
 10
-1.59242066673323
 20
-9.485368545757443
 30
0.0
 40
1.6
  1
39.7000 m
  7
ARIAL
 72
     1
 11
3.688889019487779
 21
-8.685368545757443
 31
0.0
100
AcDbText
 73
     2
  0
LINE
  5
556
330
75
100
AcDbEntity
  8
HALLE_0_1_EG
  6
Continuous
 62
     9
100
AcDbLine
 10
-16.16111098051222
 20
-14.38536854575739
 30
0.0
 11
-16.16111098051222
 21
-7.485368545757441
 31
0.0
  0
LINE
  5
557
330
75
100
AcDbEntity
  8
HALLE_0_1_EG
  6
Continuous
 62
     9
100
AcDbLine
 10
23.53888901948777
 20
-11.8853685457574
 30
0.0
 11
23.53888901948777
 21
-7.485368545757441
 31
0.0
  0
LINE
  5
558
330
75
100
AcDbEntity
  8
HALLE_0_1_EG
  6
Continuous
 62
     9
100
AcDbLine
 10
-16.16111098051222
 20
-8.685368545757443
 30
0.0
 11
-3.423083075238785
 21
-8.685368545757443
 31
0.0
  0
LINE
  5
559
330
75
100
AcDbEntity
  8
HALLE_0_1_EG
  6
Continuous
 62
     9
100
AcDbLine
 10
23.53888901948777
 20
-8.685368545757443
 30
0.0
 11
10.80086111421433
 21
-8.685368545757443
 31
0.0
  0
INSERT
  5
55A
330
75
100
AcDbEntity
  8
HALLE_0_1_EG
  6
Continuous
 62
     9
100
AcDbBlockReference
  2
LONGARROW
 10
-16.16111098051222
 20
-8.685368545757443
 30
0.0
 41
31.49606299212599
 42
31.49606299212599
  0
INSERT
  5
55B
330
75
100
AcDbEntity
  8
HALLE_0_1_EG
  6
Continuous
 62
     9
100
AcDbBlockReference
  2
LONGARROW
 10
23.53888901948777
 20
-8.685368545757443
 30
0.0
 41
31.49606299212599
 42
31.49606299212599
 50
180.0
  0
TEXT
  5
55C
330
75
100
AcDbEntity
  8
HALLE_0_1_EG
  6
Continuous
 62
     9
100
AcDbText
 10
41.95757933326681
 20
-13.4853685457574
 30
0.0
 40
1.6
  1
39.4000 m
  7
ARIAL
 72
     1
 11
47.23888901948781
 21
-12.6853685457574
 31
0.0
100
AcDbText
 73
     2
  0
LINE
  5
55D
330
75
100
AcDbEntity
  8
HALLE_0_1_EG
  6
Continuous
 62
     9
100
AcDbLine
 10
44.03888901948779
 20
7.014631454242596
 30
0.0
 11
48.4388890194878
 21
7.014631454242596
 31
0.0
  0
LINE
  5
55E
330
75
100
AcDbEntity
  8
HALLE_0_1_EG
  6
Continuous
 62
     9
100
AcDbLine
 10
44.03888901948779
 20
-32.3853685457574
 30
0.0
 11
48.43888901948784
 21
-32.3853685457574
 31
0.0
  0
LINE
  5
55F
330
75
100
AcDbEntity
  8
HALLE_0_1_EG
  6
Continuous
 62
     9
100
AcDbLine
 10
47.23888901948779
 20
7.014631454242596
 30
0.0
 11
47.23888901948781
 21
-11.48536854575739
 31
0.0
  0
LINE
  5
560
330
75
100
AcDbEntity
  8
HALLE_0_1_EG
  6
Continuous
 62
     9
100
AcDbLine
 10
47.23888901948783
 20
-32.3853685457574
 30
0.0
 11
47.23888901948782
 21
-13.8853685457574
 31
0.0
  0
INSERT
  5
561
330
75
100
AcDbEntity
  8
HALLE_0_1_EG
  6
Continuous
 62
     9
100
AcDbBlockReference
  2
LONGARROW
 10
47.23888901948779
 20
7.014631454242596
 30
0.0
 41
31.49606299212599
 42
31.49606299212599
 50
270.0000000000001
  0
INSERT
  5
562
330
75
100
AcDbEntity
  8
HALLE_0_1_EG
  6
Continuous
 62
     9
100
AcDbBlockReference
  2
LONGARROW
 10
47.23888901948783
 20
-32.3853685457574
 30
0.0
 41
31.49606299212599
 42
31.49606299212599
 50
90.00000000000005
  0
TEXT
  5
563
330
75
100
AcDbEntity
  8
HALLE_0_1_EG
  6
Continuous
 62
     9
100
AcDbText
 10
42.07957933326674
 20
16.3546314542426
 30
0.0
 40
1.6
  1
19.6800 m
  7
ARIAL
 72
     1
 11
47.36088901948774
 21
17.1546314542426
 31
0.0
100
AcDbText
 73
     2
  0
LINE
  5
564
330
75
100
AcDbEntity
  8
HALLE_0_1_EG
  6
Continuous
 62
     9
100
AcDbLine
 10
44.01888901948779
 20
26.9946314542426
 30
0.0
 11
48.56088901948774
 21
26.9946314542426
 31
0.0
  0
LINE
  5
565
330
75
100
AcDbEntity
  8
HALLE_0_1_EG
  6
Continuous
 62
     9
100
AcDbLine
 10
44.16088901948779
 20
7.314631454242597
 30
0.0
 11
48.56088901948776
 21
7.314631454242597
 31
0.0
  0
LINE
  5
566
330
75
100
AcDbEntity
  8
HALLE_0_1_EG
  6
Continuous
 62
     9
100
AcDbLine
 10
47.36088901948774
 20
26.9946314542426
 30
0.0
 11
47.36088901948774
 21
18.3546314542426
 31
0.0
  0
LINE
  5
567
330
75
100
AcDbEntity
  8
HALLE_0_1_EG
  6
Continuous
 62
     9
100
AcDbLine
 10
47.36088901948776
 20
7.314631454242597
 30
0.0
 11
47.36088901948774
 21
15.95463145424259
 31
0.0
  0
INSERT
  5
568
330
75
100
AcDbEntity
  8
HALLE_0_1_EG
  6
Continuous
 62
     9
100
AcDbBlockReference
  2
LONGARROW
 10
47.36088901948774
 20
26.9946314542426
 30
0.0
 41
31.49606299212599
 42
31.49606299212599
 50
270.0000000000001
  0
INSERT
  5
569
330
75
100
AcDbEntity
  8
HALLE_0_1_EG
  6
Continuous
 62
     9
100
AcDbBlockReference
  2
LONGARROW
 10
47.36088901948776
 20
7.314631454242597
 30
0.0
 41
31.49606299212599
 42
31.49606299212599
 50
90.00000000000005
  0
TEXT
  5
56A
330
75
100
AcDbEntity
  8
HALLE_0_1_EG
  6
Continuous
 62
     9
100
AcDbText
 10
2.963134585654219
 20
2.914631454242603
 30
0.0
 40
1.6
  1
2.0000 m
  7
ARIAL
 72
     1
 11
7.62288901948778
 21
3.714631454242603
 31
0.0
100
AcDbText
 73
     2
  0
LINE
  5
56B
330
75
100
AcDbEntity
  8
HALLE_0_1_EG
  6
Continuous
 62
     9
100
AcDbLine
 10
4.422889019487779
 20
9.314631454242599
 30
0.0
 11
8.822889019487773
 21
9.314631454242599
 31
0.0
  0
LINE
  5
56C
330
75
100
AcDbEntity
  8
HALLE_0_1_EG
  6
Continuous
 62
     9
100
AcDbLine
 10
4.422889019487779
 20
7.314631454242602
 30
0.0
 11
8.822889019487778
 21
7.314631454242602
 31
0.0
  0
LINE
  5
56D
330
75
100
AcDbEntity
  8
HALLE_0_1_EG
  6
Continuous
 62
     9
100
AcDbLine
 10
7.622889019487774
 20
9.314631454242599
 30
0.0
 11
7.622889019487772
 21
11.7146314542426
 31
0.0
  0
LINE
  5
56E
330
75
100
AcDbEntity
  8
HALLE_0_1_EG
  6
Continuous
 62
     9
100
AcDbLine
 10
7.622889019487777
 20
7.314631454242602
 30
0.0
 11
7.62288901948778
 21
4.914631454242604
 31
0.0
  0
INSERT
  5
56F
330
75
100
AcDbEntity
  8
HALLE_0_1_EG
  6
Continuous
 62
     9
100
AcDbBlockReference
  2
LONGARROW
 10
7.622889019487774
 20
9.314631454242599
 30
0.0
 41
31.49606299212599
 42
31.49606299212599
 50
90.00000000000005
  0
INSERT
  5
570
330
75
100
AcDbEntity
  8
HALLE_0_1_EG
  6
Continuous
 62
     9
100
AcDbBlockReference
  2
LONGARROW
 10
7.622889019487777
 20
7.314631454242602
 30
0.0
 41
31.49606299212599
 42
31.49606299212599
 50
270.0000000000001
  0
LINE
  5
571
330
75
100
AcDbEntity
  8
HALLE_0_1_EG
  6
Continuous
100
AcDbLine
 10
36.77888901948778
 20
-34.68536854575739
 30
0.0
 11
36.77888901948779
 21
7.3146314542426
 31
0.0
  0
LINE
  5
572
330
75
100
AcDbEntity
  8
HALLE_0_1_EG
  6
Continuous
100
AcDbLine
 10
30.13888901948778
 20
-34.68536854575739
 30
0.0
 11
30.13888901948779
 21
7.3146314542426
 31
0.0
  0
LINE
  5
573
330
75
100
AcDbEntity
  8
HALLE_0_1_EG
  6
Continuous
100
AcDbLine
 10
23.49888901948777
 20
-34.68536854575739
 30
0.0
 11
23.49888901948777
 21
7.3146314542426
 31
0.0
  0
LINE
  5
574
330
75
100
AcDbEntity
  8
HALLE_0_1_EG
  6
Continuous
100
AcDbLine
 10
16.85888901948777
 20
-34.68536854575739
 30
0.0
 11
16.85888901948777
 21
7.3146314542426
 31
0.0
  0
LINE
  5
575
330
75
100
AcDbEntity
  8
HALLE_0_1_EG
  6
Continuous
100
AcDbLine
 10
10.21888901948777
 20
-34.68536854575739
 30
0.0
 11
10.21888901948777
 21
7.314631454242602
 31
0.0
  0
LINE
  5
576
330
75
100
AcDbEntity
  8
HALLE_0_1_EG
  6
Continuous
100
AcDbLine
 10
3.578889019487777
 20
-34.68536854575739
 30
0.0
 11
3.578889019487783
 21
7.314631454242602
 31
0.0
  0
LINE
  5
577
330
75
100
AcDbEntity
  8
HALLE_0_1_EG
  6
Continuous
100
AcDbLine
 10
-3.061110980512229
 20
-34.68536854575739
 30
0.0
 11
-3.061110980512223
 21
7.314631454242602
 31
0.0
  0
LINE
  5
578
330
75
100
AcDbEntity
  8
HALLE_0_1_EG
  6
Continuous
100
AcDbLine
 10
-9.701110980512229
 20
-34.68536854575739
 30
0.0
 11
-9.701110980512224
 21
7.314631454242605
 31
0.0
  0
LINE
  5
579
330
75
100
AcDbEntity
  8
HALLE_0_1_EG
  6
Continuous
100
AcDbLine
 10
46.0388890194878
 20
18.31463145424259
 30
0.0
 11
-18.96111098051221
 21
18.3146314542426
 31
0.0
  0
LINE
  5
57A
330
75
100
AcDbEntity
  8
HALLE_0_1_EG
  6
Continuous
100
AcDbLine
 10
46.03888901948779
 20
-12.6853685457574
 30
0.0
 11
-18.96111098051222
 21
-12.68536854575739
 31
0.0
  0
LINE
  5
57B
330
75
100
AcDbEntity
  8
HALLE_0_1_EG
  6
Continuous
100
AcDbLine
 10
30.06688901948779
 20
7.3146314542426
 30
0.0
 11
30.06688901948779
 21
29.31463145424261
 31
0.0
  0
LINE
  5
57C
330
75
100
AcDbEntity
  8
HALLE_0_1_EG
  6
Continuous
100
AcDbLine
 10
23.45588901948777
 20
7.3146314542426
 30
0.0
 11
23.45588901948778
 21
29.31463145424261
 31
0.0
  0
LINE
  5
57D
330
75
100
AcDbEntity
  8
HALLE_0_1_EG
  6
Continuous
100
AcDbLine
 10
16.84488901948777
 20
7.3146314542426
 30
0.0
 11
16.84488901948778
 21
29.31463145424261
 31
0.0
  0
LINE
  5
57E
330
75
100
AcDbEntity
  8
HALLE_0_1_EG
  6
Continuous
100
AcDbLine
 10
10.23388901948777
 20
7.314631454242602
 30
0.0
 11
10.23388901948778
 21
29.31463145424261
 31
0.0
  0
LINE
  5
57F
330
75
100
AcDbEntity
  8
HALLE_0_1_EG
  6
Continuous
100
AcDbLine
 10
3.622889019487779
 20
7.314631454242602
 30
0.0
 11
3.622889019487782
 21
29.31463145424261
 31
0.0
  0
LINE
  5
580
330
75
100
AcDbEntity
  8
HALLE_0_1_EG
  6
Continuous
100
AcDbLine
 10
-2.988110980512222
 20
7.314631454242602
 30
0.0
 11
-2.988110980512217
 21
29.31463145424261
 31
0.0
  0
LINE
  5
581
330
75
100
AcDbEntity
  8
HALLE_0_1_EG
  6
Continuous
100
AcDbLine
 10
-9.599110980512223
 20
7.314631454242605
 30
0.0
 11
-9.599110980512218
 21
29.31463145424261
 31
0.0
  0
LINE
  5
582
330
75
100
AcDbEntity
  8
HALLE_0_1_EG
  6
Continuous
100
AcDbLine
 10
4.765572013513077
 20
-64.71980417642604
 30
0.0
 11
14.76557201351308
 21
-64.71980417642604
 31
0.0
  0
TEXT
  5
583
330
75
100
AcDbEntity
  8
HALLE_0_1_EG
  6
Continuous
100
AcDbText
 10
6.955419013476388
 20
-64.38659452143454
 30
0.0
 40
1.060169070297516
  1
10 Meter
  7
ARIAL
100
AcDbText
  0
TEXT
  5
584
330
75
100
AcDbEntity
  8
HALLE_0_1_EG
  6
Continuous
100
AcDbText
 10
17.9160922971922
 20
-64.28311053508507
 30
0.0
 40
0.5762394013163214
  1
Massstab 1:400
  7
ARIAL
100
AcDbText
  0
TEXT
  5
585
330
75
100
AcDbEntity
  8
HALLE_0_1_EG
  6
Continuous
100
AcDbText
 10
25.84537592977507
 20
-64.32765167126419
 30
0.0
 40
0.5762394013163214
  1
Thun, 
  7
ARIAL
100
AcDbText
  0
TEXT
  5
586
330
75
100
AcDbEntity
  8
HALLE_0_1_EG
  6
Continuous
100
AcDbText
 10
17.72697544813018
 20
-61.94313874856986
 30
0.0
 40
0.6838533280772134
  1
Grundriss EG H0 + H1
 41
1.455317093181939
  7
ARIAL
100
AcDbText
  0
TEXT
  5
587
330
75
100
AcDbEntity
  8
HALLE_0_1_EG
  6
Continuous
100
AcDbText
 10
17.72697544813018
 20
-62.96891874068568
 30
0.0
 40
0.6838533280772134
  1
mit Träger
 41
1.455317093181939
  7
ARIAL
100
AcDbText
  0
LWPOLYLINE
  5
588
330
75
100
AcDbEntity
  8
HALLE_0_1_EG
  6
Continuous
100
AcDbPolyline
 90
        4
 70
     1
 43
0.0
 10
17.20720627410776
 20
-57.02757884758914
 10
42.24291430185711
 20
-57.02757884758914
 10
42.24291430185711
 20
-64.77993516937755
 10
17.20720627410776
 20
-64.77993516937755
  0
LINE
  5
589
330
75
100
AcDbEntity
  8
HALLE_0_1_EG
  6
Continuous
100
AcDbLine
 10
33.04102838417565
 20
-57.03711028119545
 30
0.0
 11
33.04102838417565
 21
-64.78946660298387
 31
0.0
  0
LINE
  5
58A
330
75
100
AcDbEntity
  8
HALLE_0_1_EG
  6
Continuous
100
AcDbLine
 10
17.20720627410776
 20
-61.02513006483798
 30
0.0
 11
33.04102838417565
 21
-61.02513006483798
 31
0.0
  0
LINE
  5
58B
330
75
100
AcDbEntity
  8
HALLE_0_1_EG
  6
Continuous
100
AcDbLine
 10
17.20720627410776
 20
-63.17095555542149
 30
0.0
 11
33.04102838417565
 21
-63.17095555542149
 31
0.0
  0
LINE
  5
58C
330
75
100
AcDbEntity
  8
HALLE_0_1_EG
  6
Continuous
100
AcDbLine
 10
25.21062197124692
 20
-63.18974729965013
 30
0.0
 11
25.21062197124692
 21
-64.7643955140369
 31
0.0
  0
TEXT
  5
58D
330
75
100
AcDbEntity
  8
HALLE_0_1_EG
  6
Continuous
100
AcDbText
 10
33.761650703641
 20
-58.1904006513025
 30
0.0
 40
0.5762394013163214
  1
Thun-Expo
  7
ARIAL
100
AcDbText
  0
TEXT
  5
58E
330
75
100
AcDbEntity
  8
HALLE_0_1_EG
  6
Continuous
100
AcDbText
 10
33.761650703641
 20
-59.05475975327698
 30
0.0
 40
0.5762394013163214
  1
Mittlere Strasse 27
  7
ARIAL
100
AcDbText
  0
TEXT
  5
58F
330
75
100
AcDbEntity
  8
HALLE_0_1_EG
  6
Continuous
100
AcDbText
 10
33.761650703641
 20
-59.91911885525145
 30
0.0
 40
0.5762394013163214
  1
Postfach 879
  7
ARIAL
100
AcDbText
  0
TEXT
  5
590
330
75
100
AcDbEntity
  8
HALLE_0_1_EG
  6
Continuous
100
AcDbText
 10
33.761650703641
 20
-60.78347795722593
 30
0.0
 40
0.5762394013163214
  1
3607 Thun
  7
ARIAL
100
AcDbText
  0
TEXT
  5
591
330
75
100
AcDbEntity
  8
HALLE_0_1_EG
  6
Continuous
100
AcDbText
 10
33.75579024360756
 20
-62.59347295229421
 30
0.0
 40
0.5762394013163215
  1
Fon  +41 33 225 11 20
  7
ARIAL
100
AcDbText
  0
TEXT
  5
592
330
75
100
AcDbEntity
  8
HALLE_0_1_EG
  6
Continuous
100
AcDbText
 10
33.75579024360756
 20
-63.45783205426869
 30
0.0
 40
0.5762394013163215
  1
Fax  +41 33 225 11 28
  7
ARIAL
100
AcDbText
  0
TEXT
  5
593
330
75
100
AcDbEntity
  8
HALLE_0_1_EG
  6
Continuous
100
AcDbText
 10
33.75579024360756
 20
-64.32219115624317
 30
0.0
 40
0.5762394013163215
  1
Mail  info@thun-expo.ch
  7
ARIAL
100
AcDbText
  0
LINE
  5
594
330
75
100
AcDbEntity
  8
HALLE_0_1_EG
  6
Continuous
100
AcDbLine
 10
32.77511287360676
 20
27.0363875499583
 30
0.0
 11
32.615241946733
 21
27.0363875499583
 31
0.0
  0
LINE
  5
595
330
75
100
AcDbEntity
  8
HALLE_0_1_EG
  6
Continuous
100
AcDbLine
 10
32.46524194673301
 20
27.0363875499583
 30
0.0
 11
8.931112873606567
 21
27.0363875499583
 31
0.0
  0
LINE
  5
596
330
75
100
AcDbEntity
  8
UMRISS10
 62
     7
100
AcDbLine
 10
32.46524194673302
 20
25.38409869518002
 30
0.000000000254
 11
32.46524194673301
 21
27.0363875499583
 31
0.0
  0
LINE
  5
597
330
75
100
AcDbEntity
  8
UMRISS10
 62
     7
100
AcDbLine
 10
32.61524194673302
 20
25.54813073679451
 30
0.000000000254
 11
32.615241946733
 21
27.0363875499583
 31
0.0
  0
LINE
  5
598
330
75
100
AcDbEntity
  8
UMRISS10
 62
     7
100
AcDbLine
 10
32.61524194673302
 20
25.54813073679451
 30
0.000000000254
 11
36.57970235438053
 21
25.54813073679453
 31
0.000000000254
  0
LINE
  5
599
330
75
100
AcDbEntity
  8
UMRISS10
 62
     7
100
AcDbLine
 10
32.75695699959856
 20
25.38409869518002
 30
0.000000000254
 11
32.75695699959856
 21
25.54813073679451
 31
0.000000000254
  0
LINE
  5
59A
330
75
100
AcDbEntity
  8
MOEBEL
 62
     7
100
AcDbLine
 10
32.80695699959857
 20
25.55503466129393
 30
0.000000000254
 11
32.80695699959857
 21
26.55002209840054
 31
0.000000000254
  0
ARC
  5
59B
330
75
100
AcDbEntity
  8
MOEBEL
 62
     7
100
AcDbCircle
 10
32.90695699959857
 20
25.55503466129393
 30
0.000000000254
 40
0.9999999999999998
100
AcDbArc
 50
0.000000000000007
 51
95.73917047726679
  0
LINE
  5
59C
330
75
100
AcDbEntity
  8
UMRISS10
 62
     7
100
AcDbLine
 10
33.95695699959857
 20
25.38409869518002
 30
0.000000000254
 11
33.95695699959857
 21
25.54813073679452
 31
0.000000000254
  0
LINE
  5
59D
330
75
100
AcDbEntity
  8
UMRISS10
 62
     7
100
AcDbLine
 10
32.46524194673302
 20
25.38409869518002
 30
0.000000000254
 11
36.42970235438053
 21
25.38409869518002
 31
0.000000000254
  0
LINE
  5
59E
330
75
100
AcDbEntity
  8
UMRISS10
 62
     7
100
AcDbLine
 10
36.42970235438055
 20
23.046968158266
 30
0.000000000254
 11
36.42970235438053
 21
25.38409869518002
 31
0.000000000254
  0
LINE
  5
59F
330
75
100
AcDbEntity
  8
UMRISS10
 62
     7
100
AcDbLine
 10
36.57970235438055
 20
23.21100019988051
 30
0.000000000254
 11
36.57970235438053
 21
25.54813073679453
 31
0.000000000254
  0
LINE
  5
5A0
330
75
100
AcDbEntity
  8
UMRISS10
 62
     7
100
AcDbLine
 10
36.57970235438055
 20
23.21100019988051
 30
0.000000000254
 11
38.16161287360676
 21
23.21100019988051
 31
0.0
  0
LINE
  5
5A1
330
75
100
AcDbEntity
  8
UMRISS10
 62
     7
100
AcDbLine
 10
36.42970235438055
 20
23.046968158266
 30
0.000000000254
 11
38.84569954404836
 21
23.046968158266
 31
0.000000000254
  0
ENDSEC
  0
SECTION
  2
OBJECTS
  0
DICTIONARY
  5
C
330
0
100
AcDbDictionary
281
     1
  3
ACAD_COLOR
350
6B
  3
ACAD_GROUP
350
D
  3
ACAD_LAYOUT
350
6A
  3
ACAD_MATERIAL
350
10
  3
ACAD_MLEADERSTYLE
350
6E
  3
ACAD_MLINESTYLE
350
67
  3
ACAD_PLOTSETTINGS
350
69
  3
ACAD_PLOTSTYLENAME
350
E
  3
ACAD_SCALELIST
350
3A
  3
ACAD_TABLESTYLE
350
6C
  3
ACAD_VISUALSTYLE
350
29
  3
ACDB_RECOMPOSE_DATA
350
5A8
  3
AcDbVariableDictionary
350
5A2
  0
DICTIONARY
  5
6B
102
{ACAD_REACTORS
330
C
102
}
330
C
100
AcDbDictionary
281
     1
  0
DICTIONARY
  5
D
102
{ACAD_REACTORS
330
C
102
}
330
C
100
AcDbDictionary
281
     1
  0
DICTIONARY
  5
6A
102
{ACAD_REACTORS
330
C
102
}
330
C
100
AcDbDictionary
281
     1
  3
Layout1
350
74
  3
Layout2
350
7C
  3
Model
350
78
  0
DICTIONARY
  5
10
102
{ACAD_REACTORS
330
C
102
}
330
C
100
AcDbDictionary
281
     1
  3
ByBlock
350
19
  3
ByLayer
350
11
  3
Global
350
21
  0
DICTIONARY
  5
6E
102
{ACAD_REACTORS
330
C
102
}
330
C
100
AcDbDictionary
281
     1
  3
Standard
350
6F
  0
DICTIONARY
  5
67
102
{ACAD_REACTORS
330
C
102
}
330
C
100
AcDbDictionary
281
     1
  3
Standard
350
68
  0
DICTIONARY
  5
69
102
{ACAD_REACTORS
330
C
102
}
330
C
100
AcDbDictionary
281
     1
  0
ACDBDICTIONARYWDFLT
  5
E
102
{ACAD_REACTORS
330
C
102
}
330
C
100
AcDbDictionary
281
     1
  3
Normal
350
F
100
AcDbDictionaryWithDefault
340
F
  0
DICTIONARY
  5
3A
102
{ACAD_REACTORS
330
C
102
}
330
C
100
AcDbDictionary
281
     1
  3
A0
350
3B
  3
A1
350
3C
  3
A2
350
3D
  3
A3
350
3E
  3
A4
350
3F
  3
A5
350
40
  3
A6
350
41
  3
A7
350
42
  3
A8
350
43
  3
A9
350
44
  3
B0
350
45
  3
B1
350
46
  3
B2
350
47
  3
B3
350
48
  3
B4
350
49
  3
B5
350
4A
  3
B6
350
4B
  3
B7
350
4C
  3
B8
350
4D
  3
B9
350
4E
  3
C0
350
4F
  3
C1
350
50
  3
C2
350
51
  3
C3
350
52
  3
C4
350
53
  3
C5
350
54
  3
C6
350
55
  3
C7
350
56
  3
C8
350
57
  3
C9
350
58
  3
D0
350
59
  3
D1
350
5A
  3
D2
350
5B
  0
DICTIONARY
  5
6C
102
{ACAD_REACTORS
330
C
102
}
330
C
100
AcDbDictionary
281
     1
  3
Standard
350
6D
  0
DICTIONARY
  5
29
102
{ACAD_REACTORS
330
C
102
}
330
C
100
AcDbDictionary
281
     1
  3
2dWireframe
350
2F
  3
3D Hidden
350
31
  3
3dWireframe
350
30
  3
Basic
350
2E
  3
Brighten
350
35
  3
ColorChange
350
39
  3
Conceptual
350
32
  3
Dim
350
34
  3
Facepattern
350
38
  3
Flat
350
2A
  3
FlatWithEdges
350
2B
  3
Gouraud
350
2C
  3
GouraudWithEdges
350
2D
  3
Linepattern
350
37
  3
Realistic
350
33
  3
Thicken
350
36
  0
XRECORD
  5
5A8
102
{ACAD_REACTORS
330
C
102
}
330
C
100
AcDbXrecord
280
     1
 90
        1
330
6D
  0
DICTIONARY
  5
5A2
102
{ACAD_REACTORS
330
C
102
}
330
C
100
AcDbDictionary
281
     1
  3
CANNOSCALE
350
5A5
  3
CMLEADERSTYLE
350
5A4
  3
CTABLESTYLE
350
5A3
  0
LAYOUT
  5
74
102
{ACAD_REACTORS
330
6A
102
}
330
6A
100
AcDbPlotSettings
  1

  2

  4

  6

 40
0.0
 41
0.0
 42
0.0
 43
0.0
 44
0.0
 45
0.0
 46
0.0
 47
0.0
 48
0.0
 49
0.0
140
0.0
141
0.0
142
1.0
143
1.0
 70
   688
 72
     0
 73
     0
 74
     5
  7

 75
    16
147
1.0
 76
     0
 77
     2
 78
   300
148
0.0
149
0.0
100
AcDbLayout
  1
Layout1
 70
     1
 71
     1
 10
0.0
 20
0.0
 11
12.0
 21
9.0
 12
0.0
 22
0.0
 32
0.0
 14
0.0
 24
0.0
 34
0.0
 15
0.0
 25
0.0
 35
0.0
146
0.0
 13
0.0
 23
0.0
 33
0.0
 16
1.0
 26
0.0
 36
0.0
 17
0.0
 27
1.0
 37
0.0
 76
     0
330
71
  0
LAYOUT
  5
7C
102
{ACAD_REACTORS
330
6A
102
}
330
6A
100
AcDbPlotSettings
  1

  2

  4

  6

 40
0.0
 41
0.0
 42
0.0
 43
0.0
 44
0.0
 45
0.0
 46
0.0
 47
0.0
 48
0.0
 49
0.0
140
0.0
141
0.0
142
1.0
143
1.0
 70
   688
 72
     0
 73
     0
 74
     5
  7

 75
    16
147
1.0
 76
     0
 77
     2
 78
   300
148
0.0
149
0.0
100
AcDbLayout
  1
Layout2
 70
     1
 71
     2
 10
0.0
 20
0.0
 11
12.0
 21
9.0
 12
0.0
 22
0.0
 32
0.0
 14
0.0
 24
0.0
 34
0.0
 15
0.0
 25
0.0
 35
0.0
146
0.0
 13
0.0
 23
0.0
 33
0.0
 16
1.0
 26
0.0
 36
0.0
 17
0.0
 27
1.0
 37
0.0
 76
     0
330
79
  0
LAYOUT
  5
78
102
{ACAD_REACTORS
330
6A
102
}
330
6A
100
AcDbPlotSettings
  1

  2

  4

  6

 40
0.0
 41
0.0
 42
0.0
 43
0.0
 44
0.0
 45
0.0
 46
0.0
 47
0.0
 48
0.0
 49
0.0
140
0.0
141
0.0
142
1.0
143
1.0
 70
  1712
 72
     0
 73
     0
 74
     0
  7

 75
     0
147
1.0
 76
     0
 77
     2
 78
   300
148
0.0
149
0.0
100
AcDbLayout
  1
Model
 70
     1
 71
     0
 10
0.0
 20
0.0
 11
12.0
 21
9.0
 12
0.0
 22
0.0
 32
0.0
 14
0.0
 24
0.0
 34
0.0
 15
0.0
 25
0.0
 35
0.0
146
0.0
 13
0.0
 23
0.0
 33
0.0
 16
1.0
 26
0.0
 36
0.0
 17
0.0
 27
1.0
 37
0.0
 76
     0
330
75
  0
MATERIAL
  5
19
102
{ACAD_XDICTIONARY
360
1A
102
}
102
{ACAD_REACTORS
330
10
102
}
330
10
100
AcDbMaterial
  1
ByBlock
 72
     0
 43
0.0208333333333333
 43
0.0
 43
0.0
 43
0.0
 43
0.0
 43
0.0208333333333333
 43
0.0
 43
0.0
 43
0.0
 43
0.0
 43
1.0
 43
0.0
 43
0.0
 43
0.0
 43
0.0
 43
1.0
 77
     0
 47
0.0208333333333333
 47
0.0
 47
0.0
 47
0.0
 47
0.0
 47
0.0208333333333333
 47
0.0
 47
0.0
 47
0.0
 47
0.0
 47
1.0
 47
0.0
 47
0.0
 47
0.0
 47
0.0
 47
1.0
171
     0
 49
0.0208333333333333
 49
0.0
 49
0.0
 49
0.0
 49
0.0
 49
0.0208333333333333
 49
0.0
 49
0.0
 49
0.0
 49
0.0
 49
1.0
 49
0.0
 49
0.0
 49
0.0
 49
0.0
 49
1.0
175
     0
142
0.0208333333333333
142
0.0
142
0.0
142
0.0
142
0.0
142
0.0208333333333333
142
0.0
142
0.0
142
0.0
142
0.0
142
1.0
142
0.0
142
0.0
142
0.0
142
0.0
142
1.0
179
     0
144
0.0208333333333333
144
0.0
144
0.0
144
0.0
144
0.0
144
0.0208333333333333
144
0.0
144
0.0
144
0.0
144
0.0
144
1.0
144
0.0
144
0.0
144
0.0
144
0.0
144
1.0
147
0.0208333333333333
147
0.0
147
0.0
147
0.0
147
0.0
147
0.0208333333333333
147
0.0
147
0.0
147
0.0
147
0.0
147
1.0
147
0.0
147
0.0
147
0.0
147
0.0
147
1.0
  0
MATERIAL
  5
11
102
{ACAD_XDICTIONARY
360
12
102
}
102
{ACAD_REACTORS
330
10
102
}
330
10
100
AcDbMaterial
  1
ByLayer
 72
     0
 43
0.0208333333333333
 43
0.0
 43
0.0
 43
0.0
 43
0.0
 43
0.0208333333333333
 43
0.0
 43
0.0
 43
0.0
 43
0.0
 43
1.0
 43
0.0
 43
0.0
 43
0.0
 43
0.0
 43
1.0
 77
     0
 47
0.0208333333333333
 47
0.0
 47
0.0
 47
0.0
 47
0.0
 47
0.0208333333333333
 47
0.0
 47
0.0
 47
0.0
 47
0.0
 47
1.0
 47
0.0
 47
0.0
 47
0.0
 47
0.0
 47
1.0
171
     0
 49
0.0208333333333333
 49
0.0
 49
0.0
 49
0.0
 49
0.0
 49
0.0208333333333333
 49
0.0
 49
0.0
 49
0.0
 49
0.0
 49
1.0
 49
0.0
 49
0.0
 49
0.0
 49
0.0
 49
1.0
175
     0
142
0.0208333333333333
142
0.0
142
0.0
142
0.0
142
0.0
142
0.0208333333333333
142
0.0
142
0.0
142
0.0
142
0.0
142
1.0
142
0.0
142
0.0
142
0.0
142
0.0
142
1.0
179
     0
144
0.0208333333333333
144
0.0
144
0.0
144
0.0
144
0.0
144
0.0208333333333333
144
0.0
144
0.0
144
0.0
144
0.0
144
1.0
144
0.0
144
0.0
144
0.0
144
0.0
144
1.0
147
0.0208333333333333
147
0.0
147
0.0
147
0.0
147
0.0
147
0.0208333333333333
147
0.0
147
0.0
147
0.0
147
0.0
147
1.0
147
0.0
147
0.0
147
0.0
147
0.0
147
1.0
  0
MATERIAL
  5
21
102
{ACAD_XDICTIONARY
360
22
102
}
102
{ACAD_REACTORS
330
10
102
}
330
10
100
AcDbMaterial
  1
Global
 72
     0
 43
0.0208333333333333
 43
0.0
 43
0.0
 43
0.0
 43
0.0
 43
0.0208333333333333
 43
0.0
 43
0.0
 43
0.0
 43
0.0
 43
1.0
 43
0.0
 43
0.0
 43
0.0
 43
0.0
 43
1.0
 77
     0
 47
0.0208333333333333
 47
0.0
 47
0.0
 47
0.0
 47
0.0
 47
0.0208333333333333
 47
0.0
 47
0.0
 47
0.0
 47
0.0
 47
1.0
 47
0.0
 47
0.0
 47
0.0
 47
0.0
 47
1.0
171
     0
 49
0.0208333333333333
 49
0.0
 49
0.0
 49
0.0
 49
0.0
 49
0.0208333333333333
 49
0.0
 49
0.0
 49
0.0
 49
0.0
 49
1.0
 49
0.0
 49
0.0
 49
0.0
 49
0.0
 49
1.0
175
     0
142
0.0208333333333333
142
0.0
142
0.0
142
0.0
142
0.0
142
0.0208333333333333
142
0.0
142
0.0
142
0.0
142
0.0
142
1.0
142
0.0
142
0.0
142
0.0
142
0.0
142
1.0
179
     0
144
0.0208333333333333
144
0.0
144
0.0
144
0.0
144
0.0
144
0.0208333333333333
144
0.0
144
0.0
144
0.0
144
0.0
144
1.0
144
0.0
144
0.0
144
0.0
144
0.0
144
1.0
147
0.0208333333333333
147
0.0
147
0.0
147
0.0
147
0.0
147
0.0208333333333333
147
0.0
147
0.0
147
0.0
147
0.0
147
1.0
147
0.0
147
0.0
147
0.0
147
0.0
147
1.0
  0
MLEADERSTYLE
  5
6F
102
{ACAD_REACTORS
330
6E
102
}
330
6E
100
AcDbMLeaderStyle
170
     2
171
     1
172
     0
 90
        2
 40
0.0
 41
0.0
173
     1
 91
-1056964608
340
63
 92
       -2
290
     1
 42
0.09
291
     1
 43
0.36
  3
Standard
 44
0.18
300

342
5D
174
     1
178
     6
175
     1
176
     0
 93
-1056964608
 45
0.18
292
     0
297
     0
 46
0.18
 94
-1056964608
 47
1.0
 49
1.0
140
1.0
293
     1
141
0.0
294
     1
177
     0
142
1.0
295
     1
296
     0
143
0.125
1001
ACAD_MLEADERVER
1070
     2
  0
MLINESTYLE
  5
68
102
{ACAD_REACTORS
330
67
102
}
330
67
100
AcDbMlineStyle
  2
STANDARD
 70
     0
  3

 62
   256
 51
90.0
 52
90.0
 71
     2
 49
0.5
 62
   256
  6
BYLAYER
 49
-0.5
 62
   256
  6
BYLAYER
  0
ACDBPLACEHOLDER
  5
F
102
{ACAD_REACTORS
330
E
102
}
330
E
  0
SCALE
  5
3B
102
{ACAD_REACTORS
330
3A
102
}
330
3A
100
AcDbScale
 70
     0
300
1:1
140
1.0
141
1.0
290
     1
  0
SCALE
  5
3C
102
{ACAD_REACTORS
330
3A
102
}
330
3A
100
AcDbScale
 70
     0
300
1:2
140
1.0
141
2.0
290
     0
  0
SCALE
  5
3D
102
{ACAD_REACTORS
330
3A
102
}
330
3A
100
AcDbScale
 70
     0
300
1:4
140
1.0
141
4.0
290
     0
  0
SCALE
  5
3E
102
{ACAD_REACTORS
330
3A
102
}
330
3A
100
AcDbScale
 70
     0
300
1:5
140
1.0
141
5.0
290
     0
  0
SCALE
  5
3F
102
{ACAD_REACTORS
330
3A
102
}
330
3A
100
AcDbScale
 70
     0
300
1:8
140
1.0
141
8.0
290
     0
  0
SCALE
  5
40
102
{ACAD_REACTORS
330
3A
102
}
330
3A
100
AcDbScale
 70
     0
300
1:10
140
1.0
141
10.0
290
     0
  0
SCALE
  5
41
102
{ACAD_REACTORS
330
3A
102
}
330
3A
100
AcDbScale
 70
     0
300
1:16
140
1.0
141
16.0
290
     0
  0
SCALE
  5
42
102
{ACAD_REACTORS
330
3A
102
}
330
3A
100
AcDbScale
 70
     0
300
1:20
140
1.0
141
20.0
290
     0
  0
SCALE
  5
43
102
{ACAD_REACTORS
330
3A
102
}
330
3A
100
AcDbScale
 70
     0
300
1:30
140
1.0
141
30.0
290
     0
  0
SCALE
  5
44
102
{ACAD_REACTORS
330
3A
102
}
330
3A
100
AcDbScale
 70
     0
300
1:40
140
1.0
141
40.0
290
     0
  0
SCALE
  5
45
102
{ACAD_REACTORS
330
3A
102
}
330
3A
100
AcDbScale
 70
     0
300
1:50
140
1.0
141
50.0
290
     0
  0
SCALE
  5
46
102
{ACAD_REACTORS
330
3A
102
}
330
3A
100
AcDbScale
 70
     0
300
1:100
140
1.0
141
100.0
290
     0
  0
SCALE
  5
47
102
{ACAD_REACTORS
330
3A
102
}
330
3A
100
AcDbScale
 70
     0
300
2:1
140
2.0
141
1.0
290
     0
  0
SCALE
  5
48
102
{ACAD_REACTORS
330
3A
102
}
330
3A
100
AcDbScale
 70
     0
300
4:1
140
4.0
141
1.0
290
     0
  0
SCALE
  5
49
102
{ACAD_REACTORS
330
3A
102
}
330
3A
100
AcDbScale
 70
     0
300
8:1
140
8.0
141
1.0
290
     0
  0
SCALE
  5
4A
102
{ACAD_REACTORS
330
3A
102
}
330
3A
100
AcDbScale
 70
     0
300
10:1
140
10.0
141
1.0
290
     0
  0
SCALE
  5
4B
102
{ACAD_REACTORS
330
3A
102
}
330
3A
100
AcDbScale
 70
     0
300
100:1
140
100.0
141
1.0
290
     0
  0
SCALE
  5
4C
102
{ACAD_REACTORS
330
3A
102
}
330
3A
100
AcDbScale
 70
     0
300
1/128" = 1'-0"
140
0.0078125
141
12.0
290
     0
  0
SCALE
  5
4D
102
{ACAD_REACTORS
330
3A
102
}
330
3A
100
AcDbScale
 70
     0
300
1/64" = 1'-0"
140
0.015625
141
12.0
290
     0
  0
SCALE
  5
4E
102
{ACAD_REACTORS
330
3A
102
}
330
3A
100
AcDbScale
 70
     0
300
1/32" = 1'-0"
140
0.03125
141
12.0
290
     0
  0
SCALE
  5
4F
102
{ACAD_REACTORS
330
3A
102
}
330
3A
100
AcDbScale
 70
     0
300
1/16" = 1'-0"
140
0.0625
141
12.0
290
     0
  0
SCALE
  5
50
102
{ACAD_REACTORS
330
3A
102
}
330
3A
100
AcDbScale
 70
     0
300
3/32" = 1'-0"
140
0.09375
141
12.0
290
     0
  0
SCALE
  5
51
102
{ACAD_REACTORS
330
3A
102
}
330
3A
100
AcDbScale
 70
     0
300
1/8" = 1'-0"
140
0.125
141
12.0
290
     0
  0
SCALE
  5
52
102
{ACAD_REACTORS
330
3A
102
}
330
3A
100
AcDbScale
 70
     0
300
3/16" = 1'-0"
140
0.1875
141
12.0
290
     0
  0
SCALE
  5
53
102
{ACAD_REACTORS
330
3A
102
}
330
3A
100
AcDbScale
 70
     0
300
1/4" = 1'-0"
140
0.25
141
12.0
290
     0
  0
SCALE
  5
54
102
{ACAD_REACTORS
330
3A
102
}
330
3A
100
AcDbScale
 70
     0
300
3/8" = 1'-0"
140
0.375
141
12.0
290
     0
  0
SCALE
  5
55
102
{ACAD_REACTORS
330
3A
102
}
330
3A
100
AcDbScale
 70
     0
300
1/2" = 1'-0"
140
0.5
141
12.0
290
     0
  0
SCALE
  5
56
102
{ACAD_REACTORS
330
3A
102
}
330
3A
100
AcDbScale
 70
     0
300
3/4" = 1'-0"
140
0.75
141
12.0
290
     0
  0
SCALE
  5
57
102
{ACAD_REACTORS
330
3A
102
}
330
3A
100
AcDbScale
 70
     0
300
1" = 1'-0"
140
1.0
141
12.0
290
     0
  0
SCALE
  5
58
102
{ACAD_REACTORS
330
3A
102
}
330
3A
100
AcDbScale
 70
     0
300
1-1/2" = 1'-0"
140
1.5
141
12.0
290
     0
  0
SCALE
  5
59
102
{ACAD_REACTORS
330
3A
102
}
330
3A
100
AcDbScale
 70
     0
300
3" = 1'-0"
140
3.0
141
12.0
290
     0
  0
SCALE
  5
5A
102
{ACAD_REACTORS
330
3A
102
}
330
3A
100
AcDbScale
 70
     0
300
6" = 1'-0"
140
6.0
141
12.0
290
     0
  0
SCALE
  5
5B
102
{ACAD_REACTORS
330
3A
102
}
330
3A
100
AcDbScale
 70
     0
300
1'-0" = 1'-0"
140
12.0
141
12.0
290
     0
  0
TABLESTYLE
  5
6D
102
{ACAD_XDICTIONARY
360
5A6
102
}
102
{ACAD_REACTORS
330
6C
102
}
330
6C
100
AcDbTableStyle
  3
Standard
 70
     0
 71
     0
 40
0.06
 41
0.06
280
     0
281
     0
  7
Standard
140
0.18
170
     2
 62
     0
 63
     7
283
     0
 90
      512
 91
        0
  1

274
    -2
284
     1
 64
     0
275
    -2
285
     1
 65
     0
276
    -2
286
     1
 66
     0
277
    -2
287
     1
 67
     0
278
    -2
288
     1
 68
     0
279
    -2
289
     1
 69
     0
  7
Standard
140
0.25
170
     5
 62
     0
 63
     7
283
     0
 90
      512
 91
        0
  1

274
    -2
284
     1
 64
     0
275
    -2
285
     1
 65
     0
276
    -2
286
     1
 66
     0
277
    -2
287
     1
 67
     0
278
    -2
288
     1
 68
     0
279
    -2
289
     1
 69
     0
  7
Standard
140
0.18
170
     5
 62
     0
 63
     7
283
     0
 90
      512
 91
        0
  1

274
    -2
284
     1
 64
     0
275
    -2
285
     1
 65
     0
276
    -2
286
     1
 66
     0
277
    -2
287
     1
 67
     0
278
    -2
288
     1
 68
     0
279
    -2
289
     1
 69
     0
  0
VISUALSTYLE
  5
2F
102
{ACAD_REACTORS
330
29
102
}
330
29
100
AcDbVisualStyle
  2
2dWireframe
 70
     4
 71
     0
 72
     2
 73
     0
 90
        0
 40
-0.6
 41
-30.0
 62
     5
 63
     7
421
 16777215
 74
     1
 91
        4
 64
     7
 65
   257
 75
     1
175
     1
 42
1.0
 92
        0
 66
   257
 43
1.0
 76
     1
 77
     6
 78
     2
 67
     7
 79
     5
170
     0
171
     0
290
     0
174
     0
 93
        1
 44
0.0
173
     0
291
     0
 45
0.0
  0
VISUALSTYLE
  5
31
102
{ACAD_REACTORS
330
29
102
}
330
29
100
AcDbVisualStyle
  2
3D Hidden
 70
     6
 71
     1
 72
     2
 73
     2
 90
        0
 40
-0.6
 41
-30.0
 62
     5
 63
     7
421
 16777215
 74
     2
 91
        2
 64
     7
 65
   257
 75
     2
175
     1
 42
40.0
 92
        0
 66
   257
 43
1.0
 76
     1
 77
     6
 78
     2
 67
     7
 79
     3
170
     0
171
     0
290
     0
174
     0
 93
        1
 44
0.0
173
     0
291
     0
 45
0.0
  0
VISUALSTYLE
  5
30
102
{ACAD_REACTORS
330
29
102
}
330
29
100
AcDbVisualStyle
  2
3dWireframe
 70
     5
 71
     0
 72
     2
 73
     0
 90
        0
 40
-0.6
 41
-30.0
 62
     5
 63
     7
421
 16777215
 74
     1
 91
        4
 64
     7
 65
   257
 75
     1
175
     1
 42
1.0
 92
        0
 66
   257
 43
1.0
 76
     1
 77
     6
 78
     2
 67
     7
 79
     5
170
     0
171
     0
290
     0
174
     0
 93
        1
 44
0.0
173
     0
291
     0
 45
0.0
  0
VISUALSTYLE
  5
2E
102
{ACAD_REACTORS
330
29
102
}
330
29
100
AcDbVisualStyle
  2
Basic
 70
     7
 71
     1
 72
     0
 73
     1
 90
        0
 40
-0.6
 41
-30.0
 62
     5
 63
     7
421
 16777215
 74
     0
 91
        4
 64
     7
 65
   257
 75
     1
175
     1
 42
1.0
 92
        8
 66
     7
 43
1.0
 76
     1
 77
     6
 78
     2
 67
     7
 79
     5
170
     0
171
     0
290
     0
174
     0
 93
        1
 44
0.0
173
     0
291
     1
 45
0.0
  0
VISUALSTYLE
  5
35
102
{ACAD_REACTORS
330
29
102
}
330
29
100
AcDbVisualStyle
  2
Brighten
 70
    12
 71
     2
 72
     2
 73
     0
 90
        0
 40
-0.6
 41
-30.0
 62
     5
 63
     7
421
 16777215
 74
     1
 91
        4
 64
     7
 65
   257
 75
     1
175
     1
 42
1.0
 92
        8
 66
     7
 43
1.0
 76
     1
 77
     6
 78
     2
 67
     7
 79
     5
170
     0
171
     0
290
     0
174
     0
 93
        1
 44
50.0
173
     0
291
     1
 45
0.0
  0
VISUALSTYLE
  5
39
102
{ACAD_REACTORS
330
29
102
}
330
29
100
AcDbVisualStyle
  2
ColorChange
 70
    16
 71
     2
 72
     2
 73
     3
 90
        0
 40
-0.6
 41
-30.0
 62
     5
 63
     8
421
  8421504
 74
     1
 91
        4
 64
     7
 65
   257
 75
     1
175
     1
 42
1.0
 92
        8
 66
     8
424
  8421504
 43
1.0
 76
     1
 77
     6
 78
     2
 67
     7
 79
     5
170
     0
171
     0
290
     0
174
     0
 93
        1
 44
0.0
173
     0
291
     1
 45
0.0
  0
VISUALSTYLE
  5
32
102
{ACAD_REACTORS
330
29
102
}
330
29
100
AcDbVisualStyle
  2
Conceptual
 70
     9
 71
     3
 72
     2
 73
     0
 90
        0
 40
-0.6
 41
-30.0
 62
     5
 63
     7
421
 16777215
 74
     2
 91
        2
 64
     7
 65
   257
 75
     1
175
     1
 42
40.0
 92
        8
 66
     7
 43
1.0
 76
     1
 77
     6
 78
     2
 67
     7
 79
     3
170
     0
171
     0
290
     0
174
     0
 93
        1
 44
0.0
173
     0
291
     0
 45
0.0
  0
VISUALSTYLE
  5
34
102
{ACAD_REACTORS
330
29
102
}
330
29
100
AcDbVisualStyle
  2
Dim
 70
    11
 71
     2
 72
     2
 73
     0
 90
        0
 40
-0.6
 41
-30.0
 62
     5
 63
     7
421
 16777215
 74
     1
 91
        4
 64
     7
 65
   257
 75
     1
175
     1
 42
1.0
 92
        8
 66
     7
 43
1.0
 76
     1
 77
     6
 78
     2
 67
     7
 79
     5
170
     0
171
     0
290
     0
174
     0
 93
        1
 44
-50.0
173
     0
291
     1
 45
0.0
  0
VISUALSTYLE
  5
38
102
{ACAD_REACTORS
330
29
102
}
330
29
100
AcDbVisualStyle
  2
Facepattern
 70
    15
 71
     2
 72
     2
 73
     0
 90
        0
 40
-0.6
 41
-30.0
 62
     5
 63
     7
421
 16777215
 74
     1
 91
        4
 64
     7
 65
   257
 75
     1
175
     1
 42
1.0
 92
        8
 66
     7
 43
1.0
 76
     1
 77
     6
 78
     2
 67
     7
 79
     5
170
     0
171
     0
290
     0
174
     0
 93
        1
 44
0.0
173
     0
291
     1
 45
0.0
  0
VISUALSTYLE
  5
2A
102
{ACAD_REACTORS
330
29
102
}
330
29
100
AcDbVisualStyle
  2
Flat
 70
     0
 71
     2
 72
     1
 73
     1
 90
        2
 40
-0.6
 41
30.0
 62
     5
 63
     7
421
 16777215
 74
     0
 91
        4
 64
     7
 65
   257
 75
     1
175
     1
 42
1.0
 92
        8
 66
     7
 43
1.0
 76
     1
 77
     6
 78
     2
 67
     7
 79
     5
170
     0
171
     0
290
     0
174
     0
 93
       13
 44
0.0
173
     0
291
     1
 45
0.0
  0
VISUALSTYLE
  5
2B
102
{ACAD_REACTORS
330
29
102
}
330
29
100
AcDbVisualStyle
  2
FlatWithEdges
 70
     1
 71
     2
 72
     1
 73
     1
 90
        2
 40
-0.6
 41
30.0
 62
     5
 63
     7
421
 16777215
 74
     1
 91
        4
 64
     7
 65
   257
 75
     1
175
     1
 42
1.0
 92
        0
 66
   257
 43
1.0
 76
     1
 77
     6
 78
     2
 67
     7
 79
     5
170
     0
171
     0
290
     0
174
     0
 93
       13
 44
0.0
173
     0
291
     1
 45
0.0
  0
VISUALSTYLE
  5
2C
102
{ACAD_REACTORS
330
29
102
}
330
29
100
AcDbVisualStyle
  2
Gouraud
 70
     2
 71
     2
 72
     2
 73
     1
 90
        2
 40
-0.6
 41
30.0
 62
     5
 63
     7
421
 16777215
 74
     0
 91
        4
 64
     7
 65
   257
 75
     1
175
     1
 42
1.0
 92
        0
 66
     7
 43
1.0
 76
     1
 77
     6
 78
     2
 67
     7
 79
     5
170
     0
171
     0
290
     0
174
     0
 93
       13
 44
0.0
173
     0
291
     1
 45
0.0
  0
VISUALSTYLE
  5
2D
102
{ACAD_REACTORS
330
29
102
}
330
29
100
AcDbVisualStyle
  2
GouraudWithEdges
 70
     3
 71
     2
 72
     2
 73
     1
 90
        2
 40
-0.6
 41
30.0
 62
     5
 63
     7
421
 16777215
 74
     1
 91
        4
 64
     7
 65
   257
 75
     1
175
     1
 42
1.0
 92
        0
 66
   257
 43
1.0
 76
     1
 77
     6
 78
     2
 67
     7
 79
     5
170
     0
171
     0
290
     0
174
     0
 93
       13
 44
0.0
173
     0
291
     1
 45
0.0
  0
VISUALSTYLE
  5
37
102
{ACAD_REACTORS
330
29
102
}
330
29
100
AcDbVisualStyle
  2
Linepattern
 70
    14
 71
     2
 72
     2
 73
     0
 90
        0
 40
-0.6
 41
-30.0
 62
     5
 63
     7
421
 16777215
 74
     1
 91
        4
 64
     7
 65
   257
 75
     7
175
     7
 42
1.0
 92
        8
 66
     7
 43
1.0
 76
     1
 77
     6
 78
     2
 67
     7
 79
     5
170
     0
171
     0
290
     0
174
     0
 93
        1
 44
0.0
173
     0
291
     1
 45
0.0
  0
VISUALSTYLE
  5
33
102
{ACAD_REACTORS
330
29
102
}
330
29
100
AcDbVisualStyle
  2
Realistic
 70
     8
 71
     2
 72
     2
 73
     0
 90
        0
 40
-0.6
 41
-30.0
 62
     5
 63
     7
421
 16777215
 74
     1
 91
        0
 64
     7
 65
   257
 75
     1
175
     1
 42
1.0
 92
        8
 66
     8
424
  7895160
 43
1.0
 76
     1
 77
     6
 78
     2
 67
     7
 79
     5
170
     0
171
     0
290
     0
174
     0
 93
       13
 44
0.0
173
     0
291
     0
 45
0.0
  0
VISUALSTYLE
  5
36
102
{ACAD_REACTORS
330
29
102
}
330
29
100
AcDbVisualStyle
  2
Thicken
 70
    13
 71
     2
 72
     2
 73
     0
 90
        0
 40
-0.6
 41
-30.0
 62
     5
 63
     7
421
 16777215
 74
     1
 91
        4
 64
     7
 65
   257
 75
     1
175
     1
 42
1.0
 92
       12
 66
     7
 43
1.0
 76
     1
 77
     6
 78
     2
 67
     7
 79
     5
170
     0
171
     0
290
     0
174
     0
 93
        1
 44
0.0
173
     0
291
     1
 45
0.0
  0
DICTIONARYVAR
  5
5A5
102
{ACAD_REACTORS
330
5A2
102
}
330
5A2
100
DictionaryVariables
280
     0
  1
1:1
  0
DICTIONARYVAR
  5
5A4
102
{ACAD_REACTORS
330
5A2
102
}
330
5A2
100
DictionaryVariables
280
     0
  1
STANDARD
  0
DICTIONARYVAR
  5
5A3
102
{ACAD_REACTORS
330
5A2
102
}
330
5A2
100
DictionaryVariables
280
     0
  1
STANDARD
  0
DICTIONARY
  5
1A
330
19
100
AcDbDictionary
280
     1
281
     1
  3
BUMPTILE
360
1C
  3
DIFFUSETILE
360
1B
  3
OPACITYTILE
360
1F
  3
REFLECTIONTILE
360
1E
  3
REFRACTIONTILE
360
20
  3
SPECULARTILE
360
1D
  0
DICTIONARY
  5
12
330
11
100
AcDbDictionary
280
     1
281
     1
  3
BUMPTILE
360
14
  3
DIFFUSETILE
360
13
  3
OPACITYTILE
360
17
  3
REFLECTIONTILE
360
16
  3
REFRACTIONTILE
360
18
  3
SPECULARTILE
360
15
  0
DICTIONARY
  5
22
330
21
100
AcDbDictionary
280
     1
281
     1
  3
BUMPTILE
360
24
  3
DIFFUSETILE
360
23
  3
OPACITYTILE
360
27
  3
REFLECTIONTILE
360
26
  3
REFRACTIONTILE
360
28
  3
SPECULARTILE
360
25
  0
DICTIONARY
  5
5A6
330
6D
100
AcDbDictionary
280
     1
281
     1
  3
ACAD_ROUNDTRIP_2008_TABLESTYLE_CELLSTYLEMAP
360
5A7
  0
XRECORD
  5
1C
102
{ACAD_REACTORS
330
1A
102
}
330
1A
100
AcDbXrecord
280
     1
270
     1
271
     1
  0
XRECORD
  5
1B
102
{ACAD_REACTORS
330
1A
102
}
330
1A
100
AcDbXrecord
280
     1
270
     1
271
     1
  0
XRECORD
  5
1F
102
{ACAD_REACTORS
330
1A
102
}
330
1A
100
AcDbXrecord
280
     1
270
     1
271
     1
  0
XRECORD
  5
1E
102
{ACAD_REACTORS
330
1A
102
}
330
1A
100
AcDbXrecord
280
     1
270
     1
271
     1
  0
XRECORD
  5
20
102
{ACAD_REACTORS
330
1A
102
}
330
1A
100
AcDbXrecord
280
     1
270
     1
271
     1
  0
XRECORD
  5
1D
102
{ACAD_REACTORS
330
1A
102
}
330
1A
100
AcDbXrecord
280
     1
270
     1
271
     1
  0
XRECORD
  5
14
102
{ACAD_REACTORS
330
12
102
}
330
12
100
AcDbXrecord
280
     1
270
     1
271
     1
  0
XRECORD
  5
13
102
{ACAD_REACTORS
330
12
102
}
330
12
100
AcDbXrecord
280
     1
270
     1
271
     1
  0
XRECORD
  5
17
102
{ACAD_REACTORS
330
12
102
}
330
12
100
AcDbXrecord
280
     1
270
     1
271
     1
  0
XRECORD
  5
16
102
{ACAD_REACTORS
330
12
102
}
330
12
100
AcDbXrecord
280
     1
270
     1
271
     1
  0
XRECORD
  5
18
102
{ACAD_REACTORS
330
12
102
}
330
12
100
AcDbXrecord
280
     1
270
     1
271
     1
  0
XRECORD
  5
15
102
{ACAD_REACTORS
330
12
102
}
330
12
100
AcDbXrecord
280
     1
270
     1
271
     1
  0
XRECORD
  5
24
102
{ACAD_REACTORS
330
22
102
}
330
22
100
AcDbXrecord
280
     1
270
     1
271
     1
  0
XRECORD
  5
23
102
{ACAD_REACTORS
330
22
102
}
330
22
100
AcDbXrecord
280
     1
270
     1
271
     1
  0
XRECORD
  5
27
102
{ACAD_REACTORS
330
22
102
}
330
22
100
AcDbXrecord
280
     1
270
     1
271
     1
  0
XRECORD
  5
26
102
{ACAD_REACTORS
330
22
102
}
330
22
100
AcDbXrecord
280
     1
270
     1
271
     1
  0
XRECORD
  5
28
102
{ACAD_REACTORS
330
22
102
}
330
22
100
AcDbXrecord
280
     1
270
     1
271
     1
  0
XRECORD
  5
25
102
{ACAD_REACTORS
330
22
102
}
330
22
100
AcDbXrecord
280
     1
270
     1
271
     1
  0
CELLSTYLEMAP
  5
5A7
102
{ACAD_REACTORS
330
5A6
102
}
330
5A6
100
AcDbCellStyleMap
 90
        3
300
CELLSTYLE
  1
TABLEFORMAT_BEGIN
 90
        5
170
     1
 91
        0
 92
    32768
 62
   257
 93
        1
300
CONTENTFORMAT
  1
CONTENTFORMAT_BEGIN
 90
        0
 91
        0
 92
      512
 93
        0
300

 40
0.0
140
1.0
 94
        5
 62
     0
340
5D
144
0.25
309
CONTENTFORMAT_END
171
     0
 94
        0
309
TABLEFORMAT_END
  1
CELLSTYLE_BEGIN
 90
        1
 91
        1
300
_TITLE
309
CELLSTYLE_END
300
CELLSTYLE
  1
TABLEFORMAT_BEGIN
 90
        5
170
     1
 91
        0
 92
        0
 62
   257
 93
        1
300
CONTENTFORMAT
  1
CONTENTFORMAT_BEGIN
 90
        0
 91
        0
 92
      512
 93
        0
300

 40
0.0
140
1.0
 94
        5
 62
     0
340
5D
144
0.18
309
CONTENTFORMAT_END
171
     0
 94
        0
309
TABLEFORMAT_END
  1
CELLSTYLE_BEGIN
 90
        2
 91
        1
300
_HEADER
309
CELLSTYLE_END
300
CELLSTYLE
  1
TABLEFORMAT_BEGIN
 90
        5
170
     1
 91
        0
 92
        0
 62
   257
 93
        1
300
CONTENTFORMAT
  1
CONTENTFORMAT_BEGIN
 90
        0
 91
        0
 92
      512
 93
        0
300

 40
0.0
140
1.0
 94
        2
 62
     0
340
5D
144
0.18
309
CONTENTFORMAT_END
171
     0
 94
        0
309
TABLEFORMAT_END
  1
CELLSTYLE_BEGIN
 90
        3
 91
        2
300
_DATA
309
CELLSTYLE_END
  0
ENDSEC
  0
EOF
