  0
SECTION
  2
HEADER
  9
$ACADVER
  1
AC1021
  9
$ACADMAINTVER
 70
    50
  9
$DWGCODEPAGE
  3
ANSI_1252
  9
$INSBASE
 10
0.0
 20
0.0
 30
0.0
  9
$EXTMIN
 10
-12.698602615163
 20
-56.27118184999999
 30
-0.00000001
  9
$EXTMAX
 10
54.8545810437918
 20
1.298287808717333
 30
0.00000001
  9
$LIMMIN
 10
-642.8513613741633
 20
-1945.326193947933
  9
$LIMMAX
 10
2280.37698508253
 20
121.6029399103345
  9
$ORTHOMODE
 70
     0
  9
$REGENMODE
 70
     1
  9
$FILLMODE
 70
     1
  9
$QTEXTMODE
 70
     0
  9
$MIRRTEXT
 70
     0
  9
$LTSCALE
 40
0.254
  9
$ATTMODE
 70
     1
  9
$TEXTSIZE
 40
0.8750000000000001
  9
$TRACEWID
 40
0.05
  9
$TEXTSTYLE
  7
Standard
  9
$CLAYER
  8
0
  9
$CELTYPE
  6
ByLayer
  9
$CECOLOR
 62
     0
  9
$CELTSCALE
 40
1.0
  9
$DISPSILH
 70
     0
  9
$DIMSCALE
 40
1.0
  9
$DIMASZ
 40
0.18
  9
$DIMEXO
 40
0.0625
  9
$DIMDLI
 40
0.38
  9
$DIMRND
 40
0.0
  9
$DIMDLE
 40
0.0
  9
$DIMEXE
 40
0.18
  9
$DIMTP
 40
0.0
  9
$DIMTM
 40
0.0
  9
$DIMTXT
 40
39.37007874015748
  9
$DIMCEN
 40
0.09
  9
$DIMTSZ
 40
0.0
  9
$DIMTOL
 70
     0
  9
$DIMLIM
 70
     0
  9
$DIMTIH
 70
     1
  9
$DIMTOH
 70
     1
  9
$DIMSE1
 70
     0
  9
$DIMSE2
 70
     0
  9
$DIMTAD
 70
     0
  9
$DIMZIN
 70
     0
  9
$DIMBLK
  1

  9
$DIMASO
 70
     1
  9
$DIMSHO
 70
     1
  9
$DIMPOST
  1

  9
$DIMAPOST
  1

  9
$DIMALT
 70
     0
  9
$DIMALTD
 70
     2
  9
$DIMALTF
 40
25.4
  9
$DIMLFAC
 40
1.0
  9
$DIMTOFL
 70
     0
  9
$DIMTVP
 40
0.0
  9
$DIMTIX
 70
     0
  9
$DIMSOXD
 70
     0
  9
$DIMSAH
 70
     0
  9
$DIMBLK1
  1

  9
$DIMBLK2
  1

  9
$DIMSTYLE
  2
Standard
  9
$DIMCLRD
 70
     0
  9
$DIMCLRE
 70
     0
  9
$DIMCLRT
 70
     0
  9
$DIMTFAC
 40
1.0
  9
$DIMGAP
 40
0.09
  9
$DIMJUST
 70
     0
  9
$DIMSD1
 70
     0
  9
$DIMSD2
 70
     0
  9
$DIMTOLJ
 70
     1
  9
$DIMTZIN
 70
     0
  9
$DIMALTZ
 70
     0
  9
$DIMALTTZ
 70
     0
  9
$DIMUPT
 70
     0
  9
$DIMDEC
 70
     4
  9
$DIMTDEC
 70
     4
  9
$DIMALTU
 70
     2
  9
$DIMALTTD
 70
     2
  9
$DIMTXSTY
  7
Standard
  9
$DIMAUNIT
 70
     1
  9
$DIMADEC
 70
     0
  9
$DIMALTRND
 40
0.0
  9
$DIMAZIN
 70
     0
  9
$DIMDSEP
 70
    46
  9
$DIMATFIT
 70
     3
  9
$DIMFRAC
 70
     0
  9
$DIMLDRBLK
  1

  9
$DIMLUNIT
 70
     4
  9
$DIMLWD
 70
    -2
  9
$DIMLWE
 70
    -2
  9
$DIMTMOVE
 70
     0
  9
$DIMFXL
 40
1.0
  9
$DIMFXLON
 70
     0
  9
$DIMJOGANG
 40
0.7853981633974483
  9
$DIMTFILL
 70
     0
  9
$DIMTFILLCLR
 70
     0
  9
$DIMARCSYM
 70
     0
  9
$DIMLTYPE
  6

  9
$DIMLTEX1
  6

  9
$DIMLTEX2
  6

  9
$LUNITS
 70
     2
  9
$LUPREC
 70
     4
  9
$SKETCHINC
 40
0.1
  9
$FILLETRAD
 40
0.005
  9
$AUNITS
 70
     0
  9
$AUPREC
 70
     0
  9
$MENU
  1
.
  9
$ELEVATION
 40
0.0
  9
$PELEVATION
 40
0.0
  9
$THICKNESS
 40
0.0
  9
$LIMCHECK
 70
     0
  9
$CHAMFERA
 40
0.005
  9
$CHAMFERB
 40
0.005
  9
$CHAMFERC
 40
0.0
  9
$CHAMFERD
 40
0.0
  9
$SKPOLY
 70
     0
  9
$TDCREATE
 40
2458023.567398623
  9
$TDUCREATE
 40
2458023.484065289
  9
$TDUPDATE
 40
2458023.567398623
  9
$TDUUPDATE
 40
2458023.484065289
  9
$TDINDWG
 40
0.0000001852
  9
$TDUSRTIMER
 40
0.0000001852
  9
$USRTIMER
 70
     1
  9
$ANGBASE
 50
0.0
  9
$ANGDIR
 70
     0
  9
$PDMODE
 70
     0
  9
$PDSIZE
 40
0.0
  9
$PLINEWID
 40
0.0
  9
$SPLFRAME
 70
     0
  9
$SPLINETYPE
 70
     6
  9
$SPLINESEGS
 70
     8
  9
$HANDSEED
  5
2A7
  9
$SURFTAB1
 70
     6
  9
$SURFTAB2
 70
     6
  9
$SURFTYPE
 70
     6
  9
$SURFU
 70
     6
  9
$SURFV
 70
     6
  9
$UCSBASE
  2

  9
$UCSNAME
  2

  9
$UCSORG
 10
0.0
 20
0.0
 30
0.0
  9
$UCSXDIR
 10
1.0
 20
0.0
 30
0.0
  9
$UCSYDIR
 10
0.0
 20
1.0
 30
0.0
  9
$UCSORTHOREF
  2

  9
$UCSORTHOVIEW
 70
     0
  9
$UCSORGTOP
 10
0.0
 20
0.0
 30
0.0
  9
$UCSORGBOTTOM
 10
0.0
 20
0.0
 30
0.0
  9
$UCSORGLEFT
 10
0.0
 20
0.0
 30
0.0
  9
$UCSORGRIGHT
 10
0.0
 20
0.0
 30
0.0
  9
$UCSORGFRONT
 10
0.0
 20
0.0
 30
0.0
  9
$UCSORGBACK
 10
0.0
 20
0.0
 30
0.0
  9
$PUCSBASE
  2

  9
$PUCSNAME
  2

  9
$PUCSORG
 10
0.0
 20
0.0
 30
0.0
  9
$PUCSXDIR
 10
1.0
 20
0.0
 30
0.0
  9
$PUCSYDIR
 10
0.0
 20
1.0
 30
0.0
  9
$PUCSORTHOREF
  2

  9
$PUCSORTHOVIEW
 70
     0
  9
$PUCSORGTOP
 10
0.0
 20
0.0
 30
0.0
  9
$PUCSORGBOTTOM
 10
0.0
 20
0.0
 30
0.0
  9
$PUCSORGLEFT
 10
0.0
 20
0.0
 30
0.0
  9
$PUCSORGRIGHT
 10
0.0
 20
0.0
 30
0.0
  9
$PUCSORGFRONT
 10
0.0
 20
0.0
 30
0.0
  9
$PUCSORGBACK
 10
0.0
 20
0.0
 30
0.0
  9
$USERI1
 70
     0
  9
$USERI2
 70
     0
  9
$USERI3
 70
     0
  9
$USERI4
 70
     0
  9
$USERI5
 70
     0
  9
$USERR1
 40
0.0
  9
$USERR2
 40
0.0
  9
$USERR3
 40
0.0
  9
$USERR4
 40
0.0
  9
$USERR5
 40
0.0
  9
$WORLDVIEW
 70
     1
  9
$SHADEDGE
 70
     3
  9
$SHADEDIF
 70
    70
  9
$TILEMODE
 70
     1
  9
$MAXACTVP
 70
    64
  9
$PINSBASE
 10
0.0
 20
0.0
 30
0.0
  9
$PLIMCHECK
 70
     0
  9
$PEXTMIN
 10
1.000000000000000E+20
 20
1.000000000000000E+20
 30
1.000000000000000E+20
  9
$PEXTMAX
 10
-1.000000000000000E+20
 20
-1.000000000000000E+20
 30
-1.000000000000000E+20
  9
$PLIMMIN
 10
0.0
 20
0.0
  9
$PLIMMAX
 10
12.0
 20
9.0
  9
$UNITMODE
 70
     0
  9
$VISRETAIN
 70
     1
  9
$PLINEGEN
 70
     0
  9
$PSLTSCALE
 70
     1
  9
$TREEDEPTH
 70
  3020
  9
$CMLSTYLE
  2
Standard
  9
$CMLJUST
 70
     0
  9
$CMLSCALE
 40
1.0
  9
$PROXYGRAPHICS
 70
     1
  9
$MEASUREMENT
 70
     1
  9
$CELWEIGHT
370
    -1
  9
$ENDCAPS
280
     0
  9
$JOINSTYLE
280
     0
  9
$LWDISPLAY
290
     0
  9
$INSUNITS
 70
     0
  9
$HYPERLINKBASE
  1

  9
$STYLESHEET
  1

  9
$XEDIT
290
     1
  9
$CEPSNTYPE
380
     0
  9
$PSTYLEMODE
290
     1
  9
$FINGERPRINTGUID
  2
{67DB2E9D-5B27-4E35-A3EA-CDF7D596E24E}
  9
$VERSIONGUID
  2
{953B5521-E080-470B-9A42-772A9BDA4CD9}
  9
$EXTNAMES
290
     1
  9
$PSVPSCALE
 40
0.0
  9
$OLESTARTUP
290
     0
  9
$SORTENTS
280
   127
  9
$INDEXCTL
280
     0
  9
$HIDETEXT
280
     1
  9
$XCLIPFRAME
290
     0
  9
$HALOGAP
280
     0
  9
$OBSCOLOR
 70
   257
  9
$OBSLTYPE
280
     0
  9
$INTERSECTIONDISPLAY
280
     0
  9
$INTERSECTIONCOLOR
 70
   257
  9
$DIMASSOC
280
     2
  9
$PROJECTNAME
  1

  9
$CAMERADISPLAY
290
     0
  9
$LENSLENGTH
 40
50.0
  9
$CAMERAHEIGHT
 40
0.0
  9
$STEPSPERSEC
 40
2.0
  9
$STEPSIZE
 40
6.0
  9
$3DDWFPREC
 40
2.0
  9
$PSOLWIDTH
 40
0.25
  9
$PSOLHEIGHT
 40
4.0
  9
$LOFTANG1
 40
1.570796326794896
  9
$LOFTANG2
 40
1.570796326794896
  9
$LOFTMAG1
 40
0.0
  9
$LOFTMAG2
 40
0.0
  9
$LOFTPARAM
 70
     7
  9
$LOFTNORMALS
280
     1
  9
$LATITUDE
 40
37.795
  9
$LONGITUDE
 40
-122.394
  9
$NORTHDIRECTION
 40
0.0
  9
$TIMEZONE
 70
 -8000
  9
$LIGHTGLYPHDISPLAY
280
     1
  9
$TILEMODELIGHTSYNCH
280
     1
  9
$CMATERIAL
347
11
  9
$SOLIDHIST
280
     1
  9
$SHOWHIST
280
     1
  9
$DWFFRAME
280
     2
  9
$DGNFRAME
280
     0
  9
$REALWORLDSCALE
290
     1
  9
$INTERFERECOLOR
 62
     1
  9
$INTERFEREOBJVS
345
33
  9
$INTERFEREVPVS
346
30
  9
$CSHADOW
280
     0
  9
$SHADOWPLANELOCATION
 40
0.0
  0
ENDSEC
  0
SECTION
  2
CLASSES
  0
CLASS
  1
ACDBDICTIONARYWDFLT
  2
AcDbDictionaryWithDefault
  3
ObjectDBX Classes
 90
        0
 91
        1
280
     0
281
     0
  0
CLASS
  1
MATERIAL
  2
AcDbMaterial
  3
ObjectDBX Classes
 90
     1153
 91
        3
280
     0
281
     0
  0
CLASS
  1
VISUALSTYLE
  2
AcDbVisualStyle
  3
ObjectDBX Classes
 90
     4095
 91
       16
280
     0
281
     0
  0
CLASS
  1
SCALE
  2
AcDbScale
  3
ObjectDBX Classes
 90
     1153
 91
       33
280
     0
281
     0
  0
CLASS
  1
TABLESTYLE
  2
AcDbTableStyle
  3
ObjectDBX Classes
 90
     4095
 91
        1
280
     0
281
     0
  0
CLASS
  1
MLEADERSTYLE
  2
AcDbMLeaderStyle
  3
ACDB_MLEADERSTYLE_CLASS
 90
     4095
 91
        1
280
     0
281
     0
  0
CLASS
  1
DICTIONARYVAR
  2
AcDbDictionaryVar
  3
ObjectDBX Classes
 90
        0
 91
        3
280
     0
281
     0
  0
CLASS
  1
CELLSTYLEMAP
  2
AcDbCellStyleMap
  3
ObjectDBX Classes
 90
     1152
 91
        1
280
     0
281
     0
  0
ENDSEC
  0
SECTION
  2
TABLES
  0
TABLE
  2
VPORT
  5
8
330
0
100
AcDbSymbolTable
 70
     1
  0
VPORT
  5
5F
330
8
100
AcDbSymbolTableRecord
100
AcDbViewportTableRecord
  2
*Active
 70
     0
 10
0.0
 20
0.0
 11
1.0
 21
1.0
 12
497.3371311671015
 22
-1884.524723992766
 13
0.0
 23
0.0
 14
1.0
 24
1.0
 15
0.0
 25
0.0
 16
0.0
 26
0.0
 36
1.0
 17
0.0
 27
0.0
 37
0.0
 40
121.6029399103345
 41
18.75264682551257
 42
50.0
 43
0.0
 44
0.0
 50
0.0
 51
0.0
 71
     0
 72
   100
 73
     1
 74
     1
 75
     0
 76
     0
 77
     0
 78
     0
281
     0
 65
     1
110
0.0
120
0.0
130
0.0
111
1.0
121
0.0
131
0.0
112
0.0
122
1.0
132
0.0
 79
     0
146
0.0
 60
     3
 61
     5
292
     1
282
     1
141
0.0
142
0.0
 63
   250
421
  3355443
  0
ENDTAB
  0
TABLE
  2
LTYPE
  5
5
330
0
100
AcDbSymbolTable
 70
    40
  0
LTYPE
  5
63
330
5
100
AcDbSymbolTableRecord
100
AcDbLinetypeTableRecord
  2
ByBlock
 70
     0
  3

 72
    65
 73
     0
 40
0.0
  0
LTYPE
  5
64
330
5
100
AcDbSymbolTableRecord
100
AcDbLinetypeTableRecord
  2
ByLayer
 70
     0
  3

 72
    65
 73
     0
 40
0.0
  0
LTYPE
  5
65
330
5
100
AcDbSymbolTableRecord
100
AcDbLinetypeTableRecord
  2
Continuous
 70
     0
  3
Solid line
 72
    65
 73
     0
 40
0.0
  0
LTYPE
  5
7D
330
5
100
AcDbSymbolTableRecord
100
AcDbLinetypeTableRecord
  2
HIDDEN
 70
     0
  3
_ _ _ _ _ _ _ _ _ _ _ _ _ _ 
 72
    65
 73
     2
 40
0.009525
 49
0.00635
 74
     0
 49
-0.003175
 74
     0
  0
LTYPE
  5
7E
330
5
100
AcDbSymbolTableRecord
100
AcDbLinetypeTableRecord
  2
DASHED
 70
     0
  3
__ __ __ __ __ __ __ __ __ 
 72
    65
 73
     2
 40
0.01905
 49
0.0127
 74
     0
 49
-0.00635
 74
     0
  0
LTYPE
  5
7F
330
5
100
AcDbSymbolTableRecord
100
AcDbLinetypeTableRecord
  2
CENTER
 70
     0
  3
____ _ ____ _ ____ _ ____ _ 
 72
    65
 73
     4
 40
0.0508
 49
0.03175
 74
     0
 49
-0.00635
 74
     0
 49
0.00635
 74
     0
 49
-0.00635
 74
     0
  0
LTYPE
  5
80
330
5
100
AcDbSymbolTableRecord
100
AcDbLinetypeTableRecord
  2
PHANTOM
 70
     0
  3
_____ _ _ _____ _ _ _____ _ _ 
 72
    65
 73
     6
 40
0.0635
 49
0.03175
 74
     0
 49
-0.00635
 74
     0
 49
0.00635
 74
     0
 49
-0.00635
 74
     0
 49
0.00635
 74
     0
 49
-0.00635
 74
     0
  0
LTYPE
  5
81
330
5
100
AcDbSymbolTableRecord
100
AcDbLinetypeTableRecord
  2
DOT
 70
     0
  3
...........................
 72
    65
 73
     2
 40
0.00635
 49
0.0
 74
     0
 49
-0.00635
 74
     0
  0
LTYPE
  5
82
330
5
100
AcDbSymbolTableRecord
100
AcDbLinetypeTableRecord
  2
DASHDOT
 70
     0
  3
__ . __ . __ . __ . __ . __ . 
 72
    65
 73
     4
 40
0.0254
 49
0.0127
 74
     0
 49
-0.00635
 74
     0
 49
0.0
 74
     0
 49
-0.00635
 74
     0
  0
LTYPE
  5
83
330
5
100
AcDbSymbolTableRecord
100
AcDbLinetypeTableRecord
  2
DIVIDE
 70
     0
  3
__ . . __ . . __ . . __ . . 
 72
    65
 73
     6
 40
0.03175
 49
0.0127
 74
     0
 49
-0.00635
 74
     0
 49
0.0
 74
     0
 49
-0.00635
 74
     0
 49
0.0
 74
     0
 49
-0.00635
 74
     0
  0
LTYPE
  5
84
330
5
100
AcDbSymbolTableRecord
100
AcDbLinetypeTableRecord
  2
BORDER
 70
     0
  3
__ __ . __ __ . __ __ . __ __ .
 72
    65
 73
     6
 40
0.04445
 49
0.0127
 74
     0
 49
-0.00635
 74
     0
 49
0.0127
 74
     0
 49
-0.00635
 74
     0
 49
0.0
 74
     0
 49
-0.00635
 74
     0
  0
LTYPE
  5
85
330
5
100
AcDbSymbolTableRecord
100
AcDbLinetypeTableRecord
  2
BORDER2
 70
     0
  3
Border (.5x) __.__.__.__.__.__.
 72
    65
 73
     6
 40
0.875
 49
0.25
 74
     0
 49
-0.125
 74
     0
 49
0.25
 74
     0
 49
-0.125
 74
     0
 49
0.0
 74
     0
 49
-0.125
 74
     0
  0
LTYPE
  5
86
330
5
100
AcDbSymbolTableRecord
100
AcDbLinetypeTableRecord
  2
BORDERX2
 70
     0
  3
Border (2x) ____  ____  .  ____
 72
    65
 73
     6
 40
3.5
 49
1.0
 74
     0
 49
-0.5
 74
     0
 49
1.0
 74
     0
 49
-0.5
 74
     0
 49
0.0
 74
     0
 49
-0.5
 74
     0
  0
LTYPE
  5
87
330
5
100
AcDbSymbolTableRecord
100
AcDbLinetypeTableRecord
  2
CENTER2
 70
     0
  3
Center (.5x) ___ _ ___ _ ___ _ 
 72
    65
 73
     4
 40
1.125
 49
0.7500000000000001
 74
     0
 49
-0.125
 74
     0
 49
0.125
 74
     0
 49
-0.125
 74
     0
  0
LTYPE
  5
88
330
5
100
AcDbSymbolTableRecord
100
AcDbLinetypeTableRecord
  2
CENTERX2
 70
     0
  3
Center (2x) ________  __  _____
 72
    65
 73
     4
 40
4.0
 49
2.5
 74
     0
 49
-0.5
 74
     0
 49
0.5
 74
     0
 49
-0.5
 74
     0
  0
LTYPE
  5
89
330
5
100
AcDbSymbolTableRecord
100
AcDbLinetypeTableRecord
  2
DASHDOT2
 70
     0
  3
Dash dot (.5x) _._._._._._._._.
 72
    65
 73
     4
 40
0.5
 49
0.25
 74
     0
 49
-0.125
 74
     0
 49
0.0
 74
     0
 49
-0.125
 74
     0
  0
LTYPE
  5
8A
330
5
100
AcDbSymbolTableRecord
100
AcDbLinetypeTableRecord
  2
DASHDOTX2
 70
     0
  3
Dash dot (2x) ____  .  ____  . 
 72
    65
 73
     4
 40
2.0
 49
1.0
 74
     0
 49
-0.5
 74
     0
 49
0.0
 74
     0
 49
-0.5
 74
     0
  0
LTYPE
  5
8B
330
5
100
AcDbSymbolTableRecord
100
AcDbLinetypeTableRecord
  2
DASHED2
 70
     0
  3
Dashed (.5x) _ _ _ _ _ _ _ _ _ 
 72
    65
 73
     2
 40
0.375
 49
0.25
 74
     0
 49
-0.125
 74
     0
  0
LTYPE
  5
8C
330
5
100
AcDbSymbolTableRecord
100
AcDbLinetypeTableRecord
  2
DASHEDX2
 70
     0
  3
Dashed (2x) ____  ____  ____  _
 72
    65
 73
     2
 40
1.5
 49
1.0
 74
     0
 49
-0.5
 74
     0
  0
LTYPE
  5
8D
330
5
100
AcDbSymbolTableRecord
100
AcDbLinetypeTableRecord
  2
DIVIDE2
 70
     0
  3
Divide (.5x) __..__..__..__..__
 72
    65
 73
     6
 40
0.625
 49
0.25
 74
     0
 49
-0.125
 74
     0
 49
0.0
 74
     0
 49
-0.125
 74
     0
 49
0.0
 74
     0
 49
-0.125
 74
     0
  0
LTYPE
  5
8E
330
5
100
AcDbSymbolTableRecord
100
AcDbLinetypeTableRecord
  2
DIVIDEX2
 70
     0
  3
Divide (2x) ________  .  .  ___
 72
    65
 73
     6
 40
2.5
 49
1.0
 74
     0
 49
-0.5
 74
     0
 49
0.0
 74
     0
 49
-0.5
 74
     0
 49
0.0
 74
     0
 49
-0.5
 74
     0
  0
LTYPE
  5
8F
330
5
100
AcDbSymbolTableRecord
100
AcDbLinetypeTableRecord
  2
DOT2
 70
     0
  3
Dot (.5x) .....................
 72
    65
 73
     2
 40
0.125
 49
0.0
 74
     0
 49
-0.125
 74
     0
  0
LTYPE
  5
90
330
5
100
AcDbSymbolTableRecord
100
AcDbLinetypeTableRecord
  2
DOTX2
 70
     0
  3
Dot (2x) .  .  .  .  .  .  .  .
 72
    65
 73
     2
 40
0.5
 49
0.0
 74
     0
 49
-0.5
 74
     0
  0
LTYPE
  5
91
330
5
100
AcDbSymbolTableRecord
100
AcDbLinetypeTableRecord
  2
HIDDEN2
 70
     0
  3
Hidden (.5x) _ _ _ _ _ _ _ _ _ 
 72
    65
 73
     2
 40
0.1875
 49
0.125
 74
     0
 49
-0.0625
 74
     0
  0
LTYPE
  5
92
330
5
100
AcDbSymbolTableRecord
100
AcDbLinetypeTableRecord
  2
HIDDENX2
 70
     0
  3
Hidden (2x) ____ ____ ____ ____
 72
    65
 73
     2
 40
0.75
 49
0.5
 74
     0
 49
-0.25
 74
     0
  0
LTYPE
  5
93
330
5
100
AcDbSymbolTableRecord
100
AcDbLinetypeTableRecord
  2
PHANTOM2
 70
     0
  3
Phantom (.5x) ___ _ _ ___ _ _ _
 72
    65
 73
     6
 40
1.25
 49
0.6250000000000001
 74
     0
 49
-0.125
 74
     0
 49
0.125
 74
     0
 49
-0.125
 74
     0
 49
0.125
 74
     0
 49
-0.125
 74
     0
  0
LTYPE
  5
94
330
5
100
AcDbSymbolTableRecord
100
AcDbLinetypeTableRecord
  2
PHANTOMX2
 70
     0
  3
Phantom (2x) ____________    __
 72
    65
 73
     6
 40
5.0
 49
2.5
 74
     0
 49
-0.5
 74
     0
 49
0.5
 74
     0
 49
-0.5
 74
     0
 49
0.5
 74
     0
 49
-0.5
 74
     0
  0
LTYPE
  5
95
330
5
100
AcDbSymbolTableRecord
100
AcDbLinetypeTableRecord
  2
DOTS
 70
     0
  3
Dots - - - - - - - - - - - - - 
 72
    65
 73
     2
 40
0.1
 49
0.05
 74
     0
 49
-0.05
 74
     0
  0
LTYPE
  5
96
330
5
100
AcDbSymbolTableRecord
100
AcDbLinetypeTableRecord
  2
ACAD_ISO02W100
 70
     0
  3
__ __ __ __ __ __ __ __ __ __ _
 72
    65
 73
     2
 40
15.0
 49
12.0
 74
     0
 49
-3.0
 74
     0
  0
LTYPE
  5
97
330
5
100
AcDbSymbolTableRecord
100
AcDbLinetypeTableRecord
  2
ACAD_ISO03W100
 70
     0
  3
__    __    __    __    __    _
 72
    65
 73
     2
 40
30.0
 49
12.0
 74
     0
 49
-18.0
 74
     0
  0
LTYPE
  5
98
330
5
100
AcDbSymbolTableRecord
100
AcDbLinetypeTableRecord
  2
ACAD_ISO04W100
 70
     0
  3
____ . ____ . ____ . ____ . ___
 72
    65
 73
     4
 40
30.5
 49
24.0
 74
     0
 49
-3.0
 74
     0
 49
0.5
 74
     0
 49
-3.0
 74
     0
  0
LTYPE
  5
99
330
5
100
AcDbSymbolTableRecord
100
AcDbLinetypeTableRecord
  2
ACAD_ISO05W100
 70
     0
  3
____ .. ____ .. ____ .. ____ ..
 72
    65
 73
     6
 40
34.0
 49
24.0
 74
     0
 49
-3.0
 74
     0
 49
0.5
 74
     0
 49
-3.0
 74
     0
 49
0.5
 74
     0
 49
-3.0
 74
     0
  0
LTYPE
  5
9A
330
5
100
AcDbSymbolTableRecord
100
AcDbLinetypeTableRecord
  2
ACAD_ISO06W100
 70
     0
  3
____ ... ____ ... ____ ... ____
 72
    65
 73
     6
 40
34.0
 49
24.0
 74
     0
 49
-3.0
 74
     0
 49
0.5
 74
     0
 49
-3.0
 74
     0
 49
0.5
 74
     0
 49
-3.0
 74
     0
  0
LTYPE
  5
9B
330
5
100
AcDbSymbolTableRecord
100
AcDbLinetypeTableRecord
  2
ACAD_ISO07W100
 70
     0
  3
. . . . . . . . . . . . . . . .
 72
    65
 73
     2
 40
3.5
 49
0.5
 74
     0
 49
-3.0
 74
     0
  0
LTYPE
  5
9C
330
5
100
AcDbSymbolTableRecord
100
AcDbLinetypeTableRecord
  2
ACAD_ISO08W100
 70
     0
  3
____ __ ____ __ ____ __ ____ __
 72
    65
 73
     4
 40
36.0
 49
24.0
 74
     0
 49
-3.0
 74
     0
 49
6.0
 74
     0
 49
-3.0
 74
     0
  0
LTYPE
  5
9D
330
5
100
AcDbSymbolTableRecord
100
AcDbLinetypeTableRecord
  2
ACAD_ISO09W100
 70
     0
  3
____ __ __ ____ __ __ ____ __ _
 72
    65
 73
     6
 40
45.0
 49
24.0
 74
     0
 49
-3.0
 74
     0
 49
6.0
 74
     0
 49
-3.0
 74
     0
 49
6.0
 74
     0
 49
-3.0
 74
     0
  0
LTYPE
  5
9E
330
5
100
AcDbSymbolTableRecord
100
AcDbLinetypeTableRecord
  2
ACAD_ISO10W100
 70
     0
  3
__ . __ . __ . __ . __ . __ . _
 72
    65
 73
     4
 40
18.5
 49
12.0
 74
     0
 49
-3.0
 74
     0
 49
0.5
 74
     0
 49
-3.0
 74
     0
  0
LTYPE
  5
9F
330
5
100
AcDbSymbolTableRecord
100
AcDbLinetypeTableRecord
  2
ACAD_ISO11W100
 70
     0
  3
__ __ . __ __ . __ __ . __ __ .
 72
    65
 73
     6
 40
33.5
 49
12.0
 74
     0
 49
-3.0
 74
     0
 49
12.0
 74
     0
 49
-3.0
 74
     0
 49
0.5
 74
     0
 49
-3.0
 74
     0
  0
LTYPE
  5
A0
330
5
100
AcDbSymbolTableRecord
100
AcDbLinetypeTableRecord
  2
ACAD_ISO12W100
 70
     0
  3
__ . . __ . . __ . . __ . . __ 
 72
    65
 73
     6
 40
22.0
 49
12.0
 74
     0
 49
-3.0
 74
     0
 49
0.5
 74
     0
 49
-3.0
 74
     0
 49
0.5
 74
     0
 49
-3.0
 74
     0
  0
LTYPE
  5
A1
330
5
100
AcDbSymbolTableRecord
100
AcDbLinetypeTableRecord
  2
ACAD_ISO13W100
 70
     0
  3
__ __ . . __ __ . . __ __ . . _
 72
    65
 73
     6
 40
33.5
 49
12.0
 74
     0
 49
-3.0
 74
     0
 49
12.0
 74
     0
 49
-3.0
 74
     0
 49
0.5
 74
     0
 49
-3.0
 74
     0
  0
LTYPE
  5
A2
330
5
100
AcDbSymbolTableRecord
100
AcDbLinetypeTableRecord
  2
ACAD_ISO14W100
 70
     0
  3
__ . . . __ . . . __ . . . __ .
 72
    65
 73
     6
 40
22.0
 49
12.0
 74
     0
 49
-3.0
 74
     0
 49
0.5
 74
     0
 49
-3.0
 74
     0
 49
0.5
 74
     0
 49
-3.0
 74
     0
  0
LTYPE
  5
A3
330
5
100
AcDbSymbolTableRecord
100
AcDbLinetypeTableRecord
  2
ACAD_ISO15W100
 70
     0
  3
__ __ . . . __ __ . . . __ __ .
 72
    65
 73
     6
 40
33.5
 49
12.0
 74
     0
 49
-3.0
 74
     0
 49
12.0
 74
     0
 49
-3.0
 74
     0
 49
0.5
 74
     0
 49
-3.0
 74
     0
  0
ENDTAB
  0
TABLE
  2
LAYER
  5
2
330
0
100
AcDbSymbolTable
 70
     5
  0
LAYER
  5
5C
330
2
100
AcDbSymbolTableRecord
100
AcDbLayerTableRecord
  2
0
 70
     0
 62
     7
  6
Continuous
370
    -3
390
F
347
21
  0
LAYER
  5
A4
330
2
100
AcDbSymbolTableRecord
100
AcDbLayerTableRecord
  2
GRUNDRISS
 70
     0
 62
     7
  6
Continuous
370
    -3
390
F
347
21
  0
LAYER
  5
A5
330
2
100
AcDbSymbolTableRecord
100
AcDbLayerTableRecord
  2
HALLE6EG
 70
     0
 62
     7
  6
Continuous
370
    -3
390
F
347
21
  0
LAYER
  5
A6
330
2
100
AcDbSymbolTableRecord
100
AcDbLayerTableRecord
  2
HALLE_0_1_EG
 70
     0
 62
     7
  6
Continuous
370
    -3
390
F
347
21
  0
LAYER
  5
A7
330
2
100
AcDbSymbolTableRecord
100
AcDbLayerTableRecord
  2
SW_HALLENWAND
 70
     1
 62
    30
  6
Continuous
370
    -3
390
F
347
21
  0
ENDTAB
  0
TABLE
  2
STYLE
  5
3
330
0
100
AcDbSymbolTable
 70
     7
  0
STYLE
  5
5D
330
3
100
AcDbSymbolTableRecord
100
AcDbTextStyleTableRecord
  2
Standard
 70
     0
 40
0.0
 41
1.0
 50
0.0
 71
     0
 42
0.8750000000000001
  3
txt
  4

  0
STYLE
  5
62
330
3
100
AcDbSymbolTableRecord
100
AcDbTextStyleTableRecord
  2
Annotative
 70
     0
 40
0.0
 41
1.0
 50
0.0
 71
     0
 42
0.2
  3
txt
  4

1001
AcadAnnotative
1000
AnnotativeData
1002
{
1070
     1
1070
     1
1002
}
  0
STYLE
  5
A8
330
3
100
AcDbSymbolTableRecord
100
AcDbTextStyleTableRecord
  2
ITALIC
 70
     0
 40
0.0
 41
1.0
 50
0.0
 71
     0
 42
0.8750000000000001
  3
ITALIC
  4

  0
STYLE
  5
A9
330
3
100
AcDbSymbolTableRecord
100
AcDbTextStyleTableRecord
  2
SIMPLEX
 70
     0
 40
0.0
 41
1.0
 50
0.0
 71
     0
 42
0.8750000000000001
  3
SIMPLEX
  4

  0
STYLE
  5
AA
330
3
100
AcDbSymbolTableRecord
100
AcDbTextStyleTableRecord
  2
COMPLEX
 70
     0
 40
0.0
 41
1.0
 50
0.0
 71
     0
 42
0.8750000000000001
  3
COMPLEX
  4

  0
STYLE
  5
AD
330
3
100
AcDbSymbolTableRecord
100
AcDbTextStyleTableRecord
  2
ARIAL
 70
     0
 40
0.0
 41
1.0
 50
0.0
 71
     0
 42
0.8750000000000001
  3
arial.ttf
  4

1001
ACAD
1000
Arial
1071
        0
  0
STYLE
  5
120
330
3
100
AcDbSymbolTableRecord
100
AcDbTextStyleTableRecord
  2
ARIALB
 70
     0
 40
0.0
 41
1.0
 50
0.0
 71
     0
 42
0.8750000000000001
  3

  4

1001
ACAD
1000
Arial
1071
 33554432
  0
ENDTAB
  0
TABLE
  2
VIEW
  5
6
330
0
100
AcDbSymbolTable
 70
     0
  0
ENDTAB
  0
TABLE
  2
UCS
  5
7
330
0
100
AcDbSymbolTable
 70
     0
  0
ENDTAB
  0
TABLE
  2
APPID
  5
9
330
0
100
AcDbSymbolTable
 70
     3
  0
APPID
  5
5E
330
9
100
AcDbSymbolTableRecord
100
AcDbRegAppTableRecord
  2
ACAD
 70
     0
  0
APPID
  5
66
330
9
100
AcDbSymbolTableRecord
100
AcDbRegAppTableRecord
  2
AcadAnnotative
 70
     0
  0
APPID
  5
70
330
9
100
AcDbSymbolTableRecord
100
AcDbRegAppTableRecord
  2
ACAD_MLEADERVER
 70
     0
  0
ENDTAB
  0
TABLE
  2
DIMSTYLE
  5
A
330
0
100
AcDbSymbolTable
 70
     2
100
AcDbDimStyleTable
 71
     0
  0
DIMSTYLE
105
60
330
A
100
AcDbSymbolTableRecord
100
AcDbDimStyleTableRecord
  2
Standard
 70
     0
340
5D
  0
DIMSTYLE
105
61
330
A
100
AcDbSymbolTableRecord
100
AcDbDimStyleTableRecord
  2
Annotative
 70
     0
340
5D
1001
AcadAnnotative
1000
AnnotativeData
1002
{
1070
     1
1070
     1
1002
}
  0
ENDTAB
  0
TABLE
  2
BLOCK_RECORD
  5
1
330
0
100
AcDbSymbolTable
 70
     1
  0
BLOCK_RECORD
  5
75
330
1
100
AcDbSymbolTableRecord
100
AcDbBlockTableRecord
  2
*Model_Space
340
78
 70
     0
280
     1
281
     0
  0
BLOCK_RECORD
  5
71
330
1
100
AcDbSymbolTableRecord
100
AcDbBlockTableRecord
  2
*Paper_Space
340
74
 70
     0
280
     1
281
     0
  0
BLOCK_RECORD
  5
79
330
1
100
AcDbSymbolTableRecord
100
AcDbBlockTableRecord
  2
*Paper_Space0
340
7C
 70
     0
280
     1
281
     0
  0
ENDTAB
  0
ENDSEC
  0
SECTION
  2
BLOCKS
  0
BLOCK
  5
76
330
75
100
AcDbEntity
  8
0
100
AcDbBlockBegin
  2
*Model_Space
 70
     0
 10
0.0
 20
0.0
 30
0.0
  3
*Model_Space
  1

  0
ENDBLK
  5
77
330
75
100
AcDbEntity
  8
0
100
AcDbBlockEnd
  0
BLOCK
  5
72
330
71
100
AcDbEntity
 67
     1
  8
0
100
AcDbBlockBegin
  2
*Paper_Space
 70
     0
 10
0.0
 20
0.0
 30
0.0
  3
*Paper_Space
  1

  0
ENDBLK
  5
73
330
71
100
AcDbEntity
 67
     1
  8
0
100
AcDbBlockEnd
  0
BLOCK
  5
7A
330
79
100
AcDbEntity
 67
     1
  8
0
100
AcDbBlockBegin
  2
*Paper_Space0
 70
     0
 10
0.0
 20
0.0
 30
0.0
  3
*Paper_Space0
  1

  0
ENDBLK
  5
7B
330
79
100
AcDbEntity
 67
     1
  8
0
100
AcDbBlockEnd
  0
ENDSEC
  0
SECTION
  2
ENTITIES
  0
LINE
  5
AB
330
75
100
AcDbEntity
  8
HALLE_0_1_EG
  6
Continuous
100
AcDbLine
 10
4.726514000000002
 20
-56.27118184999999
 30
0.0
 11
4.726513984686268
 21
-56.27118183834053
 31
0.0
  0
TEXT
  5
AE
102
{ACAD_REACTORS
330
AC
102
}
330
75
100
AcDbEntity
  8
HALLE_0_1_EG
  6
Continuous
100
AcDbText
 10
38.88958722598296
 20
-43.2712012160477
 30
0.0
 40
0.375
  1
Veranstalter
  7
ARIAL
100
AcDbText
  0
TEXT
  5
B0
102
{ACAD_REACTORS
330
AC
102
}
330
75
100
AcDbEntity
  8
HALLE_0_1_EG
  6
Continuous
100
AcDbText
 10
38.89532746742543
 20
-44.04498910720902
 30
0.0
 40
0.375
  1
Projekt
  7
ARIAL
100
AcDbText
  0
TEXT
  5
B1
102
{ACAD_REACTORS
330
AC
102
}
330
75
100
AcDbEntity
  8
HALLE_0_1_EG
  6
Continuous
100
AcDbText
 10
38.88958722598296
 20
-44.79746238443836
 30
0.0
 40
0.375
  1
Zeit/Datum
  7
ARIAL
100
AcDbText
  0
TEXT
  5
B2
102
{ACAD_REACTORS
330
AC
102
}
330
75
100
AcDbEntity
  8
HALLE_0_1_EG
  6
Continuous
100
AcDbText
 10
38.88958722598296
 20
-47.22752211754652
 30
0.0
 40
0.375
  1
Massstab 1:250
  7
ARIAL
100
AcDbText
  0
TEXT
  5
B3
102
{ACAD_REACTORS
330
AC
102
}
330
75
100
AcDbEntity
  8
HALLE_0_1_EG
  6
Continuous
100
AcDbText
 10
44.04973655875358
 20
-47.2565082056707
 30
0.0
 40
0.375
  1
Thun,
  7
ARIAL
100
AcDbText
  0
TEXT
  5
B4
102
{ACAD_REACTORS
330
AC
102
}
330
75
100
AcDbEntity
  8
HALLE_0_1_EG
  6
Continuous
100
AcDbText
 10
38.88958722598296
 20
-46.12614036849131
 30
0.0
 40
0.7500000000000001
  1
Grundriss EG Halle 1
  7
ARIAL
100
AcDbText
  0
LWPOLYLINE
  5
B5
102
{ACAD_REACTORS
330
AC
102
}
330
75
100
AcDbEntity
  8
HALLE_0_1_EG
  6
Continuous
100
AcDbPolyline
 90
        4
 70
     1
 43
0.0
 10
38.4282646262971
 20
-42.5058311387698
 10
54.72078209205839
 20
-42.5058311387698
 10
54.72078209205839
 20
-47.55084127523357
 10
38.4282646262971
 20
-47.55084127523357
  0
LINE
  5
B6
102
{ACAD_REACTORS
330
AC
102
}
330
75
100
AcDbEntity
  8
HALLE_0_1_EG
  6
Continuous
100
AcDbLine
 10
48.73245985784811
 20
-42.51203392114498
 30
0.0
 11
48.73245985784811
 21
-47.55704405760875
 31
0.0
  0
LINE
  5
B7
102
{ACAD_REACTORS
330
AC
102
}
330
75
100
AcDbEntity
  8
HALLE_0_1_EG
  6
Continuous
100
AcDbLine
 10
38.4282646262971
 20
-45.10732229512585
 30
0.0
 11
48.73245985784811
 21
-45.10732229512585
 31
0.0
  0
LINE
  5
B8
102
{ACAD_REACTORS
330
AC
102
}
330
75
100
AcDbEntity
  8
HALLE_0_1_EG
  6
Continuous
100
AcDbLine
 10
38.4282646262971
 20
-46.5037636997411
 30
0.0
 11
48.73245985784811
 21
-46.5037636997411
 31
0.0
  0
LINE
  5
B9
102
{ACAD_REACTORS
330
AC
102
}
330
75
100
AcDbEntity
  8
HALLE_0_1_EG
  6
Continuous
100
AcDbLine
 10
43.6366569708179
 20
-46.51599282546498
 30
0.0
 11
43.6366569708179
 21
-47.54072851526014
 31
0.0
  0
TEXT
  5
BA
102
{ACAD_REACTORS
330
AC
102
}
330
75
100
AcDbEntity
  8
HALLE_0_1_EG
  6
Continuous
100
AcDbText
 10
49.20142010107723
 20
-43.26256206587476
 30
0.0
 40
0.375
  1
Thun-Expo
  7
ARIAL
100
AcDbText
  0
TEXT
  5
BB
102
{ACAD_REACTORS
330
AC
102
}
330
75
100
AcDbEntity
  8
HALLE_0_1_EG
  6
Continuous
100
AcDbText
 10
49.20142010107723
 20
-43.82506206587478
 30
0.0
 40
0.375
  1
Mittlere Strasse 27
  7
ARIAL
100
AcDbText
  0
TEXT
  5
BC
102
{ACAD_REACTORS
330
AC
102
}
330
75
100
AcDbEntity
  8
HALLE_0_1_EG
  6
Continuous
100
AcDbText
 10
49.20142010107723
 20
-44.38756206587477
 30
0.0
 40
0.375
  1
Postfach 879
  7
ARIAL
100
AcDbText
  0
TEXT
  5
BD
102
{ACAD_REACTORS
330
AC
102
}
330
75
100
AcDbEntity
  8
HALLE_0_1_EG
  6
Continuous
100
AcDbText
 10
49.20142010107723
 20
-44.95006206587477
 30
0.0
 40
0.375
  1
3607 Thun
  7
ARIAL
100
AcDbText
  0
TEXT
  5
BE
102
{ACAD_REACTORS
330
AC
102
}
330
75
100
AcDbEntity
  8
HALLE_0_1_EG
  6
Continuous
100
AcDbText
 10
49.19760628253667
 20
-46.12795465982117
 30
0.0
 40
0.3750000000000001
  1
Fon  +41 33 225 11 20
  7
ARIAL
100
AcDbText
  0
TEXT
  5
BF
102
{ACAD_REACTORS
330
AC
102
}
330
75
100
AcDbEntity
  8
HALLE_0_1_EG
  6
Continuous
100
AcDbText
 10
49.19760628253667
 20
-46.69045465982118
 30
0.0
 40
0.3750000000000001
  1
Fax  +41 33 225 11 28
  7
ARIAL
100
AcDbText
  0
TEXT
  5
C0
102
{ACAD_REACTORS
330
AC
102
}
330
75
100
AcDbEntity
  8
HALLE_0_1_EG
  6
Continuous
100
AcDbText
 10
49.19760628253667
 20
-47.25295465982117
 30
0.0
 40
0.3750000000000001
  1
Mail  info@thun-expo.ch
  7
ARIAL
100
AcDbText
  0
LINE
  5
C1
330
75
100
AcDbEntity
  8
GRUNDRISS
  6
Continuous
100
AcDbLine
 10
-11.00652746119391
 20
-17.70171220128196
 30
0.0
 11
-10.99850938167947
 21
-0.5017122012828188
 31
0.0
  0
ARC
  5
C2
330
75
100
AcDbEntity
  8
GRUNDRISS
  6
Continuous
100
AcDbCircle
 10
41.7513973848387
 20
-40.20171220128061
 30
0.0
 40
1.5
100
AcDbArc
 50
270.0
 51
0.0
  0
LINE
  5
C3
330
75
100
AcDbEntity
  8
GRUNDRISS
  6
Continuous
100
AcDbLine
 10
48.40139738483885
 20
-15.19362325091553
 30
0.0
 11
48.70139738483899
 21
-15.19362325091553
 31
0.0
  0
LINE
  5
C4
330
75
100
AcDbEntity
  8
GRUNDRISS
  6
Continuous
100
AcDbLine
 10
48.40139738483885
 20
-11.98063478694081
 30
0.0
 11
48.40139738483885
 21
-15.19362325091553
 31
0.0
  0
LINE
  5
C5
330
75
100
AcDbEntity
  8
GRUNDRISS
  6
Continuous
100
AcDbLine
 10
48.70139738483899
 20
-11.98063478694081
 30
0.0
 11
48.70139738483899
 21
-13.61171220128124
 31
0.0
  0
LINE
  5
C6
330
75
100
AcDbEntity
  8
GRUNDRISS
  6
Continuous
100
AcDbLine
 10
-8.178602615161475
 20
-0.5017122012828188
 30
0.0
 11
-8.178602615161475
 21
-0.2017122012826675
 31
0.0
  0
LINE
  5
C7
330
75
100
AcDbEntity
  8
GRUNDRISS
  6
Continuous
100
AcDbLine
 10
-11.29860261516234
 20
-0.2017122012826675
 30
0.0
 11
-8.178602615161475
 21
-0.2017122012826675
 31
0.0
  0
LINE
  5
C8
330
75
100
AcDbEntity
  8
GRUNDRISS
  6
Continuous
100
AcDbLine
 10
-10.99850938167947
 20
-0.5017122012828188
 30
0.0
 11
-8.178602615161475
 21
-0.5017122012828188
 31
0.0
  0
LINE
  5
C9
330
75
100
AcDbEntity
  8
GRUNDRISS
  6
Continuous
100
AcDbLine
 10
37.45139738483671
 20
-0.5017122012828246
 30
0.0
 11
37.45139738483671
 21
-0.2017122012826791
 31
0.0
  0
LINE
  5
CA
330
75
100
AcDbEntity
  8
GRUNDRISS
  6
Continuous
100
AcDbLine
 10
-5.178602615163035
 20
-0.2017122012826675
 30
0.0
 11
37.45139738483671
 21
-0.2017122012826791
 31
0.0
  0
LINE
  5
CB
330
75
100
AcDbEntity
  8
GRUNDRISS
  6
Continuous
100
AcDbLine
 10
-5.178602615163035
 20
-0.5017122012828188
 30
0.0
 11
37.45139738483671
 21
-0.5017122012828246
 31
0.0
  0
LINE
  5
CC
330
75
100
AcDbEntity
  8
GRUNDRISS
  6
Continuous
100
AcDbLine
 10
-5.178602615163035
 20
-0.5017122012828188
 30
0.0
 11
-5.178602615163035
 21
-0.2017122012826675
 31
0.0
  0
LINE
  5
CD
330
75
100
AcDbEntity
  8
GRUNDRISS
  6
Continuous
100
AcDbLine
 10
40.4513973848381
 20
-0.2017122012826791
 30
0.0
 11
48.70139738483899
 21
-0.2017122012826791
 31
0.0
  0
LINE
  5
CE
330
75
100
AcDbEntity
  8
GRUNDRISS
  6
Continuous
100
AcDbLine
 10
40.4513973848381
 20
-0.5017122012828246
 30
0.0
 11
48.40139738483885
 21
-0.5017122012828246
 31
0.0
  0
LINE
  5
CF
330
75
100
AcDbEntity
  8
GRUNDRISS
  6
Continuous
100
AcDbLine
 10
40.4513973848381
 20
-0.5017122012828246
 30
0.0
 11
40.4513973848381
 21
-0.2017122012826791
 31
0.0
  0
LINE
  5
D0
330
75
100
AcDbEntity
  8
GRUNDRISS
  6
Continuous
100
AcDbLine
 10
48.40139738483885
 20
-6.411712201280844
 30
0.0
 11
48.70139738483899
 21
-6.411712201280844
 31
0.0
  0
LINE
  5
D1
330
75
100
AcDbEntity
  8
GRUNDRISS
  6
Continuous
100
AcDbLine
 10
48.70139738483899
 20
-6.271712201281962
 30
0.0
 11
48.70139738483899
 21
-6.411712201280844
 31
0.0
  0
LINE
  5
D2
330
75
100
AcDbEntity
  8
GRUNDRISS
  6
Continuous
100
AcDbLine
 10
48.40139738483885
 20
-0.5017122012828246
 30
0.0
 11
48.40139738483885
 21
-6.411712201280844
 31
0.0
  0
LINE
  5
D3
330
75
100
AcDbEntity
  8
GRUNDRISS
  6
Continuous
100
AcDbLine
 10
48.70139738483899
 20
-0.2017122012826791
 30
0.0
 11
48.70139738483899
 21
-5.941712201281218
 31
0.0
  0
LINE
  5
D4
330
75
100
AcDbEntity
  8
GRUNDRISS
  6
Continuous
100
AcDbLine
 10
48.70139738483899
 20
-6.411712201280844
 30
0.0
 11
48.70139738483899
 21
-7.356712201282172
 31
0.0
  0
LINE
  5
D5
330
75
100
AcDbEntity
  8
GRUNDRISS
  6
Continuous
100
AcDbLine
 10
48.40139738483885
 20
-6.411712201280844
 30
0.0
 11
48.40139738483885
 21
-7.356712201282172
 31
0.0
  0
LINE
  5
D6
330
75
100
AcDbEntity
  8
GRUNDRISS
  6
Continuous
100
AcDbLine
 10
48.40139738483885
 20
-7.486712201282823
 30
0.0
 11
48.70139738483899
 21
-7.486712201282823
 31
0.0
  0
LINE
  5
D7
330
75
100
AcDbEntity
  8
GRUNDRISS
  6
Continuous
100
AcDbLine
 10
48.70139738483899
 20
-7.356712201282172
 30
0.0
 11
48.70139738483899
 21
-7.486712201282823
 31
0.0
  0
LINE
  5
D8
330
75
100
AcDbEntity
  8
GRUNDRISS
  6
Continuous
100
AcDbLine
 10
48.40139738483885
 20
-7.356712201282172
 30
0.0
 11
48.40139738483885
 21
-7.486712201282823
 31
0.0
  0
LINE
  5
D9
330
75
100
AcDbEntity
  8
GRUNDRISS
  6
Continuous
100
AcDbLine
 10
48.40139738483885
 20
-7.356712201282172
 30
0.0
 11
48.70139738483899
 21
-7.356712201282172
 31
0.0
  0
LINE
  5
DA
330
75
100
AcDbEntity
  8
GRUNDRISS
  6
Continuous
100
AcDbLine
 10
48.70139738483899
 20
-7.486712201282823
 30
0.0
 11
48.70139738483899
 21
-8.786712201280472
 31
0.0
  0
LINE
  5
DB
330
75
100
AcDbEntity
  8
GRUNDRISS
  6
Continuous
100
AcDbLine
 10
48.40139738483885
 20
-7.486712201282823
 30
0.0
 11
48.40139738483885
 21
-8.786712201280472
 31
0.0
  0
LINE
  5
DC
330
75
100
AcDbEntity
  8
GRUNDRISS
  6
Continuous
100
AcDbLine
 10
48.70139738483899
 20
-9.116712201281217
 30
0.0
 11
48.70139738483899
 21
-11.65671220128122
 31
0.0
  0
LINE
  5
DD
330
75
100
AcDbEntity
  8
GRUNDRISS
  6
Continuous
100
AcDbLine
 10
48.40139738483885
 20
-9.116712201281217
 30
0.0
 11
48.40139738483885
 21
-11.65671220128122
 31
0.0
  0
LINE
  5
DE
330
75
100
AcDbEntity
  8
GRUNDRISS
  6
Continuous
100
AcDbLine
 10
48.40139738483885
 20
-36.41861129684777
 30
0.0
 11
48.70139738483899
 21
-36.41861129684777
 31
0.0
  0
LINE
  5
DF
330
75
100
AcDbEntity
  8
GRUNDRISS
  6
Continuous
100
AcDbLine
 10
48.70139738483899
 20
-22.70171220128133
 30
0.0
 11
48.70139738483899
 21
-36.41861129684777
 31
0.0
  0
LINE
  5
E0
330
75
100
AcDbEntity
  8
GRUNDRISS
  6
Continuous
100
AcDbLine
 10
48.40139738483885
 20
-20.19722824274621
 30
0.0
 11
48.70139738483899
 21
-20.19722824274621
 31
0.0
  0
LINE
  5
E1
330
75
100
AcDbEntity
  8
GRUNDRISS
  6
Continuous
100
AcDbLine
 10
48.70139738483899
 20
-38.39698679008037
 30
0.0
 11
48.70139738483899
 21
-40.20171220128061
 31
0.0
  0
LINE
  5
E2
330
75
100
AcDbEntity
  8
GRUNDRISS
  6
Continuous
100
AcDbLine
 10
48.40139738483885
 20
-38.39698679008037
 30
0.0
 11
48.70139738483899
 21
-38.39698679008037
 31
0.0
  0
LINE
  5
E3
330
75
100
AcDbEntity
  8
GRUNDRISS
  6
Continuous
100
AcDbLine
 10
41.7513973848387
 20
-39.90171220128047
 30
0.0
 11
41.7513973848387
 21
-40.20171220128061
 31
0.0
  0
LINE
  5
E4
330
75
100
AcDbEntity
  8
GRUNDRISS
  6
Continuous
100
AcDbLine
 10
48.70139738483899
 20
-40.20171220128061
 30
0.0
 11
41.7513973848387
 21
-40.20171220128061
 31
0.0
  0
LINE
  5
E5
330
75
100
AcDbEntity
  8
GRUNDRISS
  6
Continuous
100
AcDbLine
 10
48.40139738483885
 20
-39.90171220128047
 30
0.0
 11
43.33139738483708
 21
-39.90171220128047
 31
0.0
  0
LINE
  5
E6
330
75
100
AcDbEntity
  8
GRUNDRISS
  6
Continuous
100
AcDbLine
 10
-5.298602615162511
 20
-39.90171220128047
 30
0.0
 11
-5.298602615162511
 21
-40.20171220128061
 31
0.0
  0
LINE
  5
E7
330
75
100
AcDbEntity
  8
GRUNDRISS
  6
Continuous
100
AcDbLine
 10
38.75139738483731
 20
-40.20171220128061
 30
0.0
 11
-5.298602615162511
 21
-40.20171220128061
 31
0.0
  0
LINE
  5
E8
330
75
100
AcDbEntity
  8
GRUNDRISS
  6
Continuous
100
AcDbLine
 10
38.75139738483731
 20
-39.90171220128047
 30
0.0
 11
-5.298602615162511
 21
-39.90171220128047
 31
0.0
  0
LINE
  5
E9
330
75
100
AcDbEntity
  8
GRUNDRISS
  6
Continuous
100
AcDbLine
 10
38.75139738483731
 20
-39.90171220128047
 30
0.0
 11
38.75139738483731
 21
-40.20171220128061
 31
0.0
  0
LINE
  5
EA
330
75
100
AcDbEntity
  8
GRUNDRISS
  6
Continuous
100
AcDbLine
 10
-8.298602615163908
 20
-40.20171220128061
 30
0.0
 11
-11.29860261516235
 21
-40.20171220128061
 31
0.0
  0
LINE
  5
EB
330
75
100
AcDbEntity
  8
GRUNDRISS
  6
Continuous
100
AcDbLine
 10
-8.298602615163908
 20
-39.90171220128047
 30
0.0
 11
-10.99860261516221
 21
-39.90171220128047
 31
0.0
  0
LINE
  5
EC
330
75
100
AcDbEntity
  8
GRUNDRISS
  6
Continuous
100
AcDbLine
 10
-8.298602615163908
 20
-39.90171220128047
 30
0.0
 11
-8.298602615163908
 21
-40.20171220128061
 31
0.0
  0
LINE
  5
ED
330
75
100
AcDbEntity
  8
GRUNDRISS
  6
Continuous
100
AcDbLine
 10
-10.99860261516221
 20
-22.70171220128133
 30
0.0
 11
-11.29860261516235
 21
-22.70171220128133
 31
0.0
  0
LINE
  5
EE
330
75
100
AcDbEntity
  8
GRUNDRISS
  6
Continuous
100
AcDbLine
 10
-11.29860261516235
 20
-40.20171220128061
 30
0.0
 11
-11.29860261516235
 21
-22.70171220128133
 31
0.0
  0
LINE
  5
EF
330
75
100
AcDbEntity
  8
GRUNDRISS
  6
Continuous
100
AcDbLine
 10
-10.99860261516221
 20
-39.90171220128047
 30
0.0
 11
-10.99860261516221
 21
-22.70171220128133
 31
0.0
  0
LINE
  5
F0
330
75
100
AcDbEntity
  8
GRUNDRISS
  6
Continuous
100
AcDbLine
 10
-11.29860261516235
 20
-17.70171220128196
 30
0.0
 11
-11.29860261516234
 21
-0.2017122012826675
 31
0.0
  0
LINE
  5
F1
330
75
100
AcDbEntity
  8
GRUNDRISS
  6
Continuous
100
AcDbLine
 10
-11.00652746119391
 20
-17.70171220128196
 30
0.0
 11
-11.29860261516235
 21
-17.70171220128196
 31
0.0
  0
LINE
  5
F2
330
75
100
AcDbEntity
  8
GRUNDRISS
  6
Continuous
100
AcDbLine
 10
-11.17860261516288
 20
-17.70171220128196
 30
0.0
 11
-11.17860261516288
 21
-22.70171220128133
 31
0.0
  0
LINE
  5
F3
330
75
100
AcDbEntity
  8
GRUNDRISS
  6
Continuous
100
AcDbLine
 10
48.40139738483885
 20
-15.19601751800605
 30
0.0
 11
48.40139738483885
 21
-20.19601751800543
 31
0.0
  0
LINE
  5
F4
330
75
100
AcDbEntity
  8
GRUNDRISS
  6
Continuous
100
AcDbLine
 10
-11.89860261516263
 20
-33.90171220128063
 30
0.0
 11
-11.89860261516263
 21
-39.10171220128305
 31
0.0
  0
LINE
  5
F5
330
75
100
AcDbEntity
  8
GRUNDRISS
  6
Continuous
100
AcDbLine
 10
-11.89860261516263
 20
-39.10171220128305
 30
0.0
 11
-11.29860261516235
 21
-38.84171220128175
 31
0.0
  0
LINE
  5
F6
330
75
100
AcDbEntity
  8
GRUNDRISS
  6
Continuous
100
AcDbLine
 10
-11.89860261516263
 20
-39.10171220128305
 30
0.0
 11
-12.49860261516291
 21
-38.84171220128175
 31
0.0
  0
LINE
  5
F7
330
75
100
AcDbEntity
  8
GRUNDRISS
  6
Continuous
100
AcDbLine
 10
45.41139738483863
 20
-39.90171220128047
 30
0.0
 11
45.41139738483863
 21
-38.83405848323941
 31
0.0
  0
LINE
  5
F8
330
75
100
AcDbEntity
  8
GRUNDRISS
  6
Continuous
100
AcDbLine
 10
45.41139738483863
 20
-38.83405848323941
 30
0.0
 11
45.41139738483863
 21
-38.70171220128287
 31
0.0
  0
LINE
  5
F9
330
75
100
AcDbEntity
  8
GRUNDRISS
  6
Continuous
100
AcDbLine
 10
45.68139738483817
 20
-39.90171220128047
 30
0.0
 11
45.41139738483863
 21
-39.90171220128047
 31
0.0
  0
LINE
  5
FA
330
75
100
AcDbEntity
  8
GRUNDRISS
  6
Continuous
100
AcDbLine
 10
45.68139738483817
 20
-38.70171220128287
 30
0.0
 11
45.68139738483817
 21
-39.90171220128047
 31
0.0
  0
LINE
  5
FB
330
75
100
AcDbEntity
  8
GRUNDRISS
  6
Continuous
100
AcDbLine
 10
45.41139738483863
 20
-38.70171220128287
 30
0.0
 11
45.48780754635234
 21
-38.70171220128287
 31
0.0
  0
LINE
  5
FC
330
75
100
AcDbEntity
  8
GRUNDRISS
  6
Continuous
100
AcDbLine
 10
45.48780754635234
 20
-38.70171220128287
 30
0.0
 11
45.68139738483817
 21
-38.70171220128287
 31
0.0
  0
LINE
  5
FD
330
75
100
AcDbEntity
  8
GRUNDRISS
  6
Continuous
100
AcDbLine
 10
45.14139738483614
 20
-39.90171220128047
 30
0.0
 11
45.14139738483614
 21
-39.30171220128019
 31
0.0
  0
LINE
  5
FE
330
75
100
AcDbEntity
  8
GRUNDRISS
  6
Continuous
100
AcDbLine
 10
45.14139738483614
 20
-39.30171220128019
 30
0.0
 11
45.14139738483614
 21
-38.70171220128287
 31
0.0
  0
LINE
  5
FF
330
75
100
AcDbEntity
  8
GRUNDRISS
  6
Continuous
100
AcDbLine
 10
45.41139738483863
 20
-39.90171220128047
 30
0.0
 11
45.14139738483614
 21
-39.90171220128047
 31
0.0
  0
LINE
  5
100
330
75
100
AcDbEntity
  8
GRUNDRISS
  6
Continuous
100
AcDbLine
 10
45.14139738483614
 20
-38.70171220128287
 30
0.0
 11
45.41139738483863
 21
-38.70171220128287
 31
0.0
  0
LINE
  5
101
330
75
100
AcDbEntity
  8
GRUNDRISS
  6
Continuous
100
AcDbLine
 10
44.87139738483661
 20
-39.90171220128047
 30
0.0
 11
44.87139738483661
 21
-38.70171220128287
 31
0.0
  0
LINE
  5
102
330
75
100
AcDbEntity
  8
GRUNDRISS
  6
Continuous
100
AcDbLine
 10
45.14139738483614
 20
-39.90171220128047
 30
0.0
 11
44.87139738483661
 21
-39.90171220128047
 31
0.0
  0
LINE
  5
103
330
75
100
AcDbEntity
  8
GRUNDRISS
  6
Continuous
100
AcDbLine
 10
44.87139738483661
 20
-38.70171220128287
 30
0.0
 11
45.14139738483614
 21
-38.70171220128287
 31
0.0
  0
LINE
  5
104
330
75
100
AcDbEntity
  8
GRUNDRISS
  6
Continuous
100
AcDbLine
 10
43.33139738483708
 20
-39.30171220128019
 30
0.0
 11
47.0313973848388
 21
-39.30171220128019
 31
0.0
  0
LINE
  5
105
330
75
100
AcDbEntity
  8
GRUNDRISS
  6
Continuous
100
AcDbLine
 10
47.0313973848388
 20
-39.30171220128019
 30
0.0
 11
46.7613973848363
 21
-38.70171220128287
 31
0.0
  0
LINE
  5
106
330
75
100
AcDbEntity
  8
GRUNDRISS
  6
Continuous
100
AcDbLine
 10
47.0313973848388
 20
-39.30171220128019
 30
0.0
 11
46.7613973848363
 21
-39.90171220128047
 31
0.0
  0
LINE
  5
107
330
75
100
AcDbEntity
  8
GRUNDRISS
  6
Continuous
100
AcDbLine
 10
-8.298602615163908
 20
-40.20171220128061
 30
0.0
 11
-5.298602615162511
 21
-40.20171220128061
 31
0.0
  0
ARC
  5
108
330
75
100
AcDbEntity
  8
GRUNDRISS
  6
Continuous
100
AcDbCircle
 10
-5.298602615162511
 20
-40.20171220128061
 30
0.0
 40
1.5
100
AcDbArc
 50
180.0
 51
0.0
  0
ARC
  5
109
330
75
100
AcDbEntity
  8
GRUNDRISS
  6
Continuous
100
AcDbCircle
 10
-8.298602615163908
 20
-40.20171220128061
 30
0.0
 40
1.5
100
AcDbArc
 50
180.0
 51
0.0
  0
LINE
  5
10A
330
75
100
AcDbEntity
  8
GRUNDRISS
  6
Continuous
100
AcDbLine
 10
-8.298602615163908
 20
-40.20171220128061
 30
0.0
 11
-8.298602615163908
 21
-41.7017122012813
 31
0.0
  0
LINE
  5
10B
330
75
100
AcDbEntity
  8
GRUNDRISS
  6
Continuous
100
AcDbLine
 10
-5.298602615162511
 20
-40.20171220128061
 30
0.0
 11
-5.298602615162511
 21
-41.7017122012813
 31
0.0
  0
LINE
  5
10C
330
75
100
AcDbEntity
  8
GRUNDRISS
  6
Continuous
100
AcDbLine
 10
-11.29860261516235
 20
-17.70171220128196
 30
0.0
 11
-11.29860261516235
 21
-22.70171220128133
 31
0.0
  0
LINE
  5
10D
330
75
100
AcDbEntity
  8
GRUNDRISS
  6
Continuous
100
AcDbLine
 10
-8.178602615161475
 20
-0.2017122012826675
 30
0.0
 11
-5.178602615163035
 21
-0.2017122012826675
 31
0.0
  0
ARC
  5
10E
330
75
100
AcDbEntity
  8
GRUNDRISS
  6
Continuous
100
AcDbCircle
 10
-8.178602615161475
 20
-0.2017122012826675
 30
0.0
 40
1.5
100
AcDbArc
 50
0.0
 51
180.0
  0
LINE
  5
10F
330
75
100
AcDbEntity
  8
GRUNDRISS
  6
Continuous
100
AcDbLine
 10
-8.178602615161475
 20
-0.2017122012826675
 30
0.0
 11
-8.178602615161475
 21
1.29828779871803
 31
0.0
  0
ARC
  5
110
330
75
100
AcDbEntity
  8
GRUNDRISS
  6
Continuous
100
AcDbCircle
 10
-5.178602615163035
 20
-0.2017122012826675
 30
0.0
 40
1.5
100
AcDbArc
 50
0.0
 51
180.0
  0
LINE
  5
111
330
75
100
AcDbEntity
  8
GRUNDRISS
  6
Continuous
100
AcDbLine
 10
-5.178602615163035
 20
-0.5017122012828188
 30
0.0
 11
-5.178602615163035
 21
1.29828779871803
 31
0.0
  0
LINE
  5
112
330
75
100
AcDbEntity
  8
GRUNDRISS
  6
Continuous
100
AcDbLine
 10
37.45139738483671
 20
-0.2017122012826791
 30
0.0
 11
40.4513973848381
 21
-0.2017122012826791
 31
0.0
  0
ARC
  5
113
330
75
100
AcDbEntity
  8
GRUNDRISS
  6
Continuous
100
AcDbCircle
 10
37.45139738483671
 20
-0.2017122012826791
 30
0.0
 40
1.5
100
AcDbArc
 50
0.0
 51
180.0
  0
LINE
  5
114
330
75
100
AcDbEntity
  8
GRUNDRISS
  6
Continuous
100
AcDbLine
 10
37.45139738483671
 20
-0.2017122012826791
 30
0.0
 11
37.45139738483671
 21
1.298287798718019
 31
0.0
  0
ARC
  5
115
330
75
100
AcDbEntity
  8
GRUNDRISS
  6
Continuous
100
AcDbCircle
 10
40.4513973848381
 20
-0.2017122012826791
 30
0.0
 40
1.5
100
AcDbArc
 50
0.0
 51
180.0
  0
LINE
  5
116
330
75
100
AcDbEntity
  8
GRUNDRISS
  6
Continuous
100
AcDbLine
 10
40.4513973848381
 20
-0.2017122012826791
 30
0.0
 11
40.4513973848381
 21
1.298287798718019
 31
0.0
  0
LINE
  5
117
330
75
100
AcDbEntity
  8
GRUNDRISS
  6
Continuous
100
AcDbLine
 10
43.181397384837
 20
-39.90171220128047
 30
0.0
 11
43.181397384837
 21
-35.45986407423286
 31
0.0
  0
LINE
  5
118
330
75
100
AcDbEntity
  8
GRUNDRISS
  6
Continuous
100
AcDbLine
 10
43.33139738483708
 20
-39.90171220128047
 30
0.0
 11
43.33139738483708
 21
-35.45986407423286
 31
0.0
  0
LINE
  5
119
330
75
100
AcDbEntity
  8
GRUNDRISS
  6
Continuous
100
AcDbLine
 10
43.33139738483708
 20
-38.62671220128135
 30
0.0
 11
47.0313973848388
 21
-38.62671220128136
 31
0.0
  0
LINE
  5
11A
330
75
100
AcDbEntity
  8
GRUNDRISS
  6
Continuous
100
AcDbLine
 10
38.75139738483731
 20
-40.20171220128061
 30
0.0
 11
41.7513973848387
 21
-40.20171220128061
 31
0.0
  0
ARC
  5
11B
330
75
100
AcDbEntity
  8
GRUNDRISS
  6
Continuous
100
AcDbCircle
 10
41.7513973848387
 20
-40.20171220128061
 30
0.0
 40
1.5
100
AcDbArc
 50
180.0
 51
270.0
  0
LINE
  5
11C
330
75
100
AcDbEntity
  8
GRUNDRISS
  6
Continuous
100
AcDbLine
 10
41.7513973848387
 20
-40.20171220128061
 30
0.0
 11
41.7513973848387
 21
-41.7017122012813
 31
0.0
  0
ARC
  5
11D
330
75
100
AcDbEntity
  8
GRUNDRISS
  6
Continuous
100
AcDbCircle
 10
38.75139738483731
 20
-40.20171220128061
 30
0.0
 40
1.5
100
AcDbArc
 50
270.0
 51
0.0
  0
ARC
  5
11E
330
75
100
AcDbEntity
  8
GRUNDRISS
  6
Continuous
100
AcDbCircle
 10
38.75139738483731
 20
-40.20171220128061
 30
0.0
 40
1.5
100
AcDbArc
 50
180.0
 51
270.0
  0
LINE
  5
11F
330
75
100
AcDbEntity
  8
GRUNDRISS
  6
Continuous
100
AcDbLine
 10
38.75139738483731
 20
-40.20171220128061
 30
0.0
 11
38.75139738483731
 21
-41.7017122012813
 31
0.0
  0
TEXT
  5
121
330
75
100
AcDbEntity
  8
GRUNDRISS
100
AcDbText
 10
41.96902262023797
 20
-39.30944557785324
 30
0.0
 40
0.1136434108527132
  1
F
 50
180.0
  7
ARIALB
 11
41.96902262023797
 21
-39.42308898870595
 31
0.0
100
AcDbText
 73
     3
  0
TEXT
  5
123
330
75
100
AcDbEntity
  8
GRUNDRISS
100
AcDbText
 10
41.00139738483835
 20
-0.840355612134164
 30
0.0
 40
0.1136434108527132
  1
F
  7
ARIALB
 11
41.00139738483835
 21
-0.7267122012814508
 31
0.0
100
AcDbText
 73
     3
  0
TEXT
  5
124
330
75
100
AcDbEntity
  8
GRUNDRISS
100
AcDbText
 10
-8.728602615161731
 20
-0.8403556121341582
 30
0.0
 40
0.1136434108527132
  1
F
  7
ARIALB
 11
-8.728602615161731
 21
-0.726712201281445
 31
0.0
100
AcDbText
 73
     3
  0
TEXT
  5
125
330
75
100
AcDbEntity
  8
GRUNDRISS
100
AcDbText
 10
-8.848602615161208
 20
-39.60303061213455
 30
0.0
 40
0.1136434108527132
  1
F
  7
ARIALB
 11
-8.848602615161208
 21
-39.48938720128184
 31
0.0
100
AcDbText
 73
     3
  0
CIRCLE
  5
126
330
75
100
AcDbEntity
  8
GRUNDRISS
  6
Continuous
100
AcDbCircle
 10
24.61139738483782
 20
-39.85171220128044
 30
0.0
 40
0.05
  0
CIRCLE
  5
127
330
75
100
AcDbEntity
  8
GRUNDRISS
  6
Continuous
100
AcDbCircle
 10
15.8913973848373
 20
-39.85171220128044
 30
0.0
 40
0.05
  0
CIRCLE
  5
128
330
75
100
AcDbEntity
  8
GRUNDRISS
  6
Continuous
100
AcDbCircle
 10
8.021397384837188
 20
-39.85171220128044
 30
0.0
 40
0.05
  0
CIRCLE
  5
129
330
75
100
AcDbEntity
  8
GRUNDRISS
  6
Continuous
100
AcDbCircle
 10
-1.828602615161487
 20
-39.85171220128044
 30
0.0
 40
0.05
  0
LINE
  5
12A
330
75
100
AcDbEntity
  8
GRUNDRISS
  6
Continuous
100
AcDbLine
 10
48.70139738483899
 20
-0.2017122012826791
 30
0.0
 11
48.70139738483899
 21
-6.411712201280844
 31
0.0
  0
LINE
  5
12B
330
75
100
AcDbEntity
  8
GRUNDRISS
  6
Continuous
100
AcDbLine
 10
48.40139738483885
 20
-11.65063478694006
 30
0.0
 11
48.80139738483904
 21
-11.65063478694006
 31
0.0
  0
LINE
  5
12C
330
75
100
AcDbEntity
  8
GRUNDRISS
  6
Continuous
100
AcDbLine
 10
48.80139738483904
 20
-11.65063478694006
 30
0.0
 11
48.80139738483904
 21
-11.98063478694081
 31
0.0
  0
LINE
  5
12D
330
75
100
AcDbEntity
  8
GRUNDRISS
  6
Continuous
100
AcDbLine
 10
48.80139738483904
 20
-11.98063478694081
 30
0.0
 11
48.40139738483885
 21
-11.98063478694081
 31
0.0
  0
LINE
  5
12E
330
75
100
AcDbEntity
  8
GRUNDRISS
  6
Continuous
100
AcDbLine
 10
48.40139738483885
 20
-11.98063478694081
 30
0.0
 11
48.40139738483885
 21
-11.65063478694006
 31
0.0
  0
LINE
  5
12F
330
75
100
AcDbEntity
  8
GRUNDRISS
  6
Continuous
100
AcDbLine
 10
48.70139738483899
 20
-10.83171220128231
 30
0.0
 11
48.70139738483899
 21
-9.831712201281845
 31
0.0
  0
LINE
  5
130
330
75
100
AcDbEntity
  8
GRUNDRISS
  6
Continuous
100
AcDbLine
 10
48.70139738483899
 20
-23.99171220128075
 30
0.0
 11
48.70139738483899
 21
-22.99171220128028
 31
0.0
  0
LINE
  5
131
330
75
100
AcDbEntity
  8
GRUNDRISS
  6
Continuous
100
AcDbLine
 10
-12.698602615163
 20
-32.40171220128289
 30
0.0
 11
-12.698602615163
 21
-39.30171220128019
 31
0.0
  0
LINE
  5
132
330
75
100
AcDbEntity
  8
GRUNDRISS
  6
Continuous
100
AcDbLine
 10
-12.698602615163
 20
-39.30171220128019
 30
0.0
 11
-11.29860261516235
 21
-39.30171220128019
 31
0.0
  0
LINE
  5
133
330
75
100
AcDbEntity
  8
GRUNDRISS
  6
Continuous
100
AcDbLine
 10
-11.29860261516235
 20
-39.30171220128019
 30
0.0
 11
-11.29860261516235
 21
-39.10171220128305
 31
0.0
  0
LINE
  5
134
330
75
100
AcDbEntity
  8
GRUNDRISS
  6
Continuous
100
AcDbLine
 10
-11.29860261516235
 20
-39.10171220128305
 30
0.0
 11
-12.49860261516291
 21
-39.10171220128305
 31
0.0
  0
LINE
  5
135
330
75
100
AcDbEntity
  8
GRUNDRISS
  6
Continuous
100
AcDbLine
 10
-12.49860261516291
 20
-39.10171220128305
 30
0.0
 11
-12.49860261516291
 21
-32.60171220128298
 31
0.0
  0
LINE
  5
136
330
75
100
AcDbEntity
  8
GRUNDRISS
  6
Continuous
100
AcDbLine
 10
-12.49860261516291
 20
-32.60171220128298
 30
0.0
 11
-11.29860261516235
 21
-32.60171220128298
 31
0.0
  0
LINE
  5
137
330
75
100
AcDbEntity
  8
GRUNDRISS
  6
Continuous
100
AcDbLine
 10
-11.29860261516235
 20
-32.60171220128298
 30
0.0
 11
-11.29860261516235
 21
-32.40171220128289
 31
0.0
  0
LINE
  5
138
330
75
100
AcDbEntity
  8
GRUNDRISS
  6
Continuous
100
AcDbLine
 10
-11.29860261516235
 20
-32.40171220128289
 30
0.0
 11
-12.698602615163
 21
-32.40171220128289
 31
0.0
  0
LINE
  5
139
330
75
100
AcDbEntity
  8
GRUNDRISS
  6
Continuous
100
AcDbLine
 10
-12.49860261516291
 20
-33.90171220128063
 30
0.0
 11
-11.29860261516235
 21
-33.90171220128063
 31
0.0
  0
LINE
  5
13A
330
75
100
AcDbEntity
  8
GRUNDRISS
  6
Continuous
100
AcDbLine
 10
-11.29860261516235
 20
-33.90171220128063
 30
0.0
 11
-11.29860261516235
 21
-34.16171220128193
 31
0.0
  0
LINE
  5
13B
330
75
100
AcDbEntity
  8
GRUNDRISS
  6
Continuous
100
AcDbLine
 10
-11.29860261516235
 20
-34.16171220128193
 30
0.0
 11
-12.49860261516291
 21
-34.16171220128193
 31
0.0
  0
LINE
  5
13C
330
75
100
AcDbEntity
  8
GRUNDRISS
  6
Continuous
100
AcDbLine
 10
-12.49860261516291
 20
-34.16171220128193
 30
0.0
 11
-12.49860261516291
 21
-33.90171220128063
 31
0.0
  0
LINE
  5
13D
330
75
100
AcDbEntity
  8
GRUNDRISS
  6
Continuous
100
AcDbLine
 10
-12.49860261516291
 20
-34.16171220128193
 30
0.0
 11
-11.29860261516235
 21
-34.16171220128193
 31
0.0
  0
LINE
  5
13E
330
75
100
AcDbEntity
  8
GRUNDRISS
  6
Continuous
100
AcDbLine
 10
-11.29860261516235
 20
-34.16171220128193
 30
0.0
 11
-11.29860261516235
 21
-34.42171220128028
 31
0.0
  0
LINE
  5
13F
330
75
100
AcDbEntity
  8
GRUNDRISS
  6
Continuous
100
AcDbLine
 10
-11.29860261516235
 20
-34.42171220128028
 30
0.0
 11
-12.49860261516291
 21
-34.42171220128028
 31
0.0
  0
LINE
  5
140
330
75
100
AcDbEntity
  8
GRUNDRISS
  6
Continuous
100
AcDbLine
 10
-12.49860261516291
 20
-34.42171220128028
 30
0.0
 11
-12.49860261516291
 21
-34.16171220128193
 31
0.0
  0
LINE
  5
141
330
75
100
AcDbEntity
  8
GRUNDRISS
  6
Continuous
100
AcDbLine
 10
-12.49860261516291
 20
-34.42171220128028
 30
0.0
 11
-11.29860261516235
 21
-34.42171220128028
 31
0.0
  0
LINE
  5
142
330
75
100
AcDbEntity
  8
GRUNDRISS
  6
Continuous
100
AcDbLine
 10
-11.29860261516235
 20
-34.42171220128028
 30
0.0
 11
-11.29860261516235
 21
-34.68171220128159
 31
0.0
  0
LINE
  5
143
330
75
100
AcDbEntity
  8
GRUNDRISS
  6
Continuous
100
AcDbLine
 10
-11.29860261516235
 20
-34.68171220128159
 30
0.0
 11
-12.49860261516291
 21
-34.68171220128159
 31
0.0
  0
LINE
  5
144
330
75
100
AcDbEntity
  8
GRUNDRISS
  6
Continuous
100
AcDbLine
 10
-12.49860261516291
 20
-34.68171220128159
 30
0.0
 11
-12.49860261516291
 21
-34.42171220128028
 31
0.0
  0
LINE
  5
145
330
75
100
AcDbEntity
  8
GRUNDRISS
  6
Continuous
100
AcDbLine
 10
-12.49860261516291
 20
-34.68171220128159
 30
0.0
 11
-11.29860261516235
 21
-34.68171220128159
 31
0.0
  0
LINE
  5
146
330
75
100
AcDbEntity
  8
GRUNDRISS
  6
Continuous
100
AcDbLine
 10
-11.29860261516235
 20
-34.68171220128159
 30
0.0
 11
-11.29860261516235
 21
-34.94171220128289
 31
0.0
  0
LINE
  5
147
330
75
100
AcDbEntity
  8
GRUNDRISS
  6
Continuous
100
AcDbLine
 10
-11.29860261516235
 20
-34.94171220128289
 30
0.0
 11
-12.49860261516291
 21
-34.94171220128289
 31
0.0
  0
LINE
  5
148
330
75
100
AcDbEntity
  8
GRUNDRISS
  6
Continuous
100
AcDbLine
 10
-12.49860261516291
 20
-34.94171220128289
 30
0.0
 11
-12.49860261516291
 21
-34.68171220128159
 31
0.0
  0
LINE
  5
149
330
75
100
AcDbEntity
  8
GRUNDRISS
  6
Continuous
100
AcDbLine
 10
-12.49860261516291
 20
-34.94171220128289
 30
0.0
 11
-11.29860261516235
 21
-34.94171220128289
 31
0.0
  0
LINE
  5
14A
330
75
100
AcDbEntity
  8
GRUNDRISS
  6
Continuous
100
AcDbLine
 10
-11.29860261516235
 20
-34.94171220128289
 30
0.0
 11
-11.29860261516235
 21
-35.20171220128123
 31
0.0
  0
LINE
  5
14B
330
75
100
AcDbEntity
  8
GRUNDRISS
  6
Continuous
100
AcDbLine
 10
-11.29860261516235
 20
-35.20171220128123
 30
0.0
 11
-12.49860261516291
 21
-35.20171220128123
 31
0.0
  0
LINE
  5
14C
330
75
100
AcDbEntity
  8
GRUNDRISS
  6
Continuous
100
AcDbLine
 10
-12.49860261516291
 20
-35.20171220128123
 30
0.0
 11
-12.49860261516291
 21
-34.94171220128289
 31
0.0
  0
LINE
  5
14D
330
75
100
AcDbEntity
  8
GRUNDRISS
  6
Continuous
100
AcDbLine
 10
-12.49860261516291
 20
-35.20171220128123
 30
0.0
 11
-11.29860261516235
 21
-35.20171220128123
 31
0.0
  0
LINE
  5
14E
330
75
100
AcDbEntity
  8
GRUNDRISS
  6
Continuous
100
AcDbLine
 10
-11.29860261516235
 20
-35.20171220128123
 30
0.0
 11
-11.29860261516235
 21
-35.46171220128254
 31
0.0
  0
LINE
  5
14F
330
75
100
AcDbEntity
  8
GRUNDRISS
  6
Continuous
100
AcDbLine
 10
-11.29860261516235
 20
-35.46171220128254
 30
0.0
 11
-12.49860261516291
 21
-35.46171220128254
 31
0.0
  0
LINE
  5
150
330
75
100
AcDbEntity
  8
GRUNDRISS
  6
Continuous
100
AcDbLine
 10
-12.49860261516291
 20
-35.46171220128254
 30
0.0
 11
-12.49860261516291
 21
-35.20171220128123
 31
0.0
  0
LINE
  5
151
330
75
100
AcDbEntity
  8
GRUNDRISS
  6
Continuous
100
AcDbLine
 10
-12.49860261516291
 20
-35.46171220128254
 30
0.0
 11
-11.29860261516235
 21
-35.46171220128254
 31
0.0
  0
LINE
  5
152
330
75
100
AcDbEntity
  8
GRUNDRISS
  6
Continuous
100
AcDbLine
 10
-11.29860261516235
 20
-35.46171220128254
 30
0.0
 11
-11.29860261516235
 21
-35.72171220128089
 31
0.0
  0
LINE
  5
153
330
75
100
AcDbEntity
  8
GRUNDRISS
  6
Continuous
100
AcDbLine
 10
-11.29860261516235
 20
-35.72171220128089
 30
0.0
 11
-12.49860261516291
 21
-35.72171220128089
 31
0.0
  0
LINE
  5
154
330
75
100
AcDbEntity
  8
GRUNDRISS
  6
Continuous
100
AcDbLine
 10
-12.49860261516291
 20
-35.72171220128089
 30
0.0
 11
-12.49860261516291
 21
-35.46171220128254
 31
0.0
  0
LINE
  5
155
330
75
100
AcDbEntity
  8
GRUNDRISS
  6
Continuous
100
AcDbLine
 10
-12.49860261516291
 20
-35.72171220128089
 30
0.0
 11
-11.29860261516235
 21
-35.72171220128089
 31
0.0
  0
LINE
  5
156
330
75
100
AcDbEntity
  8
GRUNDRISS
  6
Continuous
100
AcDbLine
 10
-11.29860261516235
 20
-35.72171220128089
 30
0.0
 11
-11.29860261516235
 21
-35.98171220128218
 31
0.0
  0
LINE
  5
157
330
75
100
AcDbEntity
  8
GRUNDRISS
  6
Continuous
100
AcDbLine
 10
-11.29860261516235
 20
-35.98171220128218
 30
0.0
 11
-12.49860261516291
 21
-35.98171220128218
 31
0.0
  0
LINE
  5
158
330
75
100
AcDbEntity
  8
GRUNDRISS
  6
Continuous
100
AcDbLine
 10
-12.49860261516291
 20
-35.98171220128218
 30
0.0
 11
-12.49860261516291
 21
-35.72171220128089
 31
0.0
  0
LINE
  5
159
330
75
100
AcDbEntity
  8
GRUNDRISS
  6
Continuous
100
AcDbLine
 10
-12.49860261516291
 20
-35.98171220128218
 30
0.0
 11
-11.29860261516235
 21
-35.98171220128218
 31
0.0
  0
LINE
  5
15A
330
75
100
AcDbEntity
  8
GRUNDRISS
  6
Continuous
100
AcDbLine
 10
-11.29860261516235
 20
-35.98171220128218
 30
0.0
 11
-11.29860261516235
 21
-36.24171220128054
 31
0.0
  0
LINE
  5
15B
330
75
100
AcDbEntity
  8
GRUNDRISS
  6
Continuous
100
AcDbLine
 10
-11.29860261516235
 20
-36.24171220128054
 30
0.0
 11
-12.49860261516291
 21
-36.24171220128054
 31
0.0
  0
LINE
  5
15C
330
75
100
AcDbEntity
  8
GRUNDRISS
  6
Continuous
100
AcDbLine
 10
-12.49860261516291
 20
-36.24171220128054
 30
0.0
 11
-12.49860261516291
 21
-35.98171220128218
 31
0.0
  0
LINE
  5
15D
330
75
100
AcDbEntity
  8
GRUNDRISS
  6
Continuous
100
AcDbLine
 10
-12.49860261516291
 20
-36.24171220128054
 30
0.0
 11
-11.29860261516235
 21
-36.24171220128054
 31
0.0
  0
LINE
  5
15E
330
75
100
AcDbEntity
  8
GRUNDRISS
  6
Continuous
100
AcDbLine
 10
-11.29860261516235
 20
-36.24171220128054
 30
0.0
 11
-11.29860261516235
 21
-36.50171220128184
 31
0.0
  0
LINE
  5
15F
330
75
100
AcDbEntity
  8
GRUNDRISS
  6
Continuous
100
AcDbLine
 10
-11.29860261516235
 20
-36.50171220128184
 30
0.0
 11
-12.49860261516291
 21
-36.50171220128184
 31
0.0
  0
LINE
  5
160
330
75
100
AcDbEntity
  8
GRUNDRISS
  6
Continuous
100
AcDbLine
 10
-12.49860261516291
 20
-36.50171220128184
 30
0.0
 11
-12.49860261516291
 21
-36.24171220128054
 31
0.0
  0
LINE
  5
161
330
75
100
AcDbEntity
  8
GRUNDRISS
  6
Continuous
100
AcDbLine
 10
-12.49860261516291
 20
-36.50171220128184
 30
0.0
 11
-11.29860261516235
 21
-36.50171220128184
 31
0.0
  0
LINE
  5
162
330
75
100
AcDbEntity
  8
GRUNDRISS
  6
Continuous
100
AcDbLine
 10
-11.29860261516235
 20
-36.50171220128184
 30
0.0
 11
-11.29860261516235
 21
-36.76171220128315
 31
0.0
  0
LINE
  5
163
330
75
100
AcDbEntity
  8
GRUNDRISS
  6
Continuous
100
AcDbLine
 10
-11.29860261516235
 20
-36.76171220128315
 30
0.0
 11
-12.49860261516291
 21
-36.76171220128315
 31
0.0
  0
LINE
  5
164
330
75
100
AcDbEntity
  8
GRUNDRISS
  6
Continuous
100
AcDbLine
 10
-12.49860261516291
 20
-36.76171220128315
 30
0.0
 11
-12.49860261516291
 21
-36.50171220128184
 31
0.0
  0
LINE
  5
165
330
75
100
AcDbEntity
  8
GRUNDRISS
  6
Continuous
100
AcDbLine
 10
-12.49860261516291
 20
-36.76171220128315
 30
0.0
 11
-11.29860261516235
 21
-36.76171220128315
 31
0.0
  0
LINE
  5
166
330
75
100
AcDbEntity
  8
GRUNDRISS
  6
Continuous
100
AcDbLine
 10
-11.29860261516235
 20
-36.76171220128315
 30
0.0
 11
-11.29860261516235
 21
-37.02171220128149
 31
0.0
  0
LINE
  5
167
330
75
100
AcDbEntity
  8
GRUNDRISS
  6
Continuous
100
AcDbLine
 10
-11.29860261516235
 20
-37.02171220128149
 30
0.0
 11
-12.49860261516291
 21
-37.02171220128149
 31
0.0
  0
LINE
  5
168
330
75
100
AcDbEntity
  8
GRUNDRISS
  6
Continuous
100
AcDbLine
 10
-12.49860261516291
 20
-37.02171220128149
 30
0.0
 11
-12.49860261516291
 21
-36.76171220128315
 31
0.0
  0
LINE
  5
169
330
75
100
AcDbEntity
  8
GRUNDRISS
  6
Continuous
100
AcDbLine
 10
-12.49860261516291
 20
-37.02171220128149
 30
0.0
 11
-11.29860261516235
 21
-37.02171220128149
 31
0.0
  0
LINE
  5
16A
330
75
100
AcDbEntity
  8
GRUNDRISS
  6
Continuous
100
AcDbLine
 10
-11.29860261516235
 20
-37.02171220128149
 30
0.0
 11
-11.29860261516235
 21
-37.2817122012828
 31
0.0
  0
LINE
  5
16B
330
75
100
AcDbEntity
  8
GRUNDRISS
  6
Continuous
100
AcDbLine
 10
-11.29860261516235
 20
-37.2817122012828
 30
0.0
 11
-12.49860261516291
 21
-37.2817122012828
 31
0.0
  0
LINE
  5
16C
330
75
100
AcDbEntity
  8
GRUNDRISS
  6
Continuous
100
AcDbLine
 10
-12.49860261516291
 20
-37.2817122012828
 30
0.0
 11
-12.49860261516291
 21
-37.02171220128149
 31
0.0
  0
LINE
  5
16D
330
75
100
AcDbEntity
  8
GRUNDRISS
  6
Continuous
100
AcDbLine
 10
-12.49860261516291
 20
-37.2817122012828
 30
0.0
 11
-11.29860261516235
 21
-37.2817122012828
 31
0.0
  0
LINE
  5
16E
330
75
100
AcDbEntity
  8
GRUNDRISS
  6
Continuous
100
AcDbLine
 10
-11.29860261516235
 20
-37.2817122012828
 30
0.0
 11
-11.29860261516235
 21
-37.54171220128114
 31
0.0
  0
LINE
  5
16F
330
75
100
AcDbEntity
  8
GRUNDRISS
  6
Continuous
100
AcDbLine
 10
-11.29860261516235
 20
-37.54171220128114
 30
0.0
 11
-12.49860261516291
 21
-37.54171220128114
 31
0.0
  0
LINE
  5
170
330
75
100
AcDbEntity
  8
GRUNDRISS
  6
Continuous
100
AcDbLine
 10
-12.49860261516291
 20
-37.54171220128114
 30
0.0
 11
-12.49860261516291
 21
-37.2817122012828
 31
0.0
  0
LINE
  5
171
330
75
100
AcDbEntity
  8
GRUNDRISS
  6
Continuous
100
AcDbLine
 10
-12.49860261516291
 20
-37.54171220128114
 30
0.0
 11
-11.29860261516235
 21
-37.54171220128114
 31
0.0
  0
LINE
  5
172
330
75
100
AcDbEntity
  8
GRUNDRISS
  6
Continuous
100
AcDbLine
 10
-11.29860261516235
 20
-37.54171220128114
 30
0.0
 11
-11.29860261516235
 21
-37.80171220128244
 31
0.0
  0
LINE
  5
173
330
75
100
AcDbEntity
  8
GRUNDRISS
  6
Continuous
100
AcDbLine
 10
-11.29860261516235
 20
-37.80171220128244
 30
0.0
 11
-12.49860261516291
 21
-37.80171220128244
 31
0.0
  0
LINE
  5
174
330
75
100
AcDbEntity
  8
GRUNDRISS
  6
Continuous
100
AcDbLine
 10
-12.49860261516291
 20
-37.80171220128244
 30
0.0
 11
-12.49860261516291
 21
-37.54171220128114
 31
0.0
  0
LINE
  5
175
330
75
100
AcDbEntity
  8
GRUNDRISS
  6
Continuous
100
AcDbLine
 10
-12.49860261516291
 20
-37.80171220128244
 30
0.0
 11
-11.29860261516235
 21
-37.80171220128244
 31
0.0
  0
LINE
  5
176
330
75
100
AcDbEntity
  8
GRUNDRISS
  6
Continuous
100
AcDbLine
 10
-11.29860261516235
 20
-37.80171220128244
 30
0.0
 11
-11.29860261516235
 21
-38.06171220128079
 31
0.0
  0
LINE
  5
177
330
75
100
AcDbEntity
  8
GRUNDRISS
  6
Continuous
100
AcDbLine
 10
-11.29860261516235
 20
-38.06171220128079
 30
0.0
 11
-12.49860261516291
 21
-38.06171220128079
 31
0.0
  0
LINE
  5
178
330
75
100
AcDbEntity
  8
GRUNDRISS
  6
Continuous
100
AcDbLine
 10
-12.49860261516291
 20
-38.06171220128079
 30
0.0
 11
-12.49860261516291
 21
-37.80171220128244
 31
0.0
  0
LINE
  5
179
330
75
100
AcDbEntity
  8
GRUNDRISS
  6
Continuous
100
AcDbLine
 10
-12.49860261516291
 20
-38.06171220128079
 30
0.0
 11
-11.29860261516235
 21
-38.06171220128079
 31
0.0
  0
LINE
  5
17A
330
75
100
AcDbEntity
  8
GRUNDRISS
  6
Continuous
100
AcDbLine
 10
-11.29860261516235
 20
-38.06171220128079
 30
0.0
 11
-11.29860261516235
 21
-38.3217122012821
 31
0.0
  0
LINE
  5
17B
330
75
100
AcDbEntity
  8
GRUNDRISS
  6
Continuous
100
AcDbLine
 10
-11.29860261516235
 20
-38.3217122012821
 30
0.0
 11
-12.49860261516291
 21
-38.3217122012821
 31
0.0
  0
LINE
  5
17C
330
75
100
AcDbEntity
  8
GRUNDRISS
  6
Continuous
100
AcDbLine
 10
-12.49860261516291
 20
-38.3217122012821
 30
0.0
 11
-12.49860261516291
 21
-38.06171220128079
 31
0.0
  0
LINE
  5
17D
330
75
100
AcDbEntity
  8
GRUNDRISS
  6
Continuous
100
AcDbLine
 10
-12.49860261516291
 20
-38.3217122012821
 30
0.0
 11
-11.29860261516235
 21
-38.3217122012821
 31
0.0
  0
LINE
  5
17E
330
75
100
AcDbEntity
  8
GRUNDRISS
  6
Continuous
100
AcDbLine
 10
-11.29860261516235
 20
-38.3217122012821
 30
0.0
 11
-11.29860261516235
 21
-38.5817122012834
 31
0.0
  0
LINE
  5
17F
330
75
100
AcDbEntity
  8
GRUNDRISS
  6
Continuous
100
AcDbLine
 10
-11.29860261516235
 20
-38.5817122012834
 30
0.0
 11
-12.49860261516291
 21
-38.5817122012834
 31
0.0
  0
LINE
  5
180
330
75
100
AcDbEntity
  8
GRUNDRISS
  6
Continuous
100
AcDbLine
 10
-12.49860261516291
 20
-38.5817122012834
 30
0.0
 11
-12.49860261516291
 21
-38.3217122012821
 31
0.0
  0
LINE
  5
181
330
75
100
AcDbEntity
  8
GRUNDRISS
  6
Continuous
100
AcDbLine
 10
-12.49860261516291
 20
-38.5817122012834
 30
0.0
 11
-11.29860261516235
 21
-38.5817122012834
 31
0.0
  0
LINE
  5
182
330
75
100
AcDbEntity
  8
GRUNDRISS
  6
Continuous
100
AcDbLine
 10
-11.29860261516235
 20
-38.5817122012834
 30
0.0
 11
-11.29860261516235
 21
-38.84171220128175
 31
0.0
  0
LINE
  5
183
330
75
100
AcDbEntity
  8
GRUNDRISS
  6
Continuous
100
AcDbLine
 10
-11.29860261516235
 20
-38.84171220128175
 30
0.0
 11
-12.49860261516291
 21
-38.84171220128175
 31
0.0
  0
LINE
  5
184
330
75
100
AcDbEntity
  8
GRUNDRISS
  6
Continuous
100
AcDbLine
 10
-12.49860261516291
 20
-38.84171220128175
 30
0.0
 11
-12.49860261516291
 21
-38.5817122012834
 31
0.0
  0
LINE
  5
185
330
75
100
AcDbEntity
  8
GRUNDRISS
  6
Continuous
100
AcDbLine
 10
-12.49860261516291
 20
-38.84171220128175
 30
0.0
 11
-11.29860261516235
 21
-38.84171220128175
 31
0.0
  0
LINE
  5
186
330
75
100
AcDbEntity
  8
GRUNDRISS
  6
Continuous
100
AcDbLine
 10
-11.29860261516235
 20
-38.84171220128175
 30
0.0
 11
-11.29860261516235
 21
-39.10171220128305
 31
0.0
  0
LINE
  5
187
330
75
100
AcDbEntity
  8
GRUNDRISS
  6
Continuous
100
AcDbLine
 10
-11.29860261516235
 20
-39.10171220128305
 30
0.0
 11
-12.49860261516291
 21
-39.10171220128305
 31
0.0
  0
LINE
  5
188
330
75
100
AcDbEntity
  8
GRUNDRISS
  6
Continuous
100
AcDbLine
 10
-12.49860261516291
 20
-39.10171220128305
 30
0.0
 11
-12.49860261516291
 21
-38.84171220128175
 31
0.0
  0
LINE
  5
189
330
75
100
AcDbEntity
  8
GRUNDRISS
  6
Continuous
100
AcDbLine
 10
-11.29860261516235
 20
-29.70171220128163
 30
0.0
 11
-11.29860261516235
 21
-30.7017122012821
 31
0.0
  0
LINE
  5
18A
330
75
100
AcDbEntity
  8
GRUNDRISS
  6
Continuous
100
AcDbLine
 10
-11.29860261516235
 20
-9.701712201281187
 30
0.0
 11
-11.29860261516235
 21
-10.70171220128165
 31
0.0
  0
LINE
  5
18B
330
75
100
AcDbEntity
  8
GRUNDRISS
  6
Continuous
100
AcDbLine
 10
46.7613973848363
 20
-38.70171220128287
 30
0.0
 11
47.0313973848388
 21
-38.70171220128287
 31
0.0
  0
LINE
  5
18C
330
75
100
AcDbEntity
  8
GRUNDRISS
  6
Continuous
100
AcDbLine
 10
47.0313973848388
 20
-38.70171220128287
 30
0.0
 11
47.0313973848388
 21
-39.90171220128047
 31
0.0
  0
LINE
  5
18D
330
75
100
AcDbEntity
  8
GRUNDRISS
  6
Continuous
100
AcDbLine
 10
47.0313973848388
 20
-39.90171220128047
 30
0.0
 11
46.7613973848363
 21
-39.90171220128047
 31
0.0
  0
LINE
  5
18E
330
75
100
AcDbEntity
  8
GRUNDRISS
  6
Continuous
100
AcDbLine
 10
46.7613973848363
 20
-39.90171220128047
 30
0.0
 11
46.7613973848363
 21
-38.70171220128287
 31
0.0
  0
LINE
  5
18F
330
75
100
AcDbEntity
  8
GRUNDRISS
  6
Continuous
100
AcDbLine
 10
46.49139738483677
 20
-38.70171220128287
 30
0.0
 11
46.7613973848363
 21
-38.70171220128287
 31
0.0
  0
LINE
  5
190
330
75
100
AcDbEntity
  8
GRUNDRISS
  6
Continuous
100
AcDbLine
 10
46.7613973848363
 20
-38.70171220128287
 30
0.0
 11
46.7613973848363
 21
-39.90171220128047
 31
0.0
  0
LINE
  5
191
330
75
100
AcDbEntity
  8
GRUNDRISS
  6
Continuous
100
AcDbLine
 10
46.7613973848363
 20
-39.90171220128047
 30
0.0
 11
46.49139738483677
 21
-39.90171220128047
 31
0.0
  0
LINE
  5
192
330
75
100
AcDbEntity
  8
GRUNDRISS
  6
Continuous
100
AcDbLine
 10
46.49139738483677
 20
-39.90171220128047
 30
0.0
 11
46.49139738483677
 21
-38.70171220128287
 31
0.0
  0
LINE
  5
193
330
75
100
AcDbEntity
  8
GRUNDRISS
  6
Continuous
100
AcDbLine
 10
46.22139738483723
 20
-38.70171220128287
 30
0.0
 11
46.49139738483677
 21
-38.70171220128287
 31
0.0
  0
LINE
  5
194
330
75
100
AcDbEntity
  8
GRUNDRISS
  6
Continuous
100
AcDbLine
 10
46.49139738483677
 20
-38.70171220128287
 30
0.0
 11
46.49139738483677
 21
-39.90171220128047
 31
0.0
  0
LINE
  5
195
330
75
100
AcDbEntity
  8
GRUNDRISS
  6
Continuous
100
AcDbLine
 10
46.49139738483677
 20
-39.90171220128047
 30
0.0
 11
46.22139738483723
 21
-39.90171220128047
 31
0.0
  0
LINE
  5
196
330
75
100
AcDbEntity
  8
GRUNDRISS
  6
Continuous
100
AcDbLine
 10
46.22139738483723
 20
-39.90171220128047
 30
0.0
 11
46.22139738483723
 21
-38.70171220128287
 31
0.0
  0
LINE
  5
197
330
75
100
AcDbEntity
  8
GRUNDRISS
  6
Continuous
100
AcDbLine
 10
45.9513973848377
 20
-38.70171220128287
 30
0.0
 11
46.22139738483723
 21
-38.70171220128287
 31
0.0
  0
LINE
  5
198
330
75
100
AcDbEntity
  8
GRUNDRISS
  6
Continuous
100
AcDbLine
 10
46.22139738483723
 20
-38.70171220128287
 30
0.0
 11
46.22139738483723
 21
-39.90171220128047
 31
0.0
  0
LINE
  5
199
330
75
100
AcDbEntity
  8
GRUNDRISS
  6
Continuous
100
AcDbLine
 10
46.22139738483723
 20
-39.90171220128047
 30
0.0
 11
45.9513973848377
 21
-39.90171220128047
 31
0.0
  0
LINE
  5
19A
330
75
100
AcDbEntity
  8
GRUNDRISS
  6
Continuous
100
AcDbLine
 10
45.9513973848377
 20
-39.90171220128047
 30
0.0
 11
45.9513973848377
 21
-38.70171220128287
 31
0.0
  0
LINE
  5
19B
330
75
100
AcDbEntity
  8
GRUNDRISS
  6
Continuous
100
AcDbLine
 10
45.68139738483817
 20
-38.70171220128287
 30
0.0
 11
45.9513973848377
 21
-38.70171220128287
 31
0.0
  0
LINE
  5
19C
330
75
100
AcDbEntity
  8
GRUNDRISS
  6
Continuous
100
AcDbLine
 10
45.9513973848377
 20
-38.70171220128287
 30
0.0
 11
45.9513973848377
 21
-39.90171220128047
 31
0.0
  0
LINE
  5
19D
330
75
100
AcDbEntity
  8
GRUNDRISS
  6
Continuous
100
AcDbLine
 10
45.9513973848377
 20
-39.90171220128047
 30
0.0
 11
45.68139738483817
 21
-39.90171220128047
 31
0.0
  0
LINE
  5
19E
330
75
100
AcDbEntity
  8
GRUNDRISS
  6
Continuous
100
AcDbLine
 10
45.68139738483817
 20
-39.90171220128047
 30
0.0
 11
45.68139738483817
 21
-38.70171220128287
 31
0.0
  0
LINE
  5
19F
330
75
100
AcDbEntity
  8
GRUNDRISS
  6
Continuous
100
AcDbLine
 10
44.60139738483707
 20
-38.70171220128287
 30
0.0
 11
44.87139738483661
 21
-38.70171220128287
 31
0.0
  0
LINE
  5
1A0
330
75
100
AcDbEntity
  8
GRUNDRISS
  6
Continuous
100
AcDbLine
 10
44.87139738483661
 20
-38.70171220128287
 30
0.0
 11
44.87139738483661
 21
-39.90171220128047
 31
0.0
  0
LINE
  5
1A1
330
75
100
AcDbEntity
  8
GRUNDRISS
  6
Continuous
100
AcDbLine
 10
44.87139738483661
 20
-39.90171220128047
 30
0.0
 11
44.60139738483707
 21
-39.90171220128047
 31
0.0
  0
LINE
  5
1A2
330
75
100
AcDbEntity
  8
GRUNDRISS
  6
Continuous
100
AcDbLine
 10
44.60139738483707
 20
-39.90171220128047
 30
0.0
 11
44.60139738483707
 21
-38.70171220128287
 31
0.0
  0
LINE
  5
1A3
330
75
100
AcDbEntity
  8
GRUNDRISS
  6
Continuous
100
AcDbLine
 10
44.33139738483754
 20
-38.70171220128287
 30
0.0
 11
44.60139738483707
 21
-38.70171220128287
 31
0.0
  0
LINE
  5
1A4
330
75
100
AcDbEntity
  8
GRUNDRISS
  6
Continuous
100
AcDbLine
 10
44.60139738483707
 20
-38.70171220128287
 30
0.0
 11
44.60139738483707
 21
-39.90171220128047
 31
0.0
  0
LINE
  5
1A5
330
75
100
AcDbEntity
  8
GRUNDRISS
  6
Continuous
100
AcDbLine
 10
44.60139738483707
 20
-39.90171220128047
 30
0.0
 11
44.33139738483754
 21
-39.90171220128047
 31
0.0
  0
LINE
  5
1A6
330
75
100
AcDbEntity
  8
GRUNDRISS
  6
Continuous
100
AcDbLine
 10
44.33139738483754
 20
-39.90171220128047
 30
0.0
 11
44.33139738483754
 21
-38.70171220128287
 31
0.0
  0
LINE
  5
1A7
330
75
100
AcDbEntity
  8
GRUNDRISS
  6
Continuous
100
AcDbLine
 10
44.061397384838
 20
-38.70171220128287
 30
0.0
 11
44.33139738483754
 21
-38.70171220128287
 31
0.0
  0
LINE
  5
1A8
330
75
100
AcDbEntity
  8
GRUNDRISS
  6
Continuous
100
AcDbLine
 10
44.33139738483754
 20
-38.70171220128287
 30
0.0
 11
44.33139738483754
 21
-39.90171220128047
 31
0.0
  0
LINE
  5
1A9
330
75
100
AcDbEntity
  8
GRUNDRISS
  6
Continuous
100
AcDbLine
 10
44.33139738483754
 20
-39.90171220128047
 30
0.0
 11
44.061397384838
 21
-39.90171220128047
 31
0.0
  0
LINE
  5
1AA
330
75
100
AcDbEntity
  8
GRUNDRISS
  6
Continuous
100
AcDbLine
 10
44.061397384838
 20
-39.90171220128047
 30
0.0
 11
44.061397384838
 21
-38.70171220128287
 31
0.0
  0
LINE
  5
1AB
330
75
100
AcDbEntity
  8
GRUNDRISS
  6
Continuous
100
AcDbLine
 10
43.79139738483847
 20
-38.70171220128287
 30
0.0
 11
44.061397384838
 21
-38.70171220128287
 31
0.0
  0
LINE
  5
1AC
330
75
100
AcDbEntity
  8
GRUNDRISS
  6
Continuous
100
AcDbLine
 10
44.061397384838
 20
-38.70171220128287
 30
0.0
 11
44.061397384838
 21
-39.90171220128047
 31
0.0
  0
LINE
  5
1AD
330
75
100
AcDbEntity
  8
GRUNDRISS
  6
Continuous
100
AcDbLine
 10
44.061397384838
 20
-39.90171220128047
 30
0.0
 11
43.79139738483847
 21
-39.90171220128047
 31
0.0
  0
LINE
  5
1AE
330
75
100
AcDbEntity
  8
GRUNDRISS
  6
Continuous
100
AcDbLine
 10
43.79139738483847
 20
-39.90171220128047
 30
0.0
 11
43.79139738483847
 21
-38.70171220128287
 31
0.0
  0
LINE
  5
1AF
330
75
100
AcDbEntity
  8
GRUNDRISS
  6
Continuous
100
AcDbLine
 10
43.52139738483894
 20
-38.70171220128287
 30
0.0
 11
43.79139738483847
 21
-38.70171220128287
 31
0.0
  0
LINE
  5
1B0
330
75
100
AcDbEntity
  8
GRUNDRISS
  6
Continuous
100
AcDbLine
 10
43.79139738483847
 20
-38.70171220128287
 30
0.0
 11
43.79139738483847
 21
-39.90171220128047
 31
0.0
  0
LINE
  5
1B1
330
75
100
AcDbEntity
  8
GRUNDRISS
  6
Continuous
100
AcDbLine
 10
43.79139738483847
 20
-39.90171220128047
 30
0.0
 11
43.52139738483894
 21
-39.90171220128047
 31
0.0
  0
LINE
  5
1B2
330
75
100
AcDbEntity
  8
GRUNDRISS
  6
Continuous
100
AcDbLine
 10
43.52139738483894
 20
-39.90171220128047
 30
0.0
 11
43.52139738483894
 21
-38.70171220128287
 31
0.0
  0
LINE
  5
1B3
330
75
100
AcDbEntity
  8
GRUNDRISS
  6
Continuous
100
AcDbLine
 10
43.33139738483708
 20
-38.5517122012828
 30
0.0
 11
47.0313973848388
 21
-38.5517122012828
 31
0.0
  0
LINE
  5
1B4
330
75
100
AcDbEntity
  8
GRUNDRISS
  6
Continuous
100
AcDbLine
 10
47.0313973848388
 20
-38.5517122012828
 30
0.0
 11
47.0313973848388
 21
-38.70171220128287
 31
0.0
  0
LINE
  5
1B5
330
75
100
AcDbEntity
  8
GRUNDRISS
  6
Continuous
100
AcDbLine
 10
47.0313973848388
 20
-38.70171220128287
 30
0.0
 11
43.33139738483708
 21
-38.70171220128287
 31
0.0
  0
LINE
  5
1B6
330
75
100
AcDbEntity
  8
GRUNDRISS
  6
Continuous
100
AcDbLine
 10
43.33139738483708
 20
-38.70171220128287
 30
0.0
 11
43.33139738483708
 21
-38.5517122012828
 31
0.0
  0
LINE
  5
1B7
330
75
100
AcDbEntity
  8
GRUNDRISS
  6
Continuous
100
AcDbLine
 10
42.05244806709477
 20
-38.84991745782862
 30
0.0
 11
42.05244806709477
 21
-39.84991745782909
 31
0.0
  0
LINE
  5
1B8
330
75
100
AcDbEntity
  8
GRUNDRISS
  6
Continuous
100
AcDbLine
 10
42.05244806709477
 20
-39.84991745782909
 30
0.0
 11
41.85244806709468
 21
-39.84991745782909
 31
0.0
  0
LINE
  5
1B9
330
75
100
AcDbEntity
  8
GRUNDRISS
  6
Continuous
100
AcDbLine
 10
41.85244806709468
 20
-39.84991745782909
 30
0.0
 11
41.85244806709468
 21
-38.84991745782862
 31
0.0
  0
LINE
  5
1BA
330
75
100
AcDbEntity
  8
GRUNDRISS
  6
Continuous
100
AcDbLine
 10
41.85244806709468
 20
-38.84991745782862
 30
0.0
 11
42.05244806709477
 21
-38.84991745782862
 31
0.0
  0
LINE
  5
1BB
330
75
100
AcDbEntity
  8
GRUNDRISS
  6
Continuous
100
AcDbLine
 10
40.50139738483813
 20
-0.5267122012813578
 30
0.0
 11
41.50139738483859
 21
-0.5267122012813578
 31
0.0
  0
LINE
  5
1BC
330
75
100
AcDbEntity
  8
GRUNDRISS
  6
Continuous
100
AcDbLine
 10
41.50139738483859
 20
-0.5267122012813578
 30
0.0
 11
41.50139738483859
 21
-0.7267122012814509
 31
0.0
  0
LINE
  5
1BD
330
75
100
AcDbEntity
  8
GRUNDRISS
  6
Continuous
100
AcDbLine
 10
41.50139738483859
 20
-0.7267122012814509
 30
0.0
 11
40.50139738483813
 21
-0.7267122012814509
 31
0.0
  0
LINE
  5
1BE
330
75
100
AcDbEntity
  8
GRUNDRISS
  6
Continuous
100
AcDbLine
 10
40.50139738483813
 20
-0.7267122012814509
 30
0.0
 11
40.50139738483813
 21
-0.5267122012813578
 31
0.0
  0
LINE
  5
1BF
330
75
100
AcDbEntity
  8
GRUNDRISS
  6
Continuous
100
AcDbLine
 10
-9.228602615161964
 20
-0.526712201281352
 30
0.0
 11
-8.228602615161499
 21
-0.526712201281352
 31
0.0
  0
LINE
  5
1C0
330
75
100
AcDbEntity
  8
GRUNDRISS
  6
Continuous
100
AcDbLine
 10
-8.228602615161499
 20
-0.526712201281352
 30
0.0
 11
-8.228602615161499
 21
-0.7267122012814451
 31
0.0
  0
LINE
  5
1C1
330
75
100
AcDbEntity
  8
GRUNDRISS
  6
Continuous
100
AcDbLine
 10
-8.228602615161499
 20
-0.7267122012814451
 30
0.0
 11
-9.228602615161964
 21
-0.7267122012814451
 31
0.0
  0
LINE
  5
1C2
330
75
100
AcDbEntity
  8
GRUNDRISS
  6
Continuous
100
AcDbLine
 10
-9.228602615161964
 20
-0.7267122012814451
 30
0.0
 11
-9.228602615161964
 21
-0.526712201281352
 31
0.0
  0
LINE
  5
1C3
330
75
100
AcDbEntity
  8
GRUNDRISS
  6
Continuous
100
AcDbLine
 10
-9.348602615161441
 20
-39.67671220128184
 30
0.0
 11
-8.348602615163931
 21
-39.67671220128184
 31
0.0
  0
LINE
  5
1C4
330
75
100
AcDbEntity
  8
GRUNDRISS
  6
Continuous
100
AcDbLine
 10
-8.348602615163931
 20
-39.67671220128184
 30
0.0
 11
-8.348602615163931
 21
-39.87671220128193
 31
0.0
  0
LINE
  5
1C5
330
75
100
AcDbEntity
  8
GRUNDRISS
  6
Continuous
100
AcDbLine
 10
-8.348602615163931
 20
-39.87671220128193
 30
0.0
 11
-9.348602615161441
 21
-39.87671220128193
 31
0.0
  0
LINE
  5
1C6
330
75
100
AcDbEntity
  8
GRUNDRISS
  6
Continuous
100
AcDbLine
 10
-9.348602615161441
 20
-39.87671220128193
 30
0.0
 11
-9.348602615161441
 21
-39.67671220128184
 31
0.0
  0
LINE
  5
1C7
330
75
100
AcDbEntity
  8
GRUNDRISS
  6
Continuous
100
AcDbLine
 10
48.40139738483885
 20
-8.786712201280472
 30
0.0
 11
48.80139738483904
 21
-8.786712201280472
 31
0.0
  0
LINE
  5
1C8
330
75
100
AcDbEntity
  8
GRUNDRISS
  6
Continuous
100
AcDbLine
 10
48.80139738483904
 20
-8.786712201280472
 30
0.0
 11
48.80139738483904
 21
-9.116712201281217
 31
0.0
  0
LINE
  5
1C9
330
75
100
AcDbEntity
  8
GRUNDRISS
  6
Continuous
100
AcDbLine
 10
48.80139738483904
 20
-9.116712201281217
 30
0.0
 11
48.40139738483885
 21
-9.116712201281217
 31
0.0
  0
LINE
  5
1CA
330
75
100
AcDbEntity
  8
GRUNDRISS
  6
Continuous
100
AcDbLine
 10
48.40139738483885
 20
-9.116712201281217
 30
0.0
 11
48.40139738483885
 21
-8.786712201280472
 31
0.0
  0
LINE
  5
1CB
330
75
100
AcDbEntity
  8
GRUNDRISS
  6
Continuous
100
AcDbLine
 10
-11.20860261516349
 20
-40.20171220128061
 30
0.0
 11
-11.14860261516228
 21
-40.20171220128061
 31
0.0
  0
LINE
  5
1CC
330
75
100
AcDbEntity
  8
GRUNDRISS
  6
Continuous
100
AcDbLine
 10
-11.14860261516228
 20
-40.20171220128061
 30
0.0
 11
-11.14860261516228
 21
-40.25171220128062
 31
0.0
  0
LINE
  5
1CD
330
75
100
AcDbEntity
  8
GRUNDRISS
  6
Continuous
100
AcDbLine
 10
-11.14860261516228
 20
-40.25171220128062
 30
0.0
 11
-11.20860261516349
 21
-40.25171220128062
 31
0.0
  0
LINE
  5
1CE
330
75
100
AcDbEntity
  8
GRUNDRISS
  6
Continuous
100
AcDbLine
 10
-11.20860261516349
 20
-40.25171220128062
 30
0.0
 11
-11.20860261516349
 21
-40.20171220128061
 31
0.0
  0
LINE
  5
1CF
330
75
100
AcDbEntity
  8
GRUNDRISS
  6
Continuous
100
AcDbLine
 10
48.55139738483597
 20
-40.20171220128061
 30
0.0
 11
48.61139738483718
 21
-40.20171220128061
 31
0.0
  0
LINE
  5
1D0
330
75
100
AcDbEntity
  8
GRUNDRISS
  6
Continuous
100
AcDbLine
 10
48.61139738483718
 20
-40.20171220128061
 30
0.0
 11
48.61139738483718
 21
-40.25171220128062
 31
0.0
  0
LINE
  5
1D1
330
75
100
AcDbEntity
  8
GRUNDRISS
  6
Continuous
100
AcDbLine
 10
48.61139738483718
 20
-40.25171220128062
 30
0.0
 11
48.55139738483597
 21
-40.25171220128062
 31
0.0
  0
LINE
  5
1D2
330
75
100
AcDbEntity
  8
GRUNDRISS
  6
Continuous
100
AcDbLine
 10
48.55139738483597
 20
-40.25171220128062
 30
0.0
 11
48.55139738483597
 21
-40.20171220128061
 31
0.0
  0
LINE
  5
1D3
330
75
100
AcDbEntity
  8
GRUNDRISS
  6
Continuous
100
AcDbLine
 10
43.36939738483745
 20
-40.20171220128061
 30
0.0
 11
43.41939738483747
 21
-40.20171220128061
 31
0.0
  0
LINE
  5
1D4
330
75
100
AcDbEntity
  8
GRUNDRISS
  6
Continuous
100
AcDbLine
 10
35.0783973848385
 20
-40.20171220128061
 30
0.0
 11
35.37839738483864
 21
-40.20171220128061
 31
0.0
  0
LINE
  5
1D5
330
75
100
AcDbEntity
  8
GRUNDRISS
  6
Continuous
100
AcDbLine
 10
35.37839738483864
 20
-40.20171220128061
 30
0.0
 11
35.37839738483864
 21
-40.38671220128335
 31
0.0
  0
LINE
  5
1D6
330
75
100
AcDbEntity
  8
GRUNDRISS
  6
Continuous
100
AcDbLine
 10
35.37839738483864
 20
-40.38671220128335
 30
0.0
 11
35.0783973848385
 21
-40.38671220128335
 31
0.0
  0
LINE
  5
1D7
330
75
100
AcDbEntity
  8
GRUNDRISS
  6
Continuous
100
AcDbLine
 10
35.0783973848385
 20
-40.38671220128335
 30
0.0
 11
35.0783973848385
 21
-40.20171220128061
 31
0.0
  0
LINE
  5
1D8
330
75
100
AcDbEntity
  8
GRUNDRISS
  6
Continuous
100
AcDbLine
 10
28.46739738483796
 20
-40.20171220128061
 30
0.0
 11
28.7673973848381
 21
-40.20171220128061
 31
0.0
  0
LINE
  5
1D9
330
75
100
AcDbEntity
  8
GRUNDRISS
  6
Continuous
100
AcDbLine
 10
28.7673973848381
 20
-40.20171220128061
 30
0.0
 11
28.7673973848381
 21
-40.38671220128335
 31
0.0
  0
LINE
  5
1DA
330
75
100
AcDbEntity
  8
GRUNDRISS
  6
Continuous
100
AcDbLine
 10
28.7673973848381
 20
-40.38671220128335
 30
0.0
 11
28.46739738483796
 21
-40.38671220128335
 31
0.0
  0
LINE
  5
1DB
330
75
100
AcDbEntity
  8
GRUNDRISS
  6
Continuous
100
AcDbLine
 10
28.46739738483796
 20
-40.38671220128335
 30
0.0
 11
28.46739738483796
 21
-40.20171220128061
 31
0.0
  0
LINE
  5
1DC
330
75
100
AcDbEntity
  8
GRUNDRISS
  6
Continuous
100
AcDbLine
 10
8.634397384836351
 20
-40.20171220128061
 30
0.0
 11
8.93439738483649
 21
-40.20171220128061
 31
0.0
  0
LINE
  5
1DD
330
75
100
AcDbEntity
  8
GRUNDRISS
  6
Continuous
100
AcDbLine
 10
8.93439738483649
 20
-40.20171220128061
 30
0.0
 11
8.93439738483649
 21
-40.3867122012804
 31
0.0
  0
LINE
  5
1DE
330
75
100
AcDbEntity
  8
GRUNDRISS
  6
Continuous
100
AcDbLine
 10
8.93439738483649
 20
-40.3867122012804
 30
0.0
 11
8.634397384836351
 21
-40.3867122012804
 31
0.0
  0
LINE
  5
1DF
330
75
100
AcDbEntity
  8
GRUNDRISS
  6
Continuous
100
AcDbLine
 10
8.634397384836351
 20
-40.3867122012804
 30
0.0
 11
8.634397384836351
 21
-40.20171220128061
 31
0.0
  0
LINE
  5
1E0
330
75
100
AcDbEntity
  8
GRUNDRISS
  6
Continuous
100
AcDbLine
 10
2.023397384838768
 20
-40.20171220128061
 30
0.0
 11
2.323397384838919
 21
-40.20171220128061
 31
0.0
  0
LINE
  5
1E1
330
75
100
AcDbEntity
  8
GRUNDRISS
  6
Continuous
100
AcDbLine
 10
2.323397384838919
 20
-40.20171220128061
 30
0.0
 11
2.323397384838919
 21
-40.3867122012804
 31
0.0
  0
LINE
  5
1E2
330
75
100
AcDbEntity
  8
GRUNDRISS
  6
Continuous
100
AcDbLine
 10
2.323397384838919
 20
-40.3867122012804
 30
0.0
 11
2.023397384838768
 21
-40.3867122012804
 31
0.0
  0
LINE
  5
1E3
330
75
100
AcDbEntity
  8
GRUNDRISS
  6
Continuous
100
AcDbLine
 10
2.023397384838768
 20
-40.3867122012804
 30
0.0
 11
2.023397384838768
 21
-40.20171220128061
 31
0.0
  0
LINE
  5
1E4
330
75
100
AcDbEntity
  8
GRUNDRISS
  6
Continuous
100
AcDbLine
 10
28.5913973848373
 20
-39.90171220128047
 30
0.0
 11
27.61139738483626
 21
-39.90171220128047
 31
0.0
  0
LINE
  5
1E5
330
75
100
AcDbEntity
  8
GRUNDRISS
  6
Continuous
100
AcDbLine
 10
7.021397384836724
 20
-39.90171220128047
 30
0.0
 11
6.021397384839215
 21
-39.90171220128047
 31
0.0
  0
LINE
  5
1E6
330
75
100
AcDbEntity
  8
GRUNDRISS
  6
Continuous
100
AcDbLine
 10
48.70139738483899
 20
-0.2017122012826791
 30
0.0
 11
48.70139738483899
 21
-0.4517122012828013
 31
0.0
  0
LINE
  5
1E7
330
75
100
AcDbEntity
  8
GRUNDRISS
  6
Continuous
100
AcDbLine
 10
48.70139738483899
 20
-4.671712201281217
 30
0.0
 11
48.70139738483899
 21
-4.871712201281311
 31
0.0
  0
LINE
  5
1E8
330
75
100
AcDbEntity
  8
GRUNDRISS
  6
Continuous
100
AcDbLine
 10
48.7003504279221
 20
-2.805717877727281
 30
0.0
 11
48.7003504279221
 21
-3.065717877728585
 31
0.0
  0
LINE
  5
1E9
330
75
100
AcDbEntity
  8
GRUNDRISS
  6
Continuous
100
AcDbLine
 10
48.7003504279221
 20
-2.545717877728934
 30
0.0
 11
48.7003504279221
 21
-2.805717877727281
 31
0.0
  0
LINE
  5
1EA
330
75
100
AcDbEntity
  8
GRUNDRISS
  6
Continuous
100
AcDbLine
 10
48.7003504279221
 20
-2.28571787772763
 30
0.0
 11
48.7003504279221
 21
-2.545717877728934
 31
0.0
  0
LINE
  5
1EB
330
75
100
AcDbEntity
  8
GRUNDRISS
  6
Continuous
100
AcDbLine
 10
48.7003504279221
 20
-2.025717877729283
 30
0.0
 11
48.7003504279221
 21
-2.28571787772763
 31
0.0
  0
LINE
  5
1EC
330
75
100
AcDbEntity
  8
GRUNDRISS
  6
Continuous
100
AcDbLine
 10
48.7003504279221
 20
-1.765717877727979
 30
0.0
 11
48.7003504279221
 21
-2.025717877729283
 31
0.0
  0
LINE
  5
1ED
330
75
100
AcDbEntity
  8
GRUNDRISS
  6
Continuous
100
AcDbLine
 10
48.7003504279221
 20
-1.505717877729632
 30
0.0
 11
48.7003504279221
 21
-1.765717877727979
 31
0.0
  0
LINE
  5
1EE
330
75
100
AcDbEntity
  8
GRUNDRISS
  6
Continuous
100
AcDbLine
 10
48.7003504279221
 20
-1.245717877728329
 30
0.0
 11
48.7003504279221
 21
-1.505717877729632
 31
0.0
  0
LINE
  5
1EF
330
75
100
AcDbEntity
  8
GRUNDRISS
  6
Continuous
100
AcDbLine
 10
48.7003504279221
 20
-0.9857178777299823
 30
0.0
 11
48.7003504279221
 21
-1.245717877728329
 31
0.0
  0
LINE
  5
1F0
330
75
100
AcDbEntity
  8
GRUNDRISS
  6
Continuous
100
AcDbLine
 10
48.7003504279221
 20
-0.7257178777286785
 30
0.0
 11
48.7003504279221
 21
-0.9857178777299823
 31
0.0
  0
LINE
  5
1F1
330
75
100
AcDbEntity
  8
GRUNDRISS
  6
Continuous
100
AcDbLine
 10
48.7003504279221
 20
-0.4657178777273746
 30
0.0
 11
48.7003504279221
 21
-0.7257178777286785
 31
0.0
  0
LINE
  5
1F2
330
75
100
AcDbEntity
  8
GRUNDRISS
  6
Continuous
100
AcDbLine
 10
48.7003504279221
 20
-0.2057178777290219
 30
0.0
 11
48.7003504279221
 21
-0.4657178777273746
 31
0.0
  0
LINE
  5
1F3
330
75
100
AcDbEntity
  8
GRUNDRISS
  6
Continuous
100
AcDbLine
 10
48.70139738483899
 20
-9.751712201281216
 30
0.0
 11
48.70139738483899
 21
-9.831712201281845
 31
0.0
  0
LINE
  5
1F4
330
75
100
AcDbEntity
  8
GRUNDRISS
  6
Continuous
100
AcDbLine
 10
48.70139738483899
 20
-10.83171220128231
 30
0.0
 11
48.70139738483899
 21
-10.91171220128294
 31
0.0
  0
LINE
  5
1F5
330
75
100
AcDbEntity
  8
GRUNDRISS
  6
Continuous
100
AcDbLine
 10
49.2813973848369
 20
-24.07171220128138
 30
0.0
 11
49.2813973848369
 21
-22.91171220128262
 31
0.0
  0
LINE
  5
1F6
330
75
100
AcDbEntity
  8
GRUNDRISS
  6
Continuous
100
AcDbLine
 10
49.2813973848369
 20
-22.91171220128262
 30
0.0
 11
48.70139738483899
 21
-22.91171220128262
 31
0.0
  0
LINE
  5
1F7
330
75
100
AcDbEntity
  8
GRUNDRISS
  6
Continuous
100
AcDbLine
 10
48.70139738483899
 20
-22.91171220128262
 30
0.0
 11
48.70139738483899
 21
-22.99171220128028
 31
0.0
  0
LINE
  5
1F8
330
75
100
AcDbEntity
  8
GRUNDRISS
  6
Continuous
100
AcDbLine
 10
48.70139738483899
 20
-22.99171220128028
 30
0.0
 11
49.20139738483626
 21
-22.99171220128028
 31
0.0
  0
LINE
  5
1F9
330
75
100
AcDbEntity
  8
GRUNDRISS
  6
Continuous
100
AcDbLine
 10
49.20139738483626
 20
-22.99171220128028
 30
0.0
 11
49.20139738483626
 21
-23.99171220128075
 31
0.0
  0
LINE
  5
1FA
330
75
100
AcDbEntity
  8
GRUNDRISS
  6
Continuous
100
AcDbLine
 10
49.20139738483626
 20
-23.99171220128075
 30
0.0
 11
48.70139738483899
 21
-23.99171220128075
 31
0.0
  0
LINE
  5
1FB
330
75
100
AcDbEntity
  8
GRUNDRISS
  6
Continuous
100
AcDbLine
 10
48.70139738483899
 20
-23.99171220128075
 30
0.0
 11
48.70139738483899
 21
-24.07171220128138
 31
0.0
  0
LINE
  5
1FC
330
75
100
AcDbEntity
  8
GRUNDRISS
  6
Continuous
100
AcDbLine
 10
48.70139738483899
 20
-24.07171220128138
 30
0.0
 11
49.2813973848369
 21
-24.07171220128138
 31
0.0
  0
LINE
  5
1FD
330
75
100
AcDbEntity
  8
GRUNDRISS
  6
Continuous
100
AcDbLine
 10
-11.87860261516321
 20
-29.621712201281
 30
0.0
 11
-11.87860261516321
 21
-30.78171220128272
 31
0.0
  0
LINE
  5
1FE
330
75
100
AcDbEntity
  8
GRUNDRISS
  6
Continuous
100
AcDbLine
 10
-11.87860261516321
 20
-30.78171220128272
 30
0.0
 11
-11.29860261516235
 21
-30.78171220128272
 31
0.0
  0
LINE
  5
1FF
330
75
100
AcDbEntity
  8
GRUNDRISS
  6
Continuous
100
AcDbLine
 10
-11.29860261516235
 20
-30.78171220128272
 30
0.0
 11
-11.29860261516235
 21
-30.7017122012821
 31
0.0
  0
LINE
  5
200
330
75
100
AcDbEntity
  8
GRUNDRISS
  6
Continuous
100
AcDbLine
 10
-11.29860261516235
 20
-30.7017122012821
 30
0.0
 11
-11.79860261516258
 21
-30.7017122012821
 31
0.0
  0
LINE
  5
201
330
75
100
AcDbEntity
  8
GRUNDRISS
  6
Continuous
100
AcDbLine
 10
-11.79860261516258
 20
-30.7017122012821
 30
0.0
 11
-11.79860261516258
 21
-29.70171220128163
 31
0.0
  0
LINE
  5
202
330
75
100
AcDbEntity
  8
GRUNDRISS
  6
Continuous
100
AcDbLine
 10
-11.79860261516258
 20
-29.70171220128163
 30
0.0
 11
-11.29860261516235
 21
-29.70171220128163
 31
0.0
  0
LINE
  5
203
330
75
100
AcDbEntity
  8
GRUNDRISS
  6
Continuous
100
AcDbLine
 10
-11.29860261516235
 20
-29.70171220128163
 30
0.0
 11
-11.29860261516235
 21
-29.621712201281
 31
0.0
  0
LINE
  5
204
330
75
100
AcDbEntity
  8
GRUNDRISS
  6
Continuous
100
AcDbLine
 10
-11.29860261516235
 20
-29.621712201281
 30
0.0
 11
-11.87860261516321
 21
-29.621712201281
 31
0.0
  0
LINE
  5
205
330
75
100
AcDbEntity
  8
GRUNDRISS
  6
Continuous
100
AcDbLine
 10
-11.87860261516321
 20
-9.62171220128056
 30
0.0
 11
-11.87860261516321
 21
-10.78171220128228
 31
0.0
  0
LINE
  5
206
330
75
100
AcDbEntity
  8
GRUNDRISS
  6
Continuous
100
AcDbLine
 10
-11.87860261516321
 20
-10.78171220128228
 30
0.0
 11
-11.29860261516235
 21
-10.78171220128228
 31
0.0
  0
LINE
  5
207
330
75
100
AcDbEntity
  8
GRUNDRISS
  6
Continuous
100
AcDbLine
 10
-11.29860261516235
 20
-10.78171220128228
 30
0.0
 11
-11.29860261516235
 21
-10.70171220128165
 31
0.0
  0
LINE
  5
208
330
75
100
AcDbEntity
  8
GRUNDRISS
  6
Continuous
100
AcDbLine
 10
-11.29860261516235
 20
-10.70171220128165
 30
0.0
 11
-11.79860261516258
 21
-10.70171220128165
 31
0.0
  0
LINE
  5
209
330
75
100
AcDbEntity
  8
GRUNDRISS
  6
Continuous
100
AcDbLine
 10
-11.79860261516258
 20
-10.70171220128165
 30
0.0
 11
-11.79860261516258
 21
-9.701712201281187
 31
0.0
  0
LINE
  5
20A
330
75
100
AcDbEntity
  8
GRUNDRISS
  6
Continuous
100
AcDbLine
 10
-11.79860261516258
 20
-9.701712201281187
 30
0.0
 11
-11.29860261516235
 21
-9.701712201281187
 31
0.0
  0
LINE
  5
20B
330
75
100
AcDbEntity
  8
GRUNDRISS
  6
Continuous
100
AcDbLine
 10
-11.29860261516235
 20
-9.701712201281187
 30
0.0
 11
-11.29860261516235
 21
-9.62171220128056
 31
0.0
  0
LINE
  5
20C
330
75
100
AcDbEntity
  8
GRUNDRISS
  6
Continuous
100
AcDbLine
 10
-11.29860261516235
 20
-9.62171220128056
 30
0.0
 11
-11.87860261516321
 21
-9.62171220128056
 31
0.0
  0
LINE
  5
20D
330
75
100
AcDbEntity
  8
GRUNDRISS
  6
Continuous
100
AcDbLine
 10
41.84649191042636
 20
-39.90171220128047
 30
0.0
 11
41.84649191042636
 21
-35.30986407423279
 31
0.0
  0
LINE
  5
20E
330
75
100
AcDbEntity
  8
GRUNDRISS
  6
Continuous
100
AcDbLine
 10
41.99649191042643
 20
-39.90171220128047
 30
0.0
 11
41.99649191042643
 21
-35.45986407423286
 31
0.0
  0
LINE
  5
20F
330
75
100
AcDbEntity
  8
GRUNDRISS
  6
Continuous
100
AcDbLine
 10
43.40785733725879
 20
-35.45986407423287
 30
0.0
 11
43.40785733725879
 21
-35.3098640742328
 31
0.0
  0
LINE
  5
210
330
75
100
AcDbEntity
  8
GRUNDRISS
  6
Continuous
100
AcDbLine
 10
41.99649191042643
 20
-35.45986407423286
 30
0.0
 11
43.181397384837
 21
-35.45986407423286
 31
0.0
  0
LINE
  5
211
330
75
100
AcDbEntity
  8
GRUNDRISS
  6
Continuous
100
AcDbLine
 10
43.33139738483708
 20
-35.45986407423286
 30
0.0
 11
43.40785733725879
 21
-35.45986407423287
 31
0.0
  0
LINE
  5
212
330
75
100
AcDbEntity
  8
GRUNDRISS
  6
Continuous
100
AcDbLine
 10
45.41900920608399
 20
-35.45986407423287
 30
0.0
 11
48.19756953761552
 21
-35.45986407423287
 31
0.0
  0
LINE
  5
213
330
75
100
AcDbEntity
  8
GRUNDRISS
  6
Continuous
100
AcDbLine
 10
48.0775695376131
 20
-35.3098640742328
 30
0.0
 11
45.41900920608399
 21
-35.3098640742328
 31
0.0
  0
LINE
  5
214
330
75
100
AcDbEntity
  8
GRUNDRISS
  6
Continuous
100
AcDbLine
 10
43.40785733725879
 20
-35.3098640742328
 30
0.0
 11
41.84649191042636
 21
-35.30986407423279
 31
0.0
  0
LINE
  5
215
330
75
100
AcDbEntity
  8
GRUNDRISS
  6
Continuous
100
AcDbLine
 10
45.41900920608399
 20
-35.45986407423287
 30
0.0
 11
45.41900920608399
 21
-35.3098640742328
 31
0.0
  0
LINE
  5
216
330
75
100
AcDbEntity
  8
GRUNDRISS
  6
Continuous
100
AcDbLine
 10
48.0775695376131
 20
-34.1119344515756
 30
0.0
 11
48.0775695376131
 21
-35.3098640742328
 31
0.0
  0
LINE
  5
217
330
75
100
AcDbEntity
  8
GRUNDRISS
  6
Continuous
100
AcDbLine
 10
48.19756953761552
 20
-35.45986407423287
 30
0.0
 11
48.19756953761552
 21
-34.23193445157507
 31
0.0
  0
LINE
  5
218
330
75
100
AcDbEntity
  8
GRUNDRISS
  6
Continuous
100
AcDbLine
 10
48.40139738483885
 20
-20.19722824274621
 30
0.0
 11
48.40139738483885
 21
-34.1119344515756
 31
0.0
  0
LINE
  5
219
330
75
100
AcDbEntity
  8
GRUNDRISS
  6
Continuous
100
AcDbLine
 10
48.40139738483885
 20
-34.23193445157507
 30
0.0
 11
48.40139738483885
 21
-39.90171220128047
 31
0.0
  0
LINE
  5
21A
330
75
100
AcDbEntity
  8
GRUNDRISS
  6
Continuous
100
AcDbLine
 10
48.19756953761552
 20
-34.23193445157507
 30
0.0
 11
48.40139738483885
 21
-34.23193445157507
 31
0.0
  0
LINE
  5
21B
330
75
100
AcDbEntity
  8
GRUNDRISS
  6
Continuous
100
AcDbLine
 10
48.40139738483885
 20
-34.1119344515756
 30
0.0
 11
48.0775695376131
 21
-34.1119344515756
 31
0.0
  0
LINE
  5
21C
330
75
100
AcDbEntity
  8
GRUNDRISS
  6
Continuous
100
AcDbLine
 10
43.181397384837
 20
-39.90171220128047
 30
0.0
 11
41.99649191042643
 21
-39.90171220128047
 31
0.0
  0
LINE
  5
21D
330
75
100
AcDbEntity
  8
GRUNDRISS
  6
Continuous
100
AcDbLine
 10
41.84649191042636
 20
-39.90171220128047
 30
0.0
 11
41.7513973848387
 21
-39.90171220128047
 31
0.0
  0
LINE
  5
21E
330
75
100
AcDbEntity
  8
GRUNDRISS
  6
Continuous
100
AcDbLine
 10
48.48706253395507
 20
-36.41861129684777
 30
0.0
 11
48.48706253395507
 21
-38.39698679008037
 31
0.0
  0
LINE
  5
21F
330
75
100
AcDbEntity
  8
GRUNDRISS
  6
Continuous
100
AcDbLine
 10
48.70139738483899
 20
-20.19722824274621
 30
0.0
 11
48.70139738483899
 21
-28.56171220128229
 31
0.0
  0
LINE
  5
220
330
75
100
AcDbEntity
  8
GRUNDRISS
  6
Continuous
100
AcDbLine
 10
48.70139738483899
 20
-6.411712201280844
 30
0.0
 11
48.70139738483899
 21
-15.19362325091553
 31
0.0
  0
LINE
  5
221
330
75
100
AcDbEntity
  8
GRUNDRISS
  6
Continuous
100
AcDbLine
 10
48.52139738483831
 20
-15.19612325091508
 30
0.0
 11
48.52139738483831
 21
-20.19472824274664
 31
0.0
  0
LINE
  5
223
102
{ACAD_REACTORS
330
222
102
}
330
75
100
AcDbEntity
  8
SW_HALLENWAND
100
AcDbLine
 10
48.40188969741671
 20
-34.07518381205048
 30
0.0
 11
48.40119009170779
 21
-0.4998213044737934
 31
0.0
  0
LINE
  5
224
102
{ACAD_REACTORS
330
222
102
}
330
75
100
AcDbEntity
  8
SW_HALLENWAND
100
AcDbLine
 10
48.40119009170779
 20
-0.4998213044737934
 30
0.0
 11
-10.99756945307851
 21
-0.5019785565166912
 31
0.0
  0
LINE
  5
225
102
{ACAD_REACTORS
330
222
102
}
330
75
100
AcDbEntity
  8
SW_HALLENWAND
100
AcDbLine
 10
-10.99756945307851
 20
-0.5019785565166912
 30
0.0
 11
-10.99787425653489
 21
-39.90154598233792
 31
0.0
  0
LINE
  5
226
102
{ACAD_REACTORS
330
222
102
}
330
75
100
AcDbEntity
  8
SW_HALLENWAND
100
AcDbLine
 10
-10.99787425653489
 20
-39.90154598233792
 30
0.0
 11
41.84649191042636
 21
-39.9016915485281
 31
0.0
  0
LINE
  5
227
102
{ACAD_REACTORS
330
222
102
}
330
75
100
AcDbEntity
  8
SW_HALLENWAND
100
AcDbLine
 10
48.06281523862764
 20
-34.07518351830714
 30
0.0
 11
48.40188969741671
 21
-34.07518381205048
 31
0.0
  0
LINE
  5
228
102
{ACAD_REACTORS
330
222
102
}
330
75
100
AcDbEntity
  8
SW_HALLENWAND
100
AcDbLine
 10
48.06281523862764
 20
-34.07518351830714
 30
0.0
 11
48.06281523862764
 21
-35.30986636458214
 31
0.0
  0
LINE
  5
229
102
{ACAD_REACTORS
330
222
102
}
330
75
100
AcDbEntity
  8
SW_HALLENWAND
100
AcDbLine
 10
41.84649191042636
 20
-35.30986097933603
 30
0.0
 11
48.06281523862764
 21
-35.30986636458214
 31
0.0
  0
LINE
  5
22A
102
{ACAD_REACTORS
330
222
102
}
330
75
100
AcDbEntity
  8
SW_HALLENWAND
100
AcDbLine
 10
41.84649191042636
 20
-35.30986097933603
 30
0.0
 11
41.84649191042636
 21
-39.9016915485281
 31
0.0
  0
LINE
  5
22B
330
75
100
AcDbEntity
  8
GRUNDRISS
  6
Continuous
100
AcDbLine
 10
43.40785733725879
 20
-35.45986407423287
 30
0.0
 11
45.41900920608399
 21
-35.45986407423287
 31
0.0
  0
LINE
  5
22C
330
75
100
AcDbEntity
  8
GRUNDRISS
  6
Continuous
100
AcDbLine
 10
43.40785733725879
 20
-35.38041025191897
 30
0.0
 11
45.41900920608399
 21
-35.38041025191897
 31
0.0
  0
LINE
  5
22E
102
{ACAD_REACTORS
330
22D
102
}
330
75
100
AcDbEntity
  8
GRUNDRISS
  6
Continuous
100
AcDbLine
 10
43.78731178292121
 20
-35.29924979888619
 30
0.0
 11
45.10565333338829
 21
-35.29924979888619
 31
0.0
  0
LINE
  5
22F
102
{ACAD_REACTORS
330
22D
102
}
330
75
100
AcDbEntity
  8
GRUNDRISS
  6
Continuous
100
AcDbLine
 10
45.10565333338829
 20
-35.29924979888619
 30
0.0
 11
45.00945003105607
 21
-35.35646499088251
 31
0.0
  0
LINE
  5
230
102
{ACAD_REACTORS
330
22D
102
}
330
75
100
AcDbEntity
  8
GRUNDRISS
  6
Continuous
100
AcDbLine
 10
45.10565333338829
 20
-35.29924979888619
 30
0.0
 11
45.00945003105607
 21
-35.24203460689018
 31
0.0
  0
LINE
  5
231
102
{ACAD_REACTORS
330
22D
102
}
330
75
100
AcDbEntity
  8
GRUNDRISS
  6
Continuous
100
AcDbLine
 10
45.00945003105607
 20
-35.24203460689018
 30
0.0
 11
45.00945003105607
 21
-35.35646499088251
 31
0.0
  0
LINE
  5
233
102
{ACAD_REACTORS
330
232
102
}
330
75
100
AcDbEntity
  8
GRUNDRISS
  6
Continuous
100
AcDbLine
 10
48.56591991284087
 20
-38.03658449334966
 30
0.0
 11
48.56591991284087
 21
-36.71824294288259
 31
0.0
  0
LINE
  5
234
102
{ACAD_REACTORS
330
232
102
}
330
75
100
AcDbEntity
  8
GRUNDRISS
  6
Continuous
100
AcDbLine
 10
48.56591991284087
 20
-36.71824294288259
 30
0.0
 11
48.62313510483719
 21
-36.81444624521481
 31
0.0
  0
LINE
  5
235
102
{ACAD_REACTORS
330
232
102
}
330
75
100
AcDbEntity
  8
GRUNDRISS
  6
Continuous
100
AcDbLine
 10
48.56591991284087
 20
-36.71824294288259
 30
0.0
 11
48.50870472084484
 21
-36.81444624521481
 31
0.0
  0
LINE
  5
236
102
{ACAD_REACTORS
330
232
102
}
330
75
100
AcDbEntity
  8
GRUNDRISS
  6
Continuous
100
AcDbLine
 10
48.50870472084484
 20
-36.81444624521481
 30
0.0
 11
48.62313510483719
 21
-36.81444624521481
 31
0.0
  0
LINE
  5
238
102
{ACAD_REACTORS
330
237
102
}
330
75
100
AcDbEntity
  8
HALLE_0_1_EG
  6
Continuous
100
AcDbLine
 10
49.6717516808783
 20
-13.94189915880869
 30
0.0
 11
49.6717516808783
 21
-13.61189915880869
 31
0.0
  0
LINE
  5
239
102
{ACAD_REACTORS
330
237
102
}
330
75
100
AcDbEntity
  8
HALLE_0_1_EG
  6
Continuous
100
AcDbLine
 10
48.7017516808783
 20
-13.61189915880869
 30
0.0
 11
49.6717516808783
 21
-13.61189915880869
 31
0.0
  0
LINE
  5
23A
102
{ACAD_REACTORS
330
237
102
}
330
75
100
AcDbEntity
  8
HALLE_0_1_EG
  6
Continuous
100
AcDbLine
 10
48.7017516808783
 20
-13.94189915880869
 30
0.0
 11
49.6717516808783
 21
-13.94189915880869
 31
0.0
  0
LINE
  5
23B
102
{ACAD_REACTORS
330
237
102
}
330
75
100
AcDbEntity
  8
HALLE_0_1_EG
  6
Continuous
100
AcDbLine
 10
50.5117516808783
 20
-13.61189915880869
 30
0.0
 11
53.20175168087832
 21
-13.61189915880869
 31
0.0
  0
LINE
  5
23C
102
{ACAD_REACTORS
330
237
102
}
330
75
100
AcDbEntity
  8
HALLE_0_1_EG
  6
Continuous
100
AcDbLine
 10
50.5117516808783
 20
-13.94189915880869
 30
0.0
 11
53.53175168087832
 21
-13.94189915880869
 31
0.0
  0
LINE
  5
23D
102
{ACAD_REACTORS
330
237
102
}
330
75
100
AcDbEntity
  8
HALLE_0_1_EG
  6
Continuous
100
AcDbLine
 10
50.5117516808783
 20
-13.94189915880869
 30
0.0
 11
50.5117516808783
 21
-13.61189915880869
 31
0.0
  0
LINE
  5
23E
102
{ACAD_REACTORS
330
237
102
}
330
75
100
AcDbEntity
  8
HALLE_0_1_EG
  6
Continuous
100
AcDbLine
 10
53.20175168087832
 20
-13.61189915880869
 30
0.0
 11
53.20175168087832
 21
-6.27189915880869
 31
0.0
  0
LINE
  5
23F
102
{ACAD_REACTORS
330
237
102
}
330
75
100
AcDbEntity
  8
HALLE_0_1_EG
  6
Continuous
100
AcDbLine
 10
53.53175168087832
 20
-13.94189915880869
 30
0.0
 11
53.53175168087832
 21
-5.94189915880869
 31
0.0
  0
LINE
  5
240
102
{ACAD_REACTORS
330
237
102
}
330
75
100
AcDbEntity
  8
HALLE_0_1_EG
  6
Continuous
100
AcDbLine
 10
51.2417516808783
 20
-5.94189915880869
 30
0.0
 11
51.2417516808783
 21
-6.27189915880869
 31
0.0
  0
LINE
  5
241
102
{ACAD_REACTORS
330
237
102
}
330
75
100
AcDbEntity
  8
HALLE_0_1_EG
  6
Continuous
100
AcDbLine
 10
53.20175168087832
 20
-6.27189915880869
 30
0.0
 11
51.2417516808783
 21
-6.27189915880869
 31
0.0
  0
LINE
  5
242
102
{ACAD_REACTORS
330
237
102
}
330
75
100
AcDbEntity
  8
HALLE_0_1_EG
  6
Continuous
100
AcDbLine
 10
53.53175168087832
 20
-5.94189915880869
 30
0.0
 11
51.2417516808783
 21
-5.94189915880869
 31
0.0
  0
LINE
  5
243
102
{ACAD_REACTORS
330
237
102
}
330
75
100
AcDbEntity
  8
HALLE_0_1_EG
  6
Continuous
100
AcDbLine
 10
51.2417516808783
 20
-6.27189915880869
 30
0.0
 11
49.97175168087831
 21
-6.27189915880869
 31
0.0
  0
LINE
  5
244
102
{ACAD_REACTORS
330
237
102
}
330
75
100
AcDbEntity
  8
HALLE_0_1_EG
  6
Continuous
100
AcDbLine
 10
51.2417516808783
 20
-5.94189915880869
 30
0.0
 11
49.97175168087831
 21
-5.94189915880869
 31
0.0
  0
LINE
  5
245
102
{ACAD_REACTORS
330
237
102
}
330
75
100
AcDbEntity
  8
HALLE_0_1_EG
  6
Continuous
100
AcDbLine
 10
49.97175168087831
 20
-6.27189915880869
 30
0.0
 11
48.7017516808783
 21
-6.27189915880869
 31
0.0
  0
LINE
  5
246
102
{ACAD_REACTORS
330
237
102
}
330
75
100
AcDbEntity
  8
HALLE_0_1_EG
  6
Continuous
100
AcDbLine
 10
49.97175168087831
 20
-5.94189915880869
 30
0.0
 11
48.7017516808783
 21
-5.94189915880869
 31
0.0
  0
LINE
  5
247
102
{ACAD_REACTORS
330
237
102
}
330
75
100
AcDbEntity
  8
HALLE_0_1_EG
  6
Continuous
100
AcDbLine
 10
49.97175168087831
 20
-5.94189915880869
 30
0.0
 11
49.97175168087831
 21
-6.27189915880869
 31
0.0
  0
ARC
  5
248
102
{ACAD_REACTORS
330
237
102
}
330
75
100
AcDbEntity
  8
HALLE_0_1_EG
  6
Continuous
100
AcDbCircle
 10
49.6717516808783
 20
-13.94189915880869
 30
0.0
 40
0.84
100
AcDbArc
 50
270.0
 51
0.0
  0
LINE
  5
249
102
{ACAD_REACTORS
330
237
102
}
330
75
100
AcDbEntity
  8
HALLE_0_1_EG
  6
Continuous
100
AcDbLine
 10
49.6717516808783
 20
-13.94189915880869
 30
0.0
 11
49.6717516808783
 21
-14.78189915880868
 31
0.0
  0
ARC
  5
24A
102
{ACAD_REACTORS
330
237
102
}
330
75
100
AcDbEntity
  8
HALLE_0_1_EG
  6
Continuous
100
AcDbCircle
 10
49.97175168087831
 20
-5.94189915880869
 30
0.0
 40
1.27
100
AcDbArc
 50
0.0
 51
90.0
  0
LINE
  5
24B
102
{ACAD_REACTORS
330
237
102
}
330
75
100
AcDbEntity
  8
HALLE_0_1_EG
  6
Continuous
100
AcDbLine
 10
49.97175168087831
 20
-5.94189915880869
 30
0.0
 11
49.97175168087831
 21
-4.67189915880869
 31
0.0
  0
LINE
  5
24C
102
{ACAD_REACTORS
330
237
102
}
330
75
100
AcDbEntity
  8
HALLE_0_1_EG
  6
Continuous
100
AcDbLine
 10
49.3017516808783
 20
-1.651899158808689
 30
0.0
 11
49.3017516808783
 21
-4.77189915880869
 31
0.0
  0
LINE
  5
24D
102
{ACAD_REACTORS
330
237
102
}
330
75
100
AcDbEntity
  8
HALLE_0_1_EG
  6
Continuous
100
AcDbLine
 10
49.3017516808783
 20
-4.77189915880869
 30
0.0
 11
49.9017516808783
 21
-4.511899158808692
 31
0.0
  0
LINE
  5
24E
102
{ACAD_REACTORS
330
237
102
}
330
75
100
AcDbEntity
  8
HALLE_0_1_EG
  6
Continuous
100
AcDbLine
 10
49.3017516808783
 20
-4.77189915880869
 30
0.0
 11
48.7017516808783
 21
-4.511899158808692
 31
0.0
  0
LINE
  5
24F
102
{ACAD_REACTORS
330
237
102
}
330
75
100
AcDbEntity
  8
HALLE_0_1_EG
  6
Continuous
100
AcDbLine
 10
50.6217516808783
 20
-3.471899158808691
 30
0.0
 11
50.6217516808783
 21
-1.651899158808689
 31
0.0
  0
LINE
  5
250
102
{ACAD_REACTORS
330
237
102
}
330
75
100
AcDbEntity
  8
HALLE_0_1_EG
  6
Continuous
100
AcDbLine
 10
50.6217516808783
 20
-1.651899158808689
 30
0.0
 11
50.02175168087831
 21
-1.911899158808688
 31
0.0
  0
LINE
  5
251
102
{ACAD_REACTORS
330
237
102
}
330
75
100
AcDbEntity
  8
HALLE_0_1_EG
  6
Continuous
100
AcDbLine
 10
50.6217516808783
 20
-1.651899158808689
 30
0.0
 11
51.22175168087831
 21
-1.911899158808688
 31
0.0
  0
LINE
  5
252
102
{ACAD_REACTORS
330
237
102
}
330
75
100
AcDbEntity
  8
HALLE_0_1_EG
  6
Continuous
100
AcDbLine
 10
49.6717516808783
 20
-13.61189915880869
 30
0.0
 11
50.5117516808783
 21
-13.61189915880869
 31
0.0
  0
LINE
  5
253
102
{ACAD_REACTORS
330
237
102
}
330
75
100
AcDbEntity
  8
HALLE_0_1_EG
  6
Continuous
100
AcDbLine
 10
50.5117516808783
 20
-13.61189915880869
 30
0.0
 11
50.5117516808783
 21
-13.94189915880869
 31
0.0
  0
LINE
  5
254
102
{ACAD_REACTORS
330
237
102
}
330
75
100
AcDbEntity
  8
HALLE_0_1_EG
  6
Continuous
100
AcDbLine
 10
50.5117516808783
 20
-13.94189915880869
 30
0.0
 11
49.6717516808783
 21
-13.94189915880869
 31
0.0
  0
LINE
  5
255
102
{ACAD_REACTORS
330
237
102
}
330
75
100
AcDbEntity
  8
HALLE_0_1_EG
  6
Continuous
100
AcDbLine
 10
49.6717516808783
 20
-13.94189915880869
 30
0.0
 11
49.6717516808783
 21
-13.61189915880869
 31
0.0
  0
LINE
  5
256
102
{ACAD_REACTORS
330
237
102
}
330
75
100
AcDbEntity
  8
HALLE_0_1_EG
  6
Continuous
100
AcDbLine
 10
48.7017516808783
 20
-0.4518991588086912
 30
0.0
 11
51.22175168087831
 21
-0.4518991588086912
 31
0.0
  0
LINE
  5
257
102
{ACAD_REACTORS
330
237
102
}
330
75
100
AcDbEntity
  8
HALLE_0_1_EG
  6
Continuous
100
AcDbLine
 10
51.22175168087831
 20
-0.4518991588086912
 30
0.0
 11
51.22175168087831
 21
-4.67189915880869
 31
0.0
  0
LINE
  5
258
102
{ACAD_REACTORS
330
237
102
}
330
75
100
AcDbEntity
  8
HALLE_0_1_EG
  6
Continuous
100
AcDbLine
 10
51.22175168087831
 20
-4.67189915880869
 30
0.0
 11
48.7017516808783
 21
-4.67189915880869
 31
0.0
  0
LINE
  5
259
102
{ACAD_REACTORS
330
237
102
}
330
75
100
AcDbEntity
  8
HALLE_0_1_EG
  6
Continuous
100
AcDbLine
 10
48.7017516808783
 20
-4.87189915880869
 30
0.0
 11
51.42175168087831
 21
-4.87189915880869
 31
0.0
  0
LINE
  5
25A
102
{ACAD_REACTORS
330
237
102
}
330
75
100
AcDbEntity
  8
HALLE_0_1_EG
  6
Continuous
100
AcDbLine
 10
51.42175168087831
 20
-4.87189915880869
 30
0.0
 11
51.42175168087831
 21
-0.2018991588086902
 31
0.0
  0
LINE
  5
25B
102
{ACAD_REACTORS
330
237
102
}
330
75
100
AcDbEntity
  8
HALLE_0_1_EG
  6
Continuous
100
AcDbLine
 10
51.42175168087831
 20
-0.2018991588086902
 30
0.0
 11
48.7017516808783
 21
-0.2018991588086902
 31
0.0
  0
LINE
  5
25C
102
{ACAD_REACTORS
330
237
102
}
330
75
100
AcDbEntity
  8
HALLE_0_1_EG
  6
Continuous
100
AcDbLine
 10
50.02175168087831
 20
-1.651899158808689
 30
0.0
 11
51.22175168087831
 21
-1.651899158808689
 31
0.0
  0
LINE
  5
25D
102
{ACAD_REACTORS
330
237
102
}
330
75
100
AcDbEntity
  8
HALLE_0_1_EG
  6
Continuous
100
AcDbLine
 10
51.22175168087831
 20
-1.651899158808689
 30
0.0
 11
51.22175168087831
 21
-1.911899158808688
 31
0.0
  0
LINE
  5
25E
102
{ACAD_REACTORS
330
237
102
}
330
75
100
AcDbEntity
  8
HALLE_0_1_EG
  6
Continuous
100
AcDbLine
 10
51.22175168087831
 20
-1.911899158808688
 30
0.0
 11
50.02175168087831
 21
-1.911899158808688
 31
0.0
  0
LINE
  5
25F
102
{ACAD_REACTORS
330
237
102
}
330
75
100
AcDbEntity
  8
HALLE_0_1_EG
  6
Continuous
100
AcDbLine
 10
50.02175168087831
 20
-1.911899158808688
 30
0.0
 11
50.02175168087831
 21
-1.651899158808689
 31
0.0
  0
LINE
  5
260
102
{ACAD_REACTORS
330
237
102
}
330
75
100
AcDbEntity
  8
HALLE_0_1_EG
  6
Continuous
100
AcDbLine
 10
50.02175168087831
 20
-1.911899158808688
 30
0.0
 11
51.22175168087831
 21
-1.911899158808688
 31
0.0
  0
LINE
  5
261
102
{ACAD_REACTORS
330
237
102
}
330
75
100
AcDbEntity
  8
HALLE_0_1_EG
  6
Continuous
100
AcDbLine
 10
51.22175168087831
 20
-1.911899158808688
 30
0.0
 11
51.22175168087831
 21
-2.171899158808692
 31
0.0
  0
LINE
  5
262
102
{ACAD_REACTORS
330
237
102
}
330
75
100
AcDbEntity
  8
HALLE_0_1_EG
  6
Continuous
100
AcDbLine
 10
51.22175168087831
 20
-2.171899158808692
 30
0.0
 11
50.02175168087831
 21
-2.171899158808692
 31
0.0
  0
LINE
  5
263
102
{ACAD_REACTORS
330
237
102
}
330
75
100
AcDbEntity
  8
HALLE_0_1_EG
  6
Continuous
100
AcDbLine
 10
50.02175168087831
 20
-2.171899158808692
 30
0.0
 11
50.02175168087831
 21
-1.911899158808688
 31
0.0
  0
LINE
  5
264
102
{ACAD_REACTORS
330
237
102
}
330
75
100
AcDbEntity
  8
HALLE_0_1_EG
  6
Continuous
100
AcDbLine
 10
50.02175168087831
 20
-2.171899158808692
 30
0.0
 11
51.22175168087831
 21
-2.171899158808692
 31
0.0
  0
LINE
  5
265
102
{ACAD_REACTORS
330
237
102
}
330
75
100
AcDbEntity
  8
HALLE_0_1_EG
  6
Continuous
100
AcDbLine
 10
51.22175168087831
 20
-2.171899158808692
 30
0.0
 11
51.22175168087831
 21
-2.431899158808691
 31
0.0
  0
LINE
  5
266
102
{ACAD_REACTORS
330
237
102
}
330
75
100
AcDbEntity
  8
HALLE_0_1_EG
  6
Continuous
100
AcDbLine
 10
51.22175168087831
 20
-2.431899158808691
 30
0.0
 11
50.02175168087831
 21
-2.431899158808691
 31
0.0
  0
LINE
  5
267
102
{ACAD_REACTORS
330
237
102
}
330
75
100
AcDbEntity
  8
HALLE_0_1_EG
  6
Continuous
100
AcDbLine
 10
50.02175168087831
 20
-2.431899158808691
 30
0.0
 11
50.02175168087831
 21
-2.171899158808692
 31
0.0
  0
LINE
  5
268
102
{ACAD_REACTORS
330
237
102
}
330
75
100
AcDbEntity
  8
HALLE_0_1_EG
  6
Continuous
100
AcDbLine
 10
50.02175168087831
 20
-2.431899158808691
 30
0.0
 11
51.22175168087831
 21
-2.431899158808691
 31
0.0
  0
LINE
  5
269
102
{ACAD_REACTORS
330
237
102
}
330
75
100
AcDbEntity
  8
HALLE_0_1_EG
  6
Continuous
100
AcDbLine
 10
51.22175168087831
 20
-2.431899158808691
 30
0.0
 11
51.22175168087831
 21
-2.69189915880869
 31
0.0
  0
LINE
  5
26A
102
{ACAD_REACTORS
330
237
102
}
330
75
100
AcDbEntity
  8
HALLE_0_1_EG
  6
Continuous
100
AcDbLine
 10
51.22175168087831
 20
-2.69189915880869
 30
0.0
 11
50.02175168087831
 21
-2.69189915880869
 31
0.0
  0
LINE
  5
26B
102
{ACAD_REACTORS
330
237
102
}
330
75
100
AcDbEntity
  8
HALLE_0_1_EG
  6
Continuous
100
AcDbLine
 10
50.02175168087831
 20
-2.69189915880869
 30
0.0
 11
50.02175168087831
 21
-2.431899158808691
 31
0.0
  0
LINE
  5
26C
102
{ACAD_REACTORS
330
237
102
}
330
75
100
AcDbEntity
  8
HALLE_0_1_EG
  6
Continuous
100
AcDbLine
 10
50.02175168087831
 20
-2.69189915880869
 30
0.0
 11
51.22175168087831
 21
-2.69189915880869
 31
0.0
  0
LINE
  5
26D
102
{ACAD_REACTORS
330
237
102
}
330
75
100
AcDbEntity
  8
HALLE_0_1_EG
  6
Continuous
100
AcDbLine
 10
51.22175168087831
 20
-2.69189915880869
 30
0.0
 11
51.22175168087831
 21
-2.951899158808688
 31
0.0
  0
LINE
  5
26E
102
{ACAD_REACTORS
330
237
102
}
330
75
100
AcDbEntity
  8
HALLE_0_1_EG
  6
Continuous
100
AcDbLine
 10
51.22175168087831
 20
-2.951899158808688
 30
0.0
 11
50.02175168087831
 21
-2.951899158808688
 31
0.0
  0
LINE
  5
26F
102
{ACAD_REACTORS
330
237
102
}
330
75
100
AcDbEntity
  8
HALLE_0_1_EG
  6
Continuous
100
AcDbLine
 10
50.02175168087831
 20
-2.951899158808688
 30
0.0
 11
50.02175168087831
 21
-2.69189915880869
 31
0.0
  0
LINE
  5
270
102
{ACAD_REACTORS
330
237
102
}
330
75
100
AcDbEntity
  8
HALLE_0_1_EG
  6
Continuous
100
AcDbLine
 10
50.02175168087831
 20
-2.951899158808688
 30
0.0
 11
51.22175168087831
 21
-2.951899158808688
 31
0.0
  0
LINE
  5
271
102
{ACAD_REACTORS
330
237
102
}
330
75
100
AcDbEntity
  8
HALLE_0_1_EG
  6
Continuous
100
AcDbLine
 10
51.22175168087831
 20
-2.951899158808688
 30
0.0
 11
51.22175168087831
 21
-3.211899158808693
 31
0.0
  0
LINE
  5
272
102
{ACAD_REACTORS
330
237
102
}
330
75
100
AcDbEntity
  8
HALLE_0_1_EG
  6
Continuous
100
AcDbLine
 10
51.22175168087831
 20
-3.211899158808693
 30
0.0
 11
50.02175168087831
 21
-3.211899158808693
 31
0.0
  0
LINE
  5
273
102
{ACAD_REACTORS
330
237
102
}
330
75
100
AcDbEntity
  8
HALLE_0_1_EG
  6
Continuous
100
AcDbLine
 10
50.02175168087831
 20
-3.211899158808693
 30
0.0
 11
50.02175168087831
 21
-2.951899158808688
 31
0.0
  0
LINE
  5
274
102
{ACAD_REACTORS
330
237
102
}
330
75
100
AcDbEntity
  8
HALLE_0_1_EG
  6
Continuous
100
AcDbLine
 10
50.02175168087831
 20
-3.211899158808693
 30
0.0
 11
51.22175168087831
 21
-3.211899158808693
 31
0.0
  0
LINE
  5
275
102
{ACAD_REACTORS
330
237
102
}
330
75
100
AcDbEntity
  8
HALLE_0_1_EG
  6
Continuous
100
AcDbLine
 10
51.22175168087831
 20
-3.211899158808693
 30
0.0
 11
51.22175168087831
 21
-3.471899158808691
 31
0.0
  0
LINE
  5
276
102
{ACAD_REACTORS
330
237
102
}
330
75
100
AcDbEntity
  8
HALLE_0_1_EG
  6
Continuous
100
AcDbLine
 10
51.22175168087831
 20
-3.471899158808691
 30
0.0
 11
50.02175168087831
 21
-3.471899158808691
 31
0.0
  0
LINE
  5
277
102
{ACAD_REACTORS
330
237
102
}
330
75
100
AcDbEntity
  8
HALLE_0_1_EG
  6
Continuous
100
AcDbLine
 10
50.02175168087831
 20
-3.471899158808691
 30
0.0
 11
50.02175168087831
 21
-3.211899158808693
 31
0.0
  0
LINE
  5
278
102
{ACAD_REACTORS
330
237
102
}
330
75
100
AcDbEntity
  8
HALLE_0_1_EG
  6
Continuous
100
AcDbLine
 10
48.7017516808783
 20
-1.651899158808689
 30
0.0
 11
49.9017516808783
 21
-1.651899158808689
 31
0.0
  0
LINE
  5
279
102
{ACAD_REACTORS
330
237
102
}
330
75
100
AcDbEntity
  8
HALLE_0_1_EG
  6
Continuous
100
AcDbLine
 10
49.9017516808783
 20
-1.651899158808689
 30
0.0
 11
49.9017516808783
 21
-1.911899158808688
 31
0.0
  0
LINE
  5
27A
102
{ACAD_REACTORS
330
237
102
}
330
75
100
AcDbEntity
  8
HALLE_0_1_EG
  6
Continuous
100
AcDbLine
 10
49.9017516808783
 20
-1.911899158808688
 30
0.0
 11
48.7017516808783
 21
-1.911899158808688
 31
0.0
  0
LINE
  5
27B
102
{ACAD_REACTORS
330
237
102
}
330
75
100
AcDbEntity
  8
HALLE_0_1_EG
  6
Continuous
100
AcDbLine
 10
48.7017516808783
 20
-1.911899158808688
 30
0.0
 11
49.9017516808783
 21
-1.911899158808688
 31
0.0
  0
LINE
  5
27C
102
{ACAD_REACTORS
330
237
102
}
330
75
100
AcDbEntity
  8
HALLE_0_1_EG
  6
Continuous
100
AcDbLine
 10
49.9017516808783
 20
-1.911899158808688
 30
0.0
 11
49.9017516808783
 21
-2.171899158808692
 31
0.0
  0
LINE
  5
27D
102
{ACAD_REACTORS
330
237
102
}
330
75
100
AcDbEntity
  8
HALLE_0_1_EG
  6
Continuous
100
AcDbLine
 10
49.9017516808783
 20
-2.171899158808692
 30
0.0
 11
48.7017516808783
 21
-2.171899158808692
 31
0.0
  0
LINE
  5
27E
102
{ACAD_REACTORS
330
237
102
}
330
75
100
AcDbEntity
  8
HALLE_0_1_EG
  6
Continuous
100
AcDbLine
 10
48.7017516808783
 20
-2.171899158808692
 30
0.0
 11
49.9017516808783
 21
-2.171899158808692
 31
0.0
  0
LINE
  5
27F
102
{ACAD_REACTORS
330
237
102
}
330
75
100
AcDbEntity
  8
HALLE_0_1_EG
  6
Continuous
100
AcDbLine
 10
49.9017516808783
 20
-2.171899158808692
 30
0.0
 11
49.9017516808783
 21
-2.431899158808691
 31
0.0
  0
LINE
  5
280
102
{ACAD_REACTORS
330
237
102
}
330
75
100
AcDbEntity
  8
HALLE_0_1_EG
  6
Continuous
100
AcDbLine
 10
49.9017516808783
 20
-2.431899158808691
 30
0.0
 11
48.7017516808783
 21
-2.431899158808691
 31
0.0
  0
LINE
  5
281
102
{ACAD_REACTORS
330
237
102
}
330
75
100
AcDbEntity
  8
HALLE_0_1_EG
  6
Continuous
100
AcDbLine
 10
48.7017516808783
 20
-2.431899158808691
 30
0.0
 11
49.9017516808783
 21
-2.431899158808691
 31
0.0
  0
LINE
  5
282
102
{ACAD_REACTORS
330
237
102
}
330
75
100
AcDbEntity
  8
HALLE_0_1_EG
  6
Continuous
100
AcDbLine
 10
49.9017516808783
 20
-2.431899158808691
 30
0.0
 11
49.9017516808783
 21
-2.69189915880869
 31
0.0
  0
LINE
  5
283
102
{ACAD_REACTORS
330
237
102
}
330
75
100
AcDbEntity
  8
HALLE_0_1_EG
  6
Continuous
100
AcDbLine
 10
49.9017516808783
 20
-2.69189915880869
 30
0.0
 11
48.7017516808783
 21
-2.69189915880869
 31
0.0
  0
LINE
  5
284
102
{ACAD_REACTORS
330
237
102
}
330
75
100
AcDbEntity
  8
HALLE_0_1_EG
  6
Continuous
100
AcDbLine
 10
48.7017516808783
 20
-2.69189915880869
 30
0.0
 11
49.9017516808783
 21
-2.69189915880869
 31
0.0
  0
LINE
  5
285
102
{ACAD_REACTORS
330
237
102
}
330
75
100
AcDbEntity
  8
HALLE_0_1_EG
  6
Continuous
100
AcDbLine
 10
49.9017516808783
 20
-2.69189915880869
 30
0.0
 11
49.9017516808783
 21
-2.951899158808688
 31
0.0
  0
LINE
  5
286
102
{ACAD_REACTORS
330
237
102
}
330
75
100
AcDbEntity
  8
HALLE_0_1_EG
  6
Continuous
100
AcDbLine
 10
49.9017516808783
 20
-2.951899158808688
 30
0.0
 11
48.7017516808783
 21
-2.951899158808688
 31
0.0
  0
LINE
  5
287
102
{ACAD_REACTORS
330
237
102
}
330
75
100
AcDbEntity
  8
HALLE_0_1_EG
  6
Continuous
100
AcDbLine
 10
48.7017516808783
 20
-2.951899158808688
 30
0.0
 11
49.9017516808783
 21
-2.951899158808688
 31
0.0
  0
LINE
  5
288
102
{ACAD_REACTORS
330
237
102
}
330
75
100
AcDbEntity
  8
HALLE_0_1_EG
  6
Continuous
100
AcDbLine
 10
49.9017516808783
 20
-2.951899158808688
 30
0.0
 11
49.9017516808783
 21
-3.211899158808693
 31
0.0
  0
LINE
  5
289
102
{ACAD_REACTORS
330
237
102
}
330
75
100
AcDbEntity
  8
HALLE_0_1_EG
  6
Continuous
100
AcDbLine
 10
49.9017516808783
 20
-3.211899158808693
 30
0.0
 11
48.7017516808783
 21
-3.211899158808693
 31
0.0
  0
LINE
  5
28A
102
{ACAD_REACTORS
330
237
102
}
330
75
100
AcDbEntity
  8
HALLE_0_1_EG
  6
Continuous
100
AcDbLine
 10
48.7017516808783
 20
-3.211899158808693
 30
0.0
 11
49.9017516808783
 21
-3.211899158808693
 31
0.0
  0
LINE
  5
28B
102
{ACAD_REACTORS
330
237
102
}
330
75
100
AcDbEntity
  8
HALLE_0_1_EG
  6
Continuous
100
AcDbLine
 10
49.9017516808783
 20
-3.211899158808693
 30
0.0
 11
49.9017516808783
 21
-3.471899158808691
 31
0.0
  0
LINE
  5
28C
102
{ACAD_REACTORS
330
237
102
}
330
75
100
AcDbEntity
  8
HALLE_0_1_EG
  6
Continuous
100
AcDbLine
 10
49.9017516808783
 20
-3.471899158808691
 30
0.0
 11
48.7017516808783
 21
-3.471899158808691
 31
0.0
  0
LINE
  5
28D
102
{ACAD_REACTORS
330
237
102
}
330
75
100
AcDbEntity
  8
HALLE_0_1_EG
  6
Continuous
100
AcDbLine
 10
48.7017516808783
 20
-3.471899158808691
 30
0.0
 11
49.9017516808783
 21
-3.471899158808691
 31
0.0
  0
LINE
  5
28E
102
{ACAD_REACTORS
330
237
102
}
330
75
100
AcDbEntity
  8
HALLE_0_1_EG
  6
Continuous
100
AcDbLine
 10
49.9017516808783
 20
-3.471899158808691
 30
0.0
 11
49.9017516808783
 21
-3.73189915880869
 31
0.0
  0
LINE
  5
28F
102
{ACAD_REACTORS
330
237
102
}
330
75
100
AcDbEntity
  8
HALLE_0_1_EG
  6
Continuous
100
AcDbLine
 10
49.9017516808783
 20
-3.73189915880869
 30
0.0
 11
48.7017516808783
 21
-3.73189915880869
 31
0.0
  0
LINE
  5
290
102
{ACAD_REACTORS
330
237
102
}
330
75
100
AcDbEntity
  8
HALLE_0_1_EG
  6
Continuous
100
AcDbLine
 10
48.7017516808783
 20
-3.73189915880869
 30
0.0
 11
49.9017516808783
 21
-3.73189915880869
 31
0.0
  0
LINE
  5
291
102
{ACAD_REACTORS
330
237
102
}
330
75
100
AcDbEntity
  8
HALLE_0_1_EG
  6
Continuous
100
AcDbLine
 10
49.9017516808783
 20
-3.73189915880869
 30
0.0
 11
49.9017516808783
 21
-3.991899158808688
 31
0.0
  0
LINE
  5
292
102
{ACAD_REACTORS
330
237
102
}
330
75
100
AcDbEntity
  8
HALLE_0_1_EG
  6
Continuous
100
AcDbLine
 10
49.9017516808783
 20
-3.991899158808688
 30
0.0
 11
48.7017516808783
 21
-3.991899158808688
 31
0.0
  0
LINE
  5
293
102
{ACAD_REACTORS
330
237
102
}
330
75
100
AcDbEntity
  8
HALLE_0_1_EG
  6
Continuous
100
AcDbLine
 10
48.7017516808783
 20
-3.991899158808688
 30
0.0
 11
49.9017516808783
 21
-3.991899158808688
 31
0.0
  0
LINE
  5
294
102
{ACAD_REACTORS
330
237
102
}
330
75
100
AcDbEntity
  8
HALLE_0_1_EG
  6
Continuous
100
AcDbLine
 10
49.9017516808783
 20
-3.991899158808688
 30
0.0
 11
49.9017516808783
 21
-4.251899158808693
 31
0.0
  0
LINE
  5
295
102
{ACAD_REACTORS
330
237
102
}
330
75
100
AcDbEntity
  8
HALLE_0_1_EG
  6
Continuous
100
AcDbLine
 10
49.9017516808783
 20
-4.251899158808693
 30
0.0
 11
48.7017516808783
 21
-4.251899158808693
 31
0.0
  0
LINE
  5
296
102
{ACAD_REACTORS
330
237
102
}
330
75
100
AcDbEntity
  8
HALLE_0_1_EG
  6
Continuous
100
AcDbLine
 10
48.7017516808783
 20
-4.251899158808693
 30
0.0
 11
49.9017516808783
 21
-4.251899158808693
 31
0.0
  0
LINE
  5
297
102
{ACAD_REACTORS
330
237
102
}
330
75
100
AcDbEntity
  8
HALLE_0_1_EG
  6
Continuous
100
AcDbLine
 10
49.9017516808783
 20
-4.251899158808693
 30
0.0
 11
49.9017516808783
 21
-4.511899158808692
 31
0.0
  0
LINE
  5
298
102
{ACAD_REACTORS
330
237
102
}
330
75
100
AcDbEntity
  8
HALLE_0_1_EG
  6
Continuous
100
AcDbLine
 10
49.9017516808783
 20
-4.511899158808692
 30
0.0
 11
48.7017516808783
 21
-4.511899158808692
 31
0.0
  0
LINE
  5
299
102
{ACAD_REACTORS
330
237
102
}
330
75
100
AcDbEntity
  8
HALLE_0_1_EG
  6
Continuous
100
AcDbLine
 10
48.7017516808783
 20
-4.511899158808692
 30
0.0
 11
49.9017516808783
 21
-4.511899158808692
 31
0.0
  0
LINE
  5
29A
102
{ACAD_REACTORS
330
237
102
}
330
75
100
AcDbEntity
  8
HALLE_0_1_EG
  6
Continuous
100
AcDbLine
 10
49.9017516808783
 20
-4.511899158808692
 30
0.0
 11
49.9017516808783
 21
-4.77189915880869
 31
0.0
  0
LINE
  5
29B
102
{ACAD_REACTORS
330
237
102
}
330
75
100
AcDbEntity
  8
HALLE_0_1_EG
  6
Continuous
100
AcDbLine
 10
49.9017516808783
 20
-4.77189915880869
 30
0.0
 11
48.7017516808783
 21
-4.77189915880869
 31
0.0
  0
LINE
  5
29C
102
{ACAD_REACTORS
330
237
102
}
330
75
100
AcDbEntity
  8
HALLE_0_1_EG
  6
Continuous
100
AcDbLine
 10
48.7017516808783
 20
-1.601899158808689
 30
0.0
 11
49.95175168087831
 21
-1.601899158808689
 31
0.0
  0
LINE
  5
29D
102
{ACAD_REACTORS
330
237
102
}
330
75
100
AcDbEntity
  8
HALLE_0_1_EG
  6
Continuous
100
AcDbLine
 10
49.95175168087831
 20
-1.601899158808689
 30
0.0
 11
49.95175168087831
 21
-4.77189915880869
 31
0.0
  0
LINE
  5
29E
102
{ACAD_REACTORS
330
237
102
}
330
75
100
AcDbEntity
  8
HALLE_0_1_EG
  6
Continuous
100
AcDbLine
 10
49.95175168087831
 20
-4.77189915880869
 30
0.0
 11
48.7017516808783
 21
-4.77189915880869
 31
0.0
  0
LINE
  5
29F
330
75
100
AcDbEntity
  8
HALLE_0_1_EG
  6
DOT
 62
     0
100
AcDbLine
 10
8.809999999999989
 20
-0.4200000000011765
 30
0.0
 11
8.809999999999982
 21
-39.81999999999882
 31
0.0
  0
ENDSEC
  0
SECTION
  2
OBJECTS
  0
DICTIONARY
  5
C
330
0
100
AcDbDictionary
281
     1
  3
ACAD_COLOR
350
6B
  3
ACAD_GROUP
350
D
  3
ACAD_LAYOUT
350
6A
  3
ACAD_MATERIAL
350
10
  3
ACAD_MLEADERSTYLE
350
6E
  3
ACAD_MLINESTYLE
350
67
  3
ACAD_PLOTSETTINGS
350
69
  3
ACAD_PLOTSTYLENAME
350
E
  3
ACAD_SCALELIST
350
3A
  3
ACAD_TABLESTYLE
350
6C
  3
ACAD_VISUALSTYLE
350
29
  3
ACDB_RECOMPOSE_DATA
350
2A6
  3
AcDbVariableDictionary
350
2A0
  0
DICTIONARY
  5
6B
102
{ACAD_REACTORS
330
C
102
}
330
C
100
AcDbDictionary
281
     1
  0
DICTIONARY
  5
D
102
{ACAD_REACTORS
330
C
102
}
330
C
100
AcDbDictionary
281
     1
  3
*A1
350
AC
  3
*A2
350
222
  3
*A3
350
22D
  3
*A4
350
232
  3
*A5
350
237
  0
DICTIONARY
  5
6A
102
{ACAD_REACTORS
330
C
102
}
330
C
100
AcDbDictionary
281
     1
  3
Layout1
350
74
  3
Layout2
350
7C
  3
Model
350
78
  0
DICTIONARY
  5
10
102
{ACAD_REACTORS
330
C
102
}
330
C
100
AcDbDictionary
281
     1
  3
ByBlock
350
19
  3
ByLayer
350
11
  3
Global
350
21
  0
DICTIONARY
  5
6E
102
{ACAD_REACTORS
330
C
102
}
330
C
100
AcDbDictionary
281
     1
  3
Standard
350
6F
  0
DICTIONARY
  5
67
102
{ACAD_REACTORS
330
C
102
}
330
C
100
AcDbDictionary
281
     1
  3
Standard
350
68
  0
DICTIONARY
  5
69
102
{ACAD_REACTORS
330
C
102
}
330
C
100
AcDbDictionary
281
     1
  0
ACDBDICTIONARYWDFLT
  5
E
102
{ACAD_REACTORS
330
C
102
}
330
C
100
AcDbDictionary
281
     1
  3
Normal
350
F
100
AcDbDictionaryWithDefault
340
F
  0
DICTIONARY
  5
3A
102
{ACAD_REACTORS
330
C
102
}
330
C
100
AcDbDictionary
281
     1
  3
A0
350
3B
  3
A1
350
3C
  3
A2
350
3D
  3
A3
350
3E
  3
A4
350
3F
  3
A5
350
40
  3
A6
350
41
  3
A7
350
42
  3
A8
350
43
  3
A9
350
44
  3
B0
350
45
  3
B1
350
46
  3
B2
350
47
  3
B3
350
48
  3
B4
350
49
  3
B5
350
4A
  3
B6
350
4B
  3
B7
350
4C
  3
B8
350
4D
  3
B9
350
4E
  3
C0
350
4F
  3
C1
350
50
  3
C2
350
51
  3
C3
350
52
  3
C4
350
53
  3
C5
350
54
  3
C6
350
55
  3
C7
350
56
  3
C8
350
57
  3
C9
350
58
  3
D0
350
59
  3
D1
350
5A
  3
D2
350
5B
  0
DICTIONARY
  5
6C
102
{ACAD_REACTORS
330
C
102
}
330
C
100
AcDbDictionary
281
     1
  3
Standard
350
6D
  0
DICTIONARY
  5
29
102
{ACAD_REACTORS
330
C
102
}
330
C
100
AcDbDictionary
281
     1
  3
2dWireframe
350
2F
  3
3D Hidden
350
31
  3
3dWireframe
350
30
  3
Basic
350
2E
  3
Brighten
350
35
  3
ColorChange
350
39
  3
Conceptual
350
32
  3
Dim
350
34
  3
Facepattern
350
38
  3
Flat
350
2A
  3
FlatWithEdges
350
2B
  3
Gouraud
350
2C
  3
GouraudWithEdges
350
2D
  3
Linepattern
350
37
  3
Realistic
350
33
  3
Thicken
350
36
  0
XRECORD
  5
2A6
102
{ACAD_REACTORS
330
C
102
}
330
C
100
AcDbXrecord
280
     1
 90
        1
330
6D
  0
DICTIONARY
  5
2A0
102
{ACAD_REACTORS
330
C
102
}
330
C
100
AcDbDictionary
281
     1
  3
CANNOSCALE
350
2A3
  3
CMLEADERSTYLE
350
2A2
  3
CTABLESTYLE
350
2A1
  0
GROUP
  5
AC
102
{ACAD_REACTORS
330
D
102
}
330
D
100
AcDbGroup
300

 70
     0
 71
     1
340
AE
340
B0
340
B1
340
B2
340
B3
340
B4
340
B5
340
B6
340
B7
340
B8
340
B9
340
BA
340
BB
340
BC
340
BD
340
BE
340
BF
340
C0
  0
GROUP
  5
222
102
{ACAD_REACTORS
330
D
102
}
330
D
100
AcDbGroup
300

 70
     0
 71
     1
340
223
340
224
340
225
340
226
340
227
340
228
340
229
340
22A
  0
GROUP
  5
22D
102
{ACAD_REACTORS
330
D
102
}
330
D
100
AcDbGroup
300

 70
     0
 71
     1
340
22E
340
22F
340
230
340
231
  0
GROUP
  5
232
102
{ACAD_REACTORS
330
D
102
}
330
D
100
AcDbGroup
300

 70
     0
 71
     1
340
233
340
234
340
235
340
236
  0
GROUP
  5
237
102
{ACAD_REACTORS
330
D
102
}
330
D
100
AcDbGroup
300

 70
     0
 71
     1
340
238
340
239
340
23A
340
23B
340
23C
340
23D
340
23E
340
23F
340
240
340
241
340
242
340
243
340
244
340
245
340
246
340
247
340
248
340
249
340
24A
340
24B
340
24C
340
24D
340
24E
340
24F
340
250
340
251
340
252
340
253
340
254
340
255
340
256
340
257
340
258
340
259
340
25A
340
25B
340
25C
340
25D
340
25E
340
25F
340
260
340
261
340
262
340
263
340
264
340
265
340
266
340
267
340
268
340
269
340
26A
340
26B
340
26C
340
26D
340
26E
340
26F
340
270
340
271
340
272
340
273
340
274
340
275
340
276
340
277
340
278
340
279
340
27A
340
27B
340
27C
340
27D
340
27E
340
27F
340
280
340
281
340
282
340
283
340
284
340
285
340
286
340
287
340
288
340
289
340
28A
340
28B
340
28C
340
28D
340
28E
340
28F
340
290
340
291
340
292
340
293
340
294
340
295
340
296
340
297
340
298
340
299
340
29A
340
29B
340
29C
340
29D
340
29E
  0
LAYOUT
  5
74
102
{ACAD_REACTORS
330
6A
102
}
330
6A
100
AcDbPlotSettings
  1

  2

  4

  6

 40
0.0
 41
0.0
 42
0.0
 43
0.0
 44
0.0
 45
0.0
 46
0.0
 47
0.0
 48
0.0
 49
0.0
140
0.0
141
0.0
142
1.0
143
1.0
 70
   688
 72
     0
 73
     0
 74
     5
  7

 75
    16
147
1.0
 76
     0
 77
     2
 78
   300
148
0.0
149
0.0
100
AcDbLayout
  1
Layout1
 70
     1
 71
     1
 10
0.0
 20
0.0
 11
12.0
 21
9.0
 12
0.0
 22
0.0
 32
0.0
 14
0.0
 24
0.0
 34
0.0
 15
0.0
 25
0.0
 35
0.0
146
0.0
 13
0.0
 23
0.0
 33
0.0
 16
1.0
 26
0.0
 36
0.0
 17
0.0
 27
1.0
 37
0.0
 76
     0
330
71
  0
LAYOUT
  5
7C
102
{ACAD_REACTORS
330
6A
102
}
330
6A
100
AcDbPlotSettings
  1

  2

  4

  6

 40
0.0
 41
0.0
 42
0.0
 43
0.0
 44
0.0
 45
0.0
 46
0.0
 47
0.0
 48
0.0
 49
0.0
140
0.0
141
0.0
142
1.0
143
1.0
 70
   688
 72
     0
 73
     0
 74
     5
  7

 75
    16
147
1.0
 76
     0
 77
     2
 78
   300
148
0.0
149
0.0
100
AcDbLayout
  1
Layout2
 70
     1
 71
     2
 10
0.0
 20
0.0
 11
12.0
 21
9.0
 12
0.0
 22
0.0
 32
0.0
 14
0.0
 24
0.0
 34
0.0
 15
0.0
 25
0.0
 35
0.0
146
0.0
 13
0.0
 23
0.0
 33
0.0
 16
1.0
 26
0.0
 36
0.0
 17
0.0
 27
1.0
 37
0.0
 76
     0
330
79
  0
LAYOUT
  5
78
102
{ACAD_REACTORS
330
6A
102
}
330
6A
100
AcDbPlotSettings
  1

  2

  4

  6

 40
0.0
 41
0.0
 42
0.0
 43
0.0
 44
0.0
 45
0.0
 46
0.0
 47
0.0
 48
0.0
 49
0.0
140
0.0
141
0.0
142
1.0
143
1.0
 70
  1712
 72
     0
 73
     0
 74
     0
  7

 75
     0
147
1.0
 76
     0
 77
     2
 78
   300
148
0.0
149
0.0
100
AcDbLayout
  1
Model
 70
     1
 71
     0
 10
0.0
 20
0.0
 11
12.0
 21
9.0
 12
0.0
 22
0.0
 32
0.0
 14
0.0
 24
0.0
 34
0.0
 15
0.0
 25
0.0
 35
0.0
146
0.0
 13
0.0
 23
0.0
 33
0.0
 16
1.0
 26
0.0
 36
0.0
 17
0.0
 27
1.0
 37
0.0
 76
     0
330
75
  0
MATERIAL
  5
19
102
{ACAD_XDICTIONARY
360
1A
102
}
102
{ACAD_REACTORS
330
10
102
}
330
10
100
AcDbMaterial
  1
ByBlock
 72
     0
 43
0.0208333333333333
 43
0.0
 43
0.0
 43
0.0
 43
0.0
 43
0.0208333333333333
 43
0.0
 43
0.0
 43
0.0
 43
0.0
 43
1.0
 43
0.0
 43
0.0
 43
0.0
 43
0.0
 43
1.0
 77
     0
 47
0.0208333333333333
 47
0.0
 47
0.0
 47
0.0
 47
0.0
 47
0.0208333333333333
 47
0.0
 47
0.0
 47
0.0
 47
0.0
 47
1.0
 47
0.0
 47
0.0
 47
0.0
 47
0.0
 47
1.0
171
     0
 49
0.0208333333333333
 49
0.0
 49
0.0
 49
0.0
 49
0.0
 49
0.0208333333333333
 49
0.0
 49
0.0
 49
0.0
 49
0.0
 49
1.0
 49
0.0
 49
0.0
 49
0.0
 49
0.0
 49
1.0
175
     0
142
0.0208333333333333
142
0.0
142
0.0
142
0.0
142
0.0
142
0.0208333333333333
142
0.0
142
0.0
142
0.0
142
0.0
142
1.0
142
0.0
142
0.0
142
0.0
142
0.0
142
1.0
179
     0
144
0.0208333333333333
144
0.0
144
0.0
144
0.0
144
0.0
144
0.0208333333333333
144
0.0
144
0.0
144
0.0
144
0.0
144
1.0
144
0.0
144
0.0
144
0.0
144
0.0
144
1.0
147
0.0208333333333333
147
0.0
147
0.0
147
0.0
147
0.0
147
0.0208333333333333
147
0.0
147
0.0
147
0.0
147
0.0
147
1.0
147
0.0
147
0.0
147
0.0
147
0.0
147
1.0
  0
MATERIAL
  5
11
102
{ACAD_XDICTIONARY
360
12
102
}
102
{ACAD_REACTORS
330
10
102
}
330
10
100
AcDbMaterial
  1
ByLayer
 72
     0
 43
0.0208333333333333
 43
0.0
 43
0.0
 43
0.0
 43
0.0
 43
0.0208333333333333
 43
0.0
 43
0.0
 43
0.0
 43
0.0
 43
1.0
 43
0.0
 43
0.0
 43
0.0
 43
0.0
 43
1.0
 77
     0
 47
0.0208333333333333
 47
0.0
 47
0.0
 47
0.0
 47
0.0
 47
0.0208333333333333
 47
0.0
 47
0.0
 47
0.0
 47
0.0
 47
1.0
 47
0.0
 47
0.0
 47
0.0
 47
0.0
 47
1.0
171
     0
 49
0.0208333333333333
 49
0.0
 49
0.0
 49
0.0
 49
0.0
 49
0.0208333333333333
 49
0.0
 49
0.0
 49
0.0
 49
0.0
 49
1.0
 49
0.0
 49
0.0
 49
0.0
 49
0.0
 49
1.0
175
     0
142
0.0208333333333333
142
0.0
142
0.0
142
0.0
142
0.0
142
0.0208333333333333
142
0.0
142
0.0
142
0.0
142
0.0
142
1.0
142
0.0
142
0.0
142
0.0
142
0.0
142
1.0
179
     0
144
0.0208333333333333
144
0.0
144
0.0
144
0.0
144
0.0
144
0.0208333333333333
144
0.0
144
0.0
144
0.0
144
0.0
144
1.0
144
0.0
144
0.0
144
0.0
144
0.0
144
1.0
147
0.0208333333333333
147
0.0
147
0.0
147
0.0
147
0.0
147
0.0208333333333333
147
0.0
147
0.0
147
0.0
147
0.0
147
1.0
147
0.0
147
0.0
147
0.0
147
0.0
147
1.0
  0
MATERIAL
  5
21
102
{ACAD_XDICTIONARY
360
22
102
}
102
{ACAD_REACTORS
330
10
102
}
330
10
100
AcDbMaterial
  1
Global
 72
     0
 43
0.0208333333333333
 43
0.0
 43
0.0
 43
0.0
 43
0.0
 43
0.0208333333333333
 43
0.0
 43
0.0
 43
0.0
 43
0.0
 43
1.0
 43
0.0
 43
0.0
 43
0.0
 43
0.0
 43
1.0
 77
     0
 47
0.0208333333333333
 47
0.0
 47
0.0
 47
0.0
 47
0.0
 47
0.0208333333333333
 47
0.0
 47
0.0
 47
0.0
 47
0.0
 47
1.0
 47
0.0
 47
0.0
 47
0.0
 47
0.0
 47
1.0
171
     0
 49
0.0208333333333333
 49
0.0
 49
0.0
 49
0.0
 49
0.0
 49
0.0208333333333333
 49
0.0
 49
0.0
 49
0.0
 49
0.0
 49
1.0
 49
0.0
 49
0.0
 49
0.0
 49
0.0
 49
1.0
175
     0
142
0.0208333333333333
142
0.0
142
0.0
142
0.0
142
0.0
142
0.0208333333333333
142
0.0
142
0.0
142
0.0
142
0.0
142
1.0
142
0.0
142
0.0
142
0.0
142
0.0
142
1.0
179
     0
144
0.0208333333333333
144
0.0
144
0.0
144
0.0
144
0.0
144
0.0208333333333333
144
0.0
144
0.0
144
0.0
144
0.0
144
1.0
144
0.0
144
0.0
144
0.0
144
0.0
144
1.0
147
0.0208333333333333
147
0.0
147
0.0
147
0.0
147
0.0
147
0.0208333333333333
147
0.0
147
0.0
147
0.0
147
0.0
147
1.0
147
0.0
147
0.0
147
0.0
147
0.0
147
1.0
  0
MLEADERSTYLE
  5
6F
102
{ACAD_REACTORS
330
6E
102
}
330
6E
100
AcDbMLeaderStyle
170
     2
171
     1
172
     0
 90
        2
 40
0.0
 41
0.0
173
     1
 91
-1056964608
340
63
 92
       -2
290
     1
 42
0.09
291
     1
 43
0.36
  3
Standard
 44
0.18
300

342
5D
174
     1
178
     6
175
     1
176
     0
 93
-1056964608
 45
0.18
292
     0
297
     0
 46
0.18
 94
-1056964608
 47
1.0
 49
1.0
140
1.0
293
     1
141
0.0
294
     1
177
     0
142
1.0
295
     1
296
     0
143
0.125
1001
ACAD_MLEADERVER
1070
     2
  0
MLINESTYLE
  5
68
102
{ACAD_REACTORS
330
67
102
}
330
67
100
AcDbMlineStyle
  2
STANDARD
 70
     0
  3

 62
   256
 51
90.0
 52
90.0
 71
     2
 49
0.5
 62
   256
  6
BYLAYER
 49
-0.5
 62
   256
  6
BYLAYER
  0
ACDBPLACEHOLDER
  5
F
102
{ACAD_REACTORS
330
E
102
}
330
E
  0
SCALE
  5
3B
102
{ACAD_REACTORS
330
3A
102
}
330
3A
100
AcDbScale
 70
     0
300
1:1
140
1.0
141
1.0
290
     1
  0
SCALE
  5
3C
102
{ACAD_REACTORS
330
3A
102
}
330
3A
100
AcDbScale
 70
     0
300
1:2
140
1.0
141
2.0
290
     0
  0
SCALE
  5
3D
102
{ACAD_REACTORS
330
3A
102
}
330
3A
100
AcDbScale
 70
     0
300
1:4
140
1.0
141
4.0
290
     0
  0
SCALE
  5
3E
102
{ACAD_REACTORS
330
3A
102
}
330
3A
100
AcDbScale
 70
     0
300
1:5
140
1.0
141
5.0
290
     0
  0
SCALE
  5
3F
102
{ACAD_REACTORS
330
3A
102
}
330
3A
100
AcDbScale
 70
     0
300
1:8
140
1.0
141
8.0
290
     0
  0
SCALE
  5
40
102
{ACAD_REACTORS
330
3A
102
}
330
3A
100
AcDbScale
 70
     0
300
1:10
140
1.0
141
10.0
290
     0
  0
SCALE
  5
41
102
{ACAD_REACTORS
330
3A
102
}
330
3A
100
AcDbScale
 70
     0
300
1:16
140
1.0
141
16.0
290
     0
  0
SCALE
  5
42
102
{ACAD_REACTORS
330
3A
102
}
330
3A
100
AcDbScale
 70
     0
300
1:20
140
1.0
141
20.0
290
     0
  0
SCALE
  5
43
102
{ACAD_REACTORS
330
3A
102
}
330
3A
100
AcDbScale
 70
     0
300
1:30
140
1.0
141
30.0
290
     0
  0
SCALE
  5
44
102
{ACAD_REACTORS
330
3A
102
}
330
3A
100
AcDbScale
 70
     0
300
1:40
140
1.0
141
40.0
290
     0
  0
SCALE
  5
45
102
{ACAD_REACTORS
330
3A
102
}
330
3A
100
AcDbScale
 70
     0
300
1:50
140
1.0
141
50.0
290
     0
  0
SCALE
  5
46
102
{ACAD_REACTORS
330
3A
102
}
330
3A
100
AcDbScale
 70
     0
300
1:100
140
1.0
141
100.0
290
     0
  0
SCALE
  5
47
102
{ACAD_REACTORS
330
3A
102
}
330
3A
100
AcDbScale
 70
     0
300
2:1
140
2.0
141
1.0
290
     0
  0
SCALE
  5
48
102
{ACAD_REACTORS
330
3A
102
}
330
3A
100
AcDbScale
 70
     0
300
4:1
140
4.0
141
1.0
290
     0
  0
SCALE
  5
49
102
{ACAD_REACTORS
330
3A
102
}
330
3A
100
AcDbScale
 70
     0
300
8:1
140
8.0
141
1.0
290
     0
  0
SCALE
  5
4A
102
{ACAD_REACTORS
330
3A
102
}
330
3A
100
AcDbScale
 70
     0
300
10:1
140
10.0
141
1.0
290
     0
  0
SCALE
  5
4B
102
{ACAD_REACTORS
330
3A
102
}
330
3A
100
AcDbScale
 70
     0
300
100:1
140
100.0
141
1.0
290
     0
  0
SCALE
  5
4C
102
{ACAD_REACTORS
330
3A
102
}
330
3A
100
AcDbScale
 70
     0
300
1/128" = 1'-0"
140
0.0078125
141
12.0
290
     0
  0
SCALE
  5
4D
102
{ACAD_REACTORS
330
3A
102
}
330
3A
100
AcDbScale
 70
     0
300
1/64" = 1'-0"
140
0.015625
141
12.0
290
     0
  0
SCALE
  5
4E
102
{ACAD_REACTORS
330
3A
102
}
330
3A
100
AcDbScale
 70
     0
300
1/32" = 1'-0"
140
0.03125
141
12.0
290
     0
  0
SCALE
  5
4F
102
{ACAD_REACTORS
330
3A
102
}
330
3A
100
AcDbScale
 70
     0
300
1/16" = 1'-0"
140
0.0625
141
12.0
290
     0
  0
SCALE
  5
50
102
{ACAD_REACTORS
330
3A
102
}
330
3A
100
AcDbScale
 70
     0
300
3/32" = 1'-0"
140
0.09375
141
12.0
290
     0
  0
SCALE
  5
51
102
{ACAD_REACTORS
330
3A
102
}
330
3A
100
AcDbScale
 70
     0
300
1/8" = 1'-0"
140
0.125
141
12.0
290
     0
  0
SCALE
  5
52
102
{ACAD_REACTORS
330
3A
102
}
330
3A
100
AcDbScale
 70
     0
300
3/16" = 1'-0"
140
0.1875
141
12.0
290
     0
  0
SCALE
  5
53
102
{ACAD_REACTORS
330
3A
102
}
330
3A
100
AcDbScale
 70
     0
300
1/4" = 1'-0"
140
0.25
141
12.0
290
     0
  0
SCALE
  5
54
102
{ACAD_REACTORS
330
3A
102
}
330
3A
100
AcDbScale
 70
     0
300
3/8" = 1'-0"
140
0.375
141
12.0
290
     0
  0
SCALE
  5
55
102
{ACAD_REACTORS
330
3A
102
}
330
3A
100
AcDbScale
 70
     0
300
1/2" = 1'-0"
140
0.5
141
12.0
290
     0
  0
SCALE
  5
56
102
{ACAD_REACTORS
330
3A
102
}
330
3A
100
AcDbScale
 70
     0
300
3/4" = 1'-0"
140
0.75
141
12.0
290
     0
  0
SCALE
  5
57
102
{ACAD_REACTORS
330
3A
102
}
330
3A
100
AcDbScale
 70
     0
300
1" = 1'-0"
140
1.0
141
12.0
290
     0
  0
SCALE
  5
58
102
{ACAD_REACTORS
330
3A
102
}
330
3A
100
AcDbScale
 70
     0
300
1-1/2" = 1'-0"
140
1.5
141
12.0
290
     0
  0
SCALE
  5
59
102
{ACAD_REACTORS
330
3A
102
}
330
3A
100
AcDbScale
 70
     0
300
3" = 1'-0"
140
3.0
141
12.0
290
     0
  0
SCALE
  5
5A
102
{ACAD_REACTORS
330
3A
102
}
330
3A
100
AcDbScale
 70
     0
300
6" = 1'-0"
140
6.0
141
12.0
290
     0
  0
SCALE
  5
5B
102
{ACAD_REACTORS
330
3A
102
}
330
3A
100
AcDbScale
 70
     0
300
1'-0" = 1'-0"
140
12.0
141
12.0
290
     0
  0
TABLESTYLE
  5
6D
102
{ACAD_XDICTIONARY
360
2A4
102
}
102
{ACAD_REACTORS
330
6C
102
}
330
6C
100
AcDbTableStyle
  3
Standard
 70
     0
 71
     0
 40
0.06
 41
0.06
280
     0
281
     0
  7
Standard
140
0.18
170
     2
 62
     0
 63
     7
283
     0
 90
      512
 91
        0
  1

274
    -2
284
     1
 64
     0
275
    -2
285
     1
 65
     0
276
    -2
286
     1
 66
     0
277
    -2
287
     1
 67
     0
278
    -2
288
     1
 68
     0
279
    -2
289
     1
 69
     0
  7
Standard
140
0.25
170
     5
 62
     0
 63
     7
283
     0
 90
      512
 91
        0
  1

274
    -2
284
     1
 64
     0
275
    -2
285
     1
 65
     0
276
    -2
286
     1
 66
     0
277
    -2
287
     1
 67
     0
278
    -2
288
     1
 68
     0
279
    -2
289
     1
 69
     0
  7
Standard
140
0.18
170
     5
 62
     0
 63
     7
283
     0
 90
      512
 91
        0
  1

274
    -2
284
     1
 64
     0
275
    -2
285
     1
 65
     0
276
    -2
286
     1
 66
     0
277
    -2
287
     1
 67
     0
278
    -2
288
     1
 68
     0
279
    -2
289
     1
 69
     0
  0
VISUALSTYLE
  5
2F
102
{ACAD_REACTORS
330
29
102
}
330
29
100
AcDbVisualStyle
  2
2dWireframe
 70
     4
 71
     0
 72
     2
 73
     0
 90
        0
 40
-0.6
 41
-30.0
 62
     5
 63
     7
421
 16777215
 74
     1
 91
        4
 64
     7
 65
   257
 75
     1
175
     1
 42
1.0
 92
        0
 66
   257
 43
1.0
 76
     1
 77
     6
 78
     2
 67
     7
 79
     5
170
     0
171
     0
290
     0
174
     0
 93
        1
 44
0.0
173
     0
291
     0
 45
0.0
  0
VISUALSTYLE
  5
31
102
{ACAD_REACTORS
330
29
102
}
330
29
100
AcDbVisualStyle
  2
3D Hidden
 70
     6
 71
     1
 72
     2
 73
     2
 90
        0
 40
-0.6
 41
-30.0
 62
     5
 63
     7
421
 16777215
 74
     2
 91
        2
 64
     7
 65
   257
 75
     2
175
     1
 42
40.0
 92
        0
 66
   257
 43
1.0
 76
     1
 77
     6
 78
     2
 67
     7
 79
     3
170
     0
171
     0
290
     0
174
     0
 93
        1
 44
0.0
173
     0
291
     0
 45
0.0
  0
VISUALSTYLE
  5
30
102
{ACAD_REACTORS
330
29
102
}
330
29
100
AcDbVisualStyle
  2
3dWireframe
 70
     5
 71
     0
 72
     2
 73
     0
 90
        0
 40
-0.6
 41
-30.0
 62
     5
 63
     7
421
 16777215
 74
     1
 91
        4
 64
     7
 65
   257
 75
     1
175
     1
 42
1.0
 92
        0
 66
   257
 43
1.0
 76
     1
 77
     6
 78
     2
 67
     7
 79
     5
170
     0
171
     0
290
     0
174
     0
 93
        1
 44
0.0
173
     0
291
     0
 45
0.0
  0
VISUALSTYLE
  5
2E
102
{ACAD_REACTORS
330
29
102
}
330
29
100
AcDbVisualStyle
  2
Basic
 70
     7
 71
     1
 72
     0
 73
     1
 90
        0
 40
-0.6
 41
-30.0
 62
     5
 63
     7
421
 16777215
 74
     0
 91
        4
 64
     7
 65
   257
 75
     1
175
     1
 42
1.0
 92
        8
 66
     7
 43
1.0
 76
     1
 77
     6
 78
     2
 67
     7
 79
     5
170
     0
171
     0
290
     0
174
     0
 93
        1
 44
0.0
173
     0
291
     1
 45
0.0
  0
VISUALSTYLE
  5
35
102
{ACAD_REACTORS
330
29
102
}
330
29
100
AcDbVisualStyle
  2
Brighten
 70
    12
 71
     2
 72
     2
 73
     0
 90
        0
 40
-0.6
 41
-30.0
 62
     5
 63
     7
421
 16777215
 74
     1
 91
        4
 64
     7
 65
   257
 75
     1
175
     1
 42
1.0
 92
        8
 66
     7
 43
1.0
 76
     1
 77
     6
 78
     2
 67
     7
 79
     5
170
     0
171
     0
290
     0
174
     0
 93
        1
 44
50.0
173
     0
291
     1
 45
0.0
  0
VISUALSTYLE
  5
39
102
{ACAD_REACTORS
330
29
102
}
330
29
100
AcDbVisualStyle
  2
ColorChange
 70
    16
 71
     2
 72
     2
 73
     3
 90
        0
 40
-0.6
 41
-30.0
 62
     5
 63
     8
421
  8421504
 74
     1
 91
        4
 64
     7
 65
   257
 75
     1
175
     1
 42
1.0
 92
        8
 66
     8
424
  8421504
 43
1.0
 76
     1
 77
     6
 78
     2
 67
     7
 79
     5
170
     0
171
     0
290
     0
174
     0
 93
        1
 44
0.0
173
     0
291
     1
 45
0.0
  0
VISUALSTYLE
  5
32
102
{ACAD_REACTORS
330
29
102
}
330
29
100
AcDbVisualStyle
  2
Conceptual
 70
     9
 71
     3
 72
     2
 73
     0
 90
        0
 40
-0.6
 41
-30.0
 62
     5
 63
     7
421
 16777215
 74
     2
 91
        2
 64
     7
 65
   257
 75
     1
175
     1
 42
40.0
 92
        8
 66
     7
 43
1.0
 76
     1
 77
     6
 78
     2
 67
     7
 79
     3
170
     0
171
     0
290
     0
174
     0
 93
        1
 44
0.0
173
     0
291
     0
 45
0.0
  0
VISUALSTYLE
  5
34
102
{ACAD_REACTORS
330
29
102
}
330
29
100
AcDbVisualStyle
  2
Dim
 70
    11
 71
     2
 72
     2
 73
     0
 90
        0
 40
-0.6
 41
-30.0
 62
     5
 63
     7
421
 16777215
 74
     1
 91
        4
 64
     7
 65
   257
 75
     1
175
     1
 42
1.0
 92
        8
 66
     7
 43
1.0
 76
     1
 77
     6
 78
     2
 67
     7
 79
     5
170
     0
171
     0
290
     0
174
     0
 93
        1
 44
-50.0
173
     0
291
     1
 45
0.0
  0
VISUALSTYLE
  5
38
102
{ACAD_REACTORS
330
29
102
}
330
29
100
AcDbVisualStyle
  2
Facepattern
 70
    15
 71
     2
 72
     2
 73
     0
 90
        0
 40
-0.6
 41
-30.0
 62
     5
 63
     7
421
 16777215
 74
     1
 91
        4
 64
     7
 65
   257
 75
     1
175
     1
 42
1.0
 92
        8
 66
     7
 43
1.0
 76
     1
 77
     6
 78
     2
 67
     7
 79
     5
170
     0
171
     0
290
     0
174
     0
 93
        1
 44
0.0
173
     0
291
     1
 45
0.0
  0
VISUALSTYLE
  5
2A
102
{ACAD_REACTORS
330
29
102
}
330
29
100
AcDbVisualStyle
  2
Flat
 70
     0
 71
     2
 72
     1
 73
     1
 90
        2
 40
-0.6
 41
30.0
 62
     5
 63
     7
421
 16777215
 74
     0
 91
        4
 64
     7
 65
   257
 75
     1
175
     1
 42
1.0
 92
        8
 66
     7
 43
1.0
 76
     1
 77
     6
 78
     2
 67
     7
 79
     5
170
     0
171
     0
290
     0
174
     0
 93
       13
 44
0.0
173
     0
291
     1
 45
0.0
  0
VISUALSTYLE
  5
2B
102
{ACAD_REACTORS
330
29
102
}
330
29
100
AcDbVisualStyle
  2
FlatWithEdges
 70
     1
 71
     2
 72
     1
 73
     1
 90
        2
 40
-0.6
 41
30.0
 62
     5
 63
     7
421
 16777215
 74
     1
 91
        4
 64
     7
 65
   257
 75
     1
175
     1
 42
1.0
 92
        0
 66
   257
 43
1.0
 76
     1
 77
     6
 78
     2
 67
     7
 79
     5
170
     0
171
     0
290
     0
174
     0
 93
       13
 44
0.0
173
     0
291
     1
 45
0.0
  0
VISUALSTYLE
  5
2C
102
{ACAD_REACTORS
330
29
102
}
330
29
100
AcDbVisualStyle
  2
Gouraud
 70
     2
 71
     2
 72
     2
 73
     1
 90
        2
 40
-0.6
 41
30.0
 62
     5
 63
     7
421
 16777215
 74
     0
 91
        4
 64
     7
 65
   257
 75
     1
175
     1
 42
1.0
 92
        0
 66
     7
 43
1.0
 76
     1
 77
     6
 78
     2
 67
     7
 79
     5
170
     0
171
     0
290
     0
174
     0
 93
       13
 44
0.0
173
     0
291
     1
 45
0.0
  0
VISUALSTYLE
  5
2D
102
{ACAD_REACTORS
330
29
102
}
330
29
100
AcDbVisualStyle
  2
GouraudWithEdges
 70
     3
 71
     2
 72
     2
 73
     1
 90
        2
 40
-0.6
 41
30.0
 62
     5
 63
     7
421
 16777215
 74
     1
 91
        4
 64
     7
 65
   257
 75
     1
175
     1
 42
1.0
 92
        0
 66
   257
 43
1.0
 76
     1
 77
     6
 78
     2
 67
     7
 79
     5
170
     0
171
     0
290
     0
174
     0
 93
       13
 44
0.0
173
     0
291
     1
 45
0.0
  0
VISUALSTYLE
  5
37
102
{ACAD_REACTORS
330
29
102
}
330
29
100
AcDbVisualStyle
  2
Linepattern
 70
    14
 71
     2
 72
     2
 73
     0
 90
        0
 40
-0.6
 41
-30.0
 62
     5
 63
     7
421
 16777215
 74
     1
 91
        4
 64
     7
 65
   257
 75
     7
175
     7
 42
1.0
 92
        8
 66
     7
 43
1.0
 76
     1
 77
     6
 78
     2
 67
     7
 79
     5
170
     0
171
     0
290
     0
174
     0
 93
        1
 44
0.0
173
     0
291
     1
 45
0.0
  0
VISUALSTYLE
  5
33
102
{ACAD_REACTORS
330
29
102
}
330
29
100
AcDbVisualStyle
  2
Realistic
 70
     8
 71
     2
 72
     2
 73
     0
 90
        0
 40
-0.6
 41
-30.0
 62
     5
 63
     7
421
 16777215
 74
     1
 91
        0
 64
     7
 65
   257
 75
     1
175
     1
 42
1.0
 92
        8
 66
     8
424
  7895160
 43
1.0
 76
     1
 77
     6
 78
     2
 67
     7
 79
     5
170
     0
171
     0
290
     0
174
     0
 93
       13
 44
0.0
173
     0
291
     0
 45
0.0
  0
VISUALSTYLE
  5
36
102
{ACAD_REACTORS
330
29
102
}
330
29
100
AcDbVisualStyle
  2
Thicken
 70
    13
 71
     2
 72
     2
 73
     0
 90
        0
 40
-0.6
 41
-30.0
 62
     5
 63
     7
421
 16777215
 74
     1
 91
        4
 64
     7
 65
   257
 75
     1
175
     1
 42
1.0
 92
       12
 66
     7
 43
1.0
 76
     1
 77
     6
 78
     2
 67
     7
 79
     5
170
     0
171
     0
290
     0
174
     0
 93
        1
 44
0.0
173
     0
291
     1
 45
0.0
  0
DICTIONARYVAR
  5
2A3
102
{ACAD_REACTORS
330
2A0
102
}
330
2A0
100
DictionaryVariables
280
     0
  1
1:1
  0
DICTIONARYVAR
  5
2A2
102
{ACAD_REACTORS
330
2A0
102
}
330
2A0
100
DictionaryVariables
280
     0
  1
STANDARD
  0
DICTIONARYVAR
  5
2A1
102
{ACAD_REACTORS
330
2A0
102
}
330
2A0
100
DictionaryVariables
280
     0
  1
STANDARD
  0
DICTIONARY
  5
1A
330
19
100
AcDbDictionary
280
     1
281
     1
  3
BUMPTILE
360
1C
  3
DIFFUSETILE
360
1B
  3
OPACITYTILE
360
1F
  3
REFLECTIONTILE
360
1E
  3
REFRACTIONTILE
360
20
  3
SPECULARTILE
360
1D
  0
DICTIONARY
  5
12
330
11
100
AcDbDictionary
280
     1
281
     1
  3
BUMPTILE
360
14
  3
DIFFUSETILE
360
13
  3
OPACITYTILE
360
17
  3
REFLECTIONTILE
360
16
  3
REFRACTIONTILE
360
18
  3
SPECULARTILE
360
15
  0
DICTIONARY
  5
22
330
21
100
AcDbDictionary
280
     1
281
     1
  3
BUMPTILE
360
24
  3
DIFFUSETILE
360
23
  3
OPACITYTILE
360
27
  3
REFLECTIONTILE
360
26
  3
REFRACTIONTILE
360
28
  3
SPECULARTILE
360
25
  0
DICTIONARY
  5
2A4
330
6D
100
AcDbDictionary
280
     1
281
     1
  3
ACAD_ROUNDTRIP_2008_TABLESTYLE_CELLSTYLEMAP
360
2A5
  0
XRECORD
  5
1C
102
{ACAD_REACTORS
330
1A
102
}
330
1A
100
AcDbXrecord
280
     1
270
     1
271
     1
  0
XRECORD
  5
1B
102
{ACAD_REACTORS
330
1A
102
}
330
1A
100
AcDbXrecord
280
     1
270
     1
271
     1
  0
XRECORD
  5
1F
102
{ACAD_REACTORS
330
1A
102
}
330
1A
100
AcDbXrecord
280
     1
270
     1
271
     1
  0
XRECORD
  5
1E
102
{ACAD_REACTORS
330
1A
102
}
330
1A
100
AcDbXrecord
280
     1
270
     1
271
     1
  0
XRECORD
  5
20
102
{ACAD_REACTORS
330
1A
102
}
330
1A
100
AcDbXrecord
280
     1
270
     1
271
     1
  0
XRECORD
  5
1D
102
{ACAD_REACTORS
330
1A
102
}
330
1A
100
AcDbXrecord
280
     1
270
     1
271
     1
  0
XRECORD
  5
14
102
{ACAD_REACTORS
330
12
102
}
330
12
100
AcDbXrecord
280
     1
270
     1
271
     1
  0
XRECORD
  5
13
102
{ACAD_REACTORS
330
12
102
}
330
12
100
AcDbXrecord
280
     1
270
     1
271
     1
  0
XRECORD
  5
17
102
{ACAD_REACTORS
330
12
102
}
330
12
100
AcDbXrecord
280
     1
270
     1
271
     1
  0
XRECORD
  5
16
102
{ACAD_REACTORS
330
12
102
}
330
12
100
AcDbXrecord
280
     1
270
     1
271
     1
  0
XRECORD
  5
18
102
{ACAD_REACTORS
330
12
102
}
330
12
100
AcDbXrecord
280
     1
270
     1
271
     1
  0
XRECORD
  5
15
102
{ACAD_REACTORS
330
12
102
}
330
12
100
AcDbXrecord
280
     1
270
     1
271
     1
  0
XRECORD
  5
24
102
{ACAD_REACTORS
330
22
102
}
330
22
100
AcDbXrecord
280
     1
270
     1
271
     1
  0
XRECORD
  5
23
102
{ACAD_REACTORS
330
22
102
}
330
22
100
AcDbXrecord
280
     1
270
     1
271
     1
  0
XRECORD
  5
27
102
{ACAD_REACTORS
330
22
102
}
330
22
100
AcDbXrecord
280
     1
270
     1
271
     1
  0
XRECORD
  5
26
102
{ACAD_REACTORS
330
22
102
}
330
22
100
AcDbXrecord
280
     1
270
     1
271
     1
  0
XRECORD
  5
28
102
{ACAD_REACTORS
330
22
102
}
330
22
100
AcDbXrecord
280
     1
270
     1
271
     1
  0
XRECORD
  5
25
102
{ACAD_REACTORS
330
22
102
}
330
22
100
AcDbXrecord
280
     1
270
     1
271
     1
  0
CELLSTYLEMAP
  5
2A5
102
{ACAD_REACTORS
330
2A4
102
}
330
2A4
100
AcDbCellStyleMap
 90
        3
300
CELLSTYLE
  1
TABLEFORMAT_BEGIN
 90
        5
170
     1
 91
        0
 92
    32768
 62
   257
 93
        1
300
CONTENTFORMAT
  1
CONTENTFORMAT_BEGIN
 90
        0
 91
        0
 92
      512
 93
        0
300

 40
0.0
140
1.0
 94
        5
 62
     0
340
5D
144
0.25
309
CONTENTFORMAT_END
171
     0
 94
        0
309
TABLEFORMAT_END
  1
CELLSTYLE_BEGIN
 90
        1
 91
        1
300
_TITLE
309
CELLSTYLE_END
300
CELLSTYLE
  1
TABLEFORMAT_BEGIN
 90
        5
170
     1
 91
        0
 92
        0
 62
   257
 93
        1
300
CONTENTFORMAT
  1
CONTENTFORMAT_BEGIN
 90
        0
 91
        0
 92
      512
 93
        0
300

 40
0.0
140
1.0
 94
        5
 62
     0
340
5D
144
0.18
309
CONTENTFORMAT_END
171
     0
 94
        0
309
TABLEFORMAT_END
  1
CELLSTYLE_BEGIN
 90
        2
 91
        1
300
_HEADER
309
CELLSTYLE_END
300
CELLSTYLE
  1
TABLEFORMAT_BEGIN
 90
        5
170
     1
 91
        0
 92
        0
 62
   257
 93
        1
300
CONTENTFORMAT
  1
CONTENTFORMAT_BEGIN
 90
        0
 91
        0
 92
      512
 93
        0
300

 40
0.0
140
1.0
 94
        2
 62
     0
340
5D
144
0.18
309
CONTENTFORMAT_END
171
     0
 94
        0
309
TABLEFORMAT_END
  1
CELLSTYLE_BEGIN
 90
        3
 91
        2
300
_DATA
309
CELLSTYLE_END
  0
ENDSEC
  0
EOF
