  0
SECTION
  2
HEADER
  9
$ACADVER
  1
AC1021
  9
$ACADMAINTVER
 70
    50
  9
$DWGCODEPAGE
  3
ANSI_1252
  9
$INSBASE
 10
0.0
 20
0.0
 30
0.0
  9
$EXTMIN
 10
0.0990107239419977
 20
-56.27118184999999
 30
-0.00000001
  9
$EXTMAX
 10
67.81393176079396
 20
45.14589605189572
 30
0.00000001
  9
$LIMMIN
 10
-123.0282078607435
 20
-235.0845824470421
  9
$LIMMAX
 10
2800.200138595949
 20
1831.844551411225
  9
$ORTHOMODE
 70
     0
  9
$REGENMODE
 70
     1
  9
$FILLMODE
 70
     1
  9
$QTEXTMODE
 70
     0
  9
$MIRRTEXT
 70
     0
  9
$LTSCALE
 40
0.254
  9
$ATTMODE
 70
     1
  9
$TEXTSIZE
 40
0.375
  9
$TRACEWID
 40
0.05
  9
$TEXTSTYLE
  7
Standard
  9
$CLAYER
  8
0
  9
$CELTYPE
  6
ByLayer
  9
$CECOLOR
 62
     0
  9
$CELTSCALE
 40
1.0
  9
$DISPSILH
 70
     0
  9
$DIMSCALE
 40
1.0
  9
$DIMASZ
 40
0.18
  9
$DIMEXO
 40
0.0625
  9
$DIMDLI
 40
0.38
  9
$DIMRND
 40
0.0
  9
$DIMDLE
 40
0.0
  9
$DIMEXE
 40
0.18
  9
$DIMTP
 40
0.0
  9
$DIMTM
 40
0.0
  9
$DIMTXT
 40
39.37007874015748
  9
$DIMCEN
 40
0.09
  9
$DIMTSZ
 40
0.0
  9
$DIMTOL
 70
     0
  9
$DIMLIM
 70
     0
  9
$DIMTIH
 70
     1
  9
$DIMTOH
 70
     1
  9
$DIMSE1
 70
     0
  9
$DIMSE2
 70
     0
  9
$DIMTAD
 70
     0
  9
$DIMZIN
 70
     0
  9
$DIMBLK
  1

  9
$DIMASO
 70
     1
  9
$DIMSHO
 70
     1
  9
$DIMPOST
  1

  9
$DIMAPOST
  1

  9
$DIMALT
 70
     0
  9
$DIMALTD
 70
     2
  9
$DIMALTF
 40
25.4
  9
$DIMLFAC
 40
1.0
  9
$DIMTOFL
 70
     0
  9
$DIMTVP
 40
0.0
  9
$DIMTIX
 70
     0
  9
$DIMSOXD
 70
     0
  9
$DIMSAH
 70
     0
  9
$DIMBLK1
  1

  9
$DIMBLK2
  1

  9
$DIMSTYLE
  2
Standard
  9
$DIMCLRD
 70
     0
  9
$DIMCLRE
 70
     0
  9
$DIMCLRT
 70
     0
  9
$DIMTFAC
 40
1.0
  9
$DIMGAP
 40
0.09
  9
$DIMJUST
 70
     0
  9
$DIMSD1
 70
     0
  9
$DIMSD2
 70
     0
  9
$DIMTOLJ
 70
     1
  9
$DIMTZIN
 70
     0
  9
$DIMALTZ
 70
     0
  9
$DIMALTTZ
 70
     0
  9
$DIMUPT
 70
     0
  9
$DIMDEC
 70
     4
  9
$DIMTDEC
 70
     4
  9
$DIMALTU
 70
     2
  9
$DIMALTTD
 70
     2
  9
$DIMTXSTY
  7
Standard
  9
$DIMAUNIT
 70
     1
  9
$DIMADEC
 70
     0
  9
$DIMALTRND
 40
0.0
  9
$DIMAZIN
 70
     0
  9
$DIMDSEP
 70
    46
  9
$DIMATFIT
 70
     3
  9
$DIMFRAC
 70
     0
  9
$DIMLDRBLK
  1

  9
$DIMLUNIT
 70
     4
  9
$DIMLWD
 70
    -2
  9
$DIMLWE
 70
    -2
  9
$DIMTMOVE
 70
     0
  9
$DIMFXL
 40
1.0
  9
$DIMFXLON
 70
     0
  9
$DIMJOGANG
 40
0.7853981633974483
  9
$DIMTFILL
 70
     0
  9
$DIMTFILLCLR
 70
     0
  9
$DIMARCSYM
 70
     0
  9
$DIMLTYPE
  6

  9
$DIMLTEX1
  6

  9
$DIMLTEX2
  6

  9
$LUNITS
 70
     2
  9
$LUPREC
 70
     4
  9
$SKETCHINC
 40
0.1
  9
$FILLETRAD
 40
0.005
  9
$AUNITS
 70
     0
  9
$AUPREC
 70
     0
  9
$MENU
  1
.
  9
$ELEVATION
 40
0.0
  9
$PELEVATION
 40
0.0
  9
$THICKNESS
 40
0.0
  9
$LIMCHECK
 70
     0
  9
$CHAMFERA
 40
0.005
  9
$CHAMFERB
 40
0.005
  9
$CHAMFERC
 40
0.0
  9
$CHAMFERD
 40
0.0
  9
$SKPOLY
 70
     0
  9
$TDCREATE
 40
2458023.569086076
  9
$TDUCREATE
 40
2458023.485752743
  9
$TDUPDATE
 40
2458023.569086076
  9
$TDUUPDATE
 40
2458023.485752743
  9
$TDINDWG
 40
0.0000003588
  9
$TDUSRTIMER
 40
0.0000003588
  9
$USRTIMER
 70
     1
  9
$ANGBASE
 50
0.0
  9
$ANGDIR
 70
     0
  9
$PDMODE
 70
     0
  9
$PDSIZE
 40
0.0
  9
$PLINEWID
 40
0.0
  9
$SPLFRAME
 70
     0
  9
$SPLINETYPE
 70
     6
  9
$SPLINESEGS
 70
     8
  9
$HANDSEED
  5
2E3
  9
$SURFTAB1
 70
     6
  9
$SURFTAB2
 70
     6
  9
$SURFTYPE
 70
     6
  9
$SURFU
 70
     6
  9
$SURFV
 70
     6
  9
$UCSBASE
  2

  9
$UCSNAME
  2

  9
$UCSORG
 10
0.0
 20
0.0
 30
0.0
  9
$UCSXDIR
 10
1.0
 20
0.0
 30
0.0
  9
$UCSYDIR
 10
0.0
 20
1.0
 30
0.0
  9
$UCSORTHOREF
  2

  9
$UCSORTHOVIEW
 70
     0
  9
$UCSORGTOP
 10
0.0
 20
0.0
 30
0.0
  9
$UCSORGBOTTOM
 10
0.0
 20
0.0
 30
0.0
  9
$UCSORGLEFT
 10
0.0
 20
0.0
 30
0.0
  9
$UCSORGRIGHT
 10
0.0
 20
0.0
 30
0.0
  9
$UCSORGFRONT
 10
0.0
 20
0.0
 30
0.0
  9
$UCSORGBACK
 10
0.0
 20
0.0
 30
0.0
  9
$PUCSBASE
  2

  9
$PUCSNAME
  2

  9
$PUCSORG
 10
0.0
 20
0.0
 30
0.0
  9
$PUCSXDIR
 10
1.0
 20
0.0
 30
0.0
  9
$PUCSYDIR
 10
0.0
 20
1.0
 30
0.0
  9
$PUCSORTHOREF
  2

  9
$PUCSORTHOVIEW
 70
     0
  9
$PUCSORGTOP
 10
0.0
 20
0.0
 30
0.0
  9
$PUCSORGBOTTOM
 10
0.0
 20
0.0
 30
0.0
  9
$PUCSORGLEFT
 10
0.0
 20
0.0
 30
0.0
  9
$PUCSORGRIGHT
 10
0.0
 20
0.0
 30
0.0
  9
$PUCSORGFRONT
 10
0.0
 20
0.0
 30
0.0
  9
$PUCSORGBACK
 10
0.0
 20
0.0
 30
0.0
  9
$USERI1
 70
     0
  9
$USERI2
 70
     0
  9
$USERI3
 70
     0
  9
$USERI4
 70
     0
  9
$USERI5
 70
     0
  9
$USERR1
 40
0.0
  9
$USERR2
 40
0.0
  9
$USERR3
 40
0.0
  9
$USERR4
 40
0.0
  9
$USERR5
 40
0.0
  9
$WORLDVIEW
 70
     1
  9
$SHADEDGE
 70
     3
  9
$SHADEDIF
 70
    70
  9
$TILEMODE
 70
     1
  9
$MAXACTVP
 70
    64
  9
$PINSBASE
 10
0.0
 20
0.0
 30
0.0
  9
$PLIMCHECK
 70
     0
  9
$PEXTMIN
 10
1.000000000000000E+20
 20
1.000000000000000E+20
 30
1.000000000000000E+20
  9
$PEXTMAX
 10
-1.000000000000000E+20
 20
-1.000000000000000E+20
 30
-1.000000000000000E+20
  9
$PLIMMIN
 10
0.0
 20
0.0
  9
$PLIMMAX
 10
12.0
 20
9.0
  9
$UNITMODE
 70
     0
  9
$VISRETAIN
 70
     1
  9
$PLINEGEN
 70
     0
  9
$PSLTSCALE
 70
     1
  9
$TREEDEPTH
 70
  3020
  9
$CMLSTYLE
  2
Standard
  9
$CMLJUST
 70
     0
  9
$CMLSCALE
 40
1.0
  9
$PROXYGRAPHICS
 70
     1
  9
$MEASUREMENT
 70
     1
  9
$CELWEIGHT
370
    -1
  9
$ENDCAPS
280
     0
  9
$JOINSTYLE
280
     0
  9
$LWDISPLAY
290
     0
  9
$INSUNITS
 70
     0
  9
$HYPERLINKBASE
  1

  9
$STYLESHEET
  1

  9
$XEDIT
290
     1
  9
$CEPSNTYPE
380
     0
  9
$PSTYLEMODE
290
     1
  9
$FINGERPRINTGUID
  2
{29B6931B-1954-4716-8179-FC8B0DBEDFEF}
  9
$VERSIONGUID
  2
{9BA77737-4120-4938-92DA-0D51206E2068}
  9
$EXTNAMES
290
     1
  9
$PSVPSCALE
 40
0.0
  9
$OLESTARTUP
290
     0
  9
$SORTENTS
280
   127
  9
$INDEXCTL
280
     0
  9
$HIDETEXT
280
     1
  9
$XCLIPFRAME
290
     0
  9
$HALOGAP
280
     0
  9
$OBSCOLOR
 70
   257
  9
$OBSLTYPE
280
     0
  9
$INTERSECTIONDISPLAY
280
     0
  9
$INTERSECTIONCOLOR
 70
   257
  9
$DIMASSOC
280
     2
  9
$PROJECTNAME
  1

  9
$CAMERADISPLAY
290
     0
  9
$LENSLENGTH
 40
50.0
  9
$CAMERAHEIGHT
 40
0.0
  9
$STEPSPERSEC
 40
2.0
  9
$STEPSIZE
 40
6.0
  9
$3DDWFPREC
 40
2.0
  9
$PSOLWIDTH
 40
0.25
  9
$PSOLHEIGHT
 40
4.0
  9
$LOFTANG1
 40
1.570796326794896
  9
$LOFTANG2
 40
1.570796326794896
  9
$LOFTMAG1
 40
0.0
  9
$LOFTMAG2
 40
0.0
  9
$LOFTPARAM
 70
     7
  9
$LOFTNORMALS
280
     1
  9
$LATITUDE
 40
37.795
  9
$LONGITUDE
 40
-122.394
  9
$NORTHDIRECTION
 40
0.0
  9
$TIMEZONE
 70
 -8000
  9
$LIGHTGLYPHDISPLAY
280
     1
  9
$TILEMODELIGHTSYNCH
280
     1
  9
$CMATERIAL
347
11
  9
$SOLIDHIST
280
     1
  9
$SHOWHIST
280
     1
  9
$DWFFRAME
280
     2
  9
$DGNFRAME
280
     0
  9
$REALWORLDSCALE
290
     1
  9
$INTERFERECOLOR
 62
     1
  9
$INTERFEREOBJVS
345
33
  9
$INTERFEREVPVS
346
30
  9
$CSHADOW
280
     0
  9
$SHADOWPLANELOCATION
 40
0.0
  0
ENDSEC
  0
SECTION
  2
CLASSES
  0
CLASS
  1
ACDBDICTIONARYWDFLT
  2
AcDbDictionaryWithDefault
  3
ObjectDBX Classes
 90
        0
 91
        1
280
     0
281
     0
  0
CLASS
  1
MATERIAL
  2
AcDbMaterial
  3
ObjectDBX Classes
 90
     1153
 91
        3
280
     0
281
     0
  0
CLASS
  1
VISUALSTYLE
  2
AcDbVisualStyle
  3
ObjectDBX Classes
 90
     4095
 91
       16
280
     0
281
     0
  0
CLASS
  1
SCALE
  2
AcDbScale
  3
ObjectDBX Classes
 90
     1153
 91
       33
280
     0
281
     0
  0
CLASS
  1
TABLESTYLE
  2
AcDbTableStyle
  3
ObjectDBX Classes
 90
     4095
 91
        1
280
     0
281
     0
  0
CLASS
  1
MLEADERSTYLE
  2
AcDbMLeaderStyle
  3
ACDB_MLEADERSTYLE_CLASS
 90
     4095
 91
        1
280
     0
281
     0
  0
CLASS
  1
DICTIONARYVAR
  2
AcDbDictionaryVar
  3
ObjectDBX Classes
 90
        0
 91
        3
280
     0
281
     0
  0
CLASS
  1
CELLSTYLEMAP
  2
AcDbCellStyleMap
  3
ObjectDBX Classes
 90
     1152
 91
        1
280
     0
281
     0
  0
ENDSEC
  0
SECTION
  2
TABLES
  0
TABLE
  2
VPORT
  5
8
330
0
100
AcDbSymbolTable
 70
     1
  0
VPORT
  5
5F
330
8
100
AcDbSymbolTableRecord
100
AcDbViewportTableRecord
  2
*Active
 70
     0
 10
0.0
 20
0.0
 11
1.0
 21
1.0
 12
1277.071861437231
 22
680.8376932585706
 13
0.0
 23
0.0
 14
1.0
 24
1.0
 15
0.0
 25
0.0
 16
0.0
 26
0.0
 36
1.0
 17
0.0
 27
0.0
 37
0.0
 40
1831.844551411225
 41
1.528623231943298
 42
50.0
 43
0.0
 44
0.0
 50
0.0
 51
0.0
 71
     0
 72
   100
 73
     1
 74
     1
 75
     0
 76
     0
 77
     0
 78
     0
281
     0
 65
     1
110
0.0
120
0.0
130
0.0
111
1.0
121
0.0
131
0.0
112
0.0
122
1.0
132
0.0
 79
     0
146
0.0
 60
     3
 61
     5
292
     1
282
     1
141
0.0
142
0.0
 63
   250
421
  3355443
  0
ENDTAB
  0
TABLE
  2
LTYPE
  5
5
330
0
100
AcDbSymbolTable
 70
    40
  0
LTYPE
  5
63
330
5
100
AcDbSymbolTableRecord
100
AcDbLinetypeTableRecord
  2
ByBlock
 70
     0
  3

 72
    65
 73
     0
 40
0.0
  0
LTYPE
  5
64
330
5
100
AcDbSymbolTableRecord
100
AcDbLinetypeTableRecord
  2
ByLayer
 70
     0
  3

 72
    65
 73
     0
 40
0.0
  0
LTYPE
  5
65
330
5
100
AcDbSymbolTableRecord
100
AcDbLinetypeTableRecord
  2
Continuous
 70
     0
  3
Solid line
 72
    65
 73
     0
 40
0.0
  0
LTYPE
  5
7D
330
5
100
AcDbSymbolTableRecord
100
AcDbLinetypeTableRecord
  2
HIDDEN
 70
     0
  3
_ _ _ _ _ _ _ _ _ _ _ _ _ _ 
 72
    65
 73
     2
 40
0.009525
 49
0.00635
 74
     0
 49
-0.003175
 74
     0
  0
LTYPE
  5
7E
330
5
100
AcDbSymbolTableRecord
100
AcDbLinetypeTableRecord
  2
DASHED
 70
     0
  3
__ __ __ __ __ __ __ __ __ 
 72
    65
 73
     2
 40
0.01905
 49
0.0127
 74
     0
 49
-0.00635
 74
     0
  0
LTYPE
  5
7F
330
5
100
AcDbSymbolTableRecord
100
AcDbLinetypeTableRecord
  2
CENTER
 70
     0
  3
____ _ ____ _ ____ _ ____ _ 
 72
    65
 73
     4
 40
0.0508
 49
0.03175
 74
     0
 49
-0.00635
 74
     0
 49
0.00635
 74
     0
 49
-0.00635
 74
     0
  0
LTYPE
  5
80
330
5
100
AcDbSymbolTableRecord
100
AcDbLinetypeTableRecord
  2
PHANTOM
 70
     0
  3
_____ _ _ _____ _ _ _____ _ _ 
 72
    65
 73
     6
 40
0.0635
 49
0.03175
 74
     0
 49
-0.00635
 74
     0
 49
0.00635
 74
     0
 49
-0.00635
 74
     0
 49
0.00635
 74
     0
 49
-0.00635
 74
     0
  0
LTYPE
  5
81
330
5
100
AcDbSymbolTableRecord
100
AcDbLinetypeTableRecord
  2
DOT
 70
     0
  3
...........................
 72
    65
 73
     2
 40
0.00635
 49
0.0
 74
     0
 49
-0.00635
 74
     0
  0
LTYPE
  5
82
330
5
100
AcDbSymbolTableRecord
100
AcDbLinetypeTableRecord
  2
DASHDOT
 70
     0
  3
__ . __ . __ . __ . __ . __ . 
 72
    65
 73
     4
 40
0.0254
 49
0.0127
 74
     0
 49
-0.00635
 74
     0
 49
0.0
 74
     0
 49
-0.00635
 74
     0
  0
LTYPE
  5
83
330
5
100
AcDbSymbolTableRecord
100
AcDbLinetypeTableRecord
  2
DIVIDE
 70
     0
  3
__ . . __ . . __ . . __ . . 
 72
    65
 73
     6
 40
0.03175
 49
0.0127
 74
     0
 49
-0.00635
 74
     0
 49
0.0
 74
     0
 49
-0.00635
 74
     0
 49
0.0
 74
     0
 49
-0.00635
 74
     0
  0
LTYPE
  5
84
330
5
100
AcDbSymbolTableRecord
100
AcDbLinetypeTableRecord
  2
BORDER
 70
     0
  3
__ __ . __ __ . __ __ . __ __ .
 72
    65
 73
     6
 40
0.04445
 49
0.0127
 74
     0
 49
-0.00635
 74
     0
 49
0.0127
 74
     0
 49
-0.00635
 74
     0
 49
0.0
 74
     0
 49
-0.00635
 74
     0
  0
LTYPE
  5
85
330
5
100
AcDbSymbolTableRecord
100
AcDbLinetypeTableRecord
  2
BORDER2
 70
     0
  3
Border (.5x) __.__.__.__.__.__.
 72
    65
 73
     6
 40
0.875
 49
0.25
 74
     0
 49
-0.125
 74
     0
 49
0.25
 74
     0
 49
-0.125
 74
     0
 49
0.0
 74
     0
 49
-0.125
 74
     0
  0
LTYPE
  5
86
330
5
100
AcDbSymbolTableRecord
100
AcDbLinetypeTableRecord
  2
BORDERX2
 70
     0
  3
Border (2x) ____  ____  .  ____
 72
    65
 73
     6
 40
3.5
 49
1.0
 74
     0
 49
-0.5
 74
     0
 49
1.0
 74
     0
 49
-0.5
 74
     0
 49
0.0
 74
     0
 49
-0.5
 74
     0
  0
LTYPE
  5
87
330
5
100
AcDbSymbolTableRecord
100
AcDbLinetypeTableRecord
  2
CENTER2
 70
     0
  3
Center (.5x) ___ _ ___ _ ___ _ 
 72
    65
 73
     4
 40
1.125
 49
0.7500000000000001
 74
     0
 49
-0.125
 74
     0
 49
0.125
 74
     0
 49
-0.125
 74
     0
  0
LTYPE
  5
88
330
5
100
AcDbSymbolTableRecord
100
AcDbLinetypeTableRecord
  2
CENTERX2
 70
     0
  3
Center (2x) ________  __  _____
 72
    65
 73
     4
 40
4.0
 49
2.5
 74
     0
 49
-0.5
 74
     0
 49
0.5
 74
     0
 49
-0.5
 74
     0
  0
LTYPE
  5
89
330
5
100
AcDbSymbolTableRecord
100
AcDbLinetypeTableRecord
  2
DASHDOT2
 70
     0
  3
Dash dot (.5x) _._._._._._._._.
 72
    65
 73
     4
 40
0.5
 49
0.25
 74
     0
 49
-0.125
 74
     0
 49
0.0
 74
     0
 49
-0.125
 74
     0
  0
LTYPE
  5
8A
330
5
100
AcDbSymbolTableRecord
100
AcDbLinetypeTableRecord
  2
DASHDOTX2
 70
     0
  3
Dash dot (2x) ____  .  ____  . 
 72
    65
 73
     4
 40
2.0
 49
1.0
 74
     0
 49
-0.5
 74
     0
 49
0.0
 74
     0
 49
-0.5
 74
     0
  0
LTYPE
  5
8B
330
5
100
AcDbSymbolTableRecord
100
AcDbLinetypeTableRecord
  2
DASHED2
 70
     0
  3
Dashed (.5x) _ _ _ _ _ _ _ _ _ 
 72
    65
 73
     2
 40
0.375
 49
0.25
 74
     0
 49
-0.125
 74
     0
  0
LTYPE
  5
8C
330
5
100
AcDbSymbolTableRecord
100
AcDbLinetypeTableRecord
  2
DASHEDX2
 70
     0
  3
Dashed (2x) ____  ____  ____  _
 72
    65
 73
     2
 40
1.5
 49
1.0
 74
     0
 49
-0.5
 74
     0
  0
LTYPE
  5
8D
330
5
100
AcDbSymbolTableRecord
100
AcDbLinetypeTableRecord
  2
DIVIDE2
 70
     0
  3
Divide (.5x) __..__..__..__..__
 72
    65
 73
     6
 40
0.625
 49
0.25
 74
     0
 49
-0.125
 74
     0
 49
0.0
 74
     0
 49
-0.125
 74
     0
 49
0.0
 74
     0
 49
-0.125
 74
     0
  0
LTYPE
  5
8E
330
5
100
AcDbSymbolTableRecord
100
AcDbLinetypeTableRecord
  2
DIVIDEX2
 70
     0
  3
Divide (2x) ________  .  .  ___
 72
    65
 73
     6
 40
2.5
 49
1.0
 74
     0
 49
-0.5
 74
     0
 49
0.0
 74
     0
 49
-0.5
 74
     0
 49
0.0
 74
     0
 49
-0.5
 74
     0
  0
LTYPE
  5
8F
330
5
100
AcDbSymbolTableRecord
100
AcDbLinetypeTableRecord
  2
DOT2
 70
     0
  3
Dot (.5x) .....................
 72
    65
 73
     2
 40
0.125
 49
0.0
 74
     0
 49
-0.125
 74
     0
  0
LTYPE
  5
90
330
5
100
AcDbSymbolTableRecord
100
AcDbLinetypeTableRecord
  2
DOTX2
 70
     0
  3
Dot (2x) .  .  .  .  .  .  .  .
 72
    65
 73
     2
 40
0.5
 49
0.0
 74
     0
 49
-0.5
 74
     0
  0
LTYPE
  5
91
330
5
100
AcDbSymbolTableRecord
100
AcDbLinetypeTableRecord
  2
HIDDEN2
 70
     0
  3
Hidden (.5x) _ _ _ _ _ _ _ _ _ 
 72
    65
 73
     2
 40
0.1875
 49
0.125
 74
     0
 49
-0.0625
 74
     0
  0
LTYPE
  5
92
330
5
100
AcDbSymbolTableRecord
100
AcDbLinetypeTableRecord
  2
HIDDENX2
 70
     0
  3
Hidden (2x) ____ ____ ____ ____
 72
    65
 73
     2
 40
0.75
 49
0.5
 74
     0
 49
-0.25
 74
     0
  0
LTYPE
  5
93
330
5
100
AcDbSymbolTableRecord
100
AcDbLinetypeTableRecord
  2
PHANTOM2
 70
     0
  3
Phantom (.5x) ___ _ _ ___ _ _ _
 72
    65
 73
     6
 40
1.25
 49
0.6250000000000001
 74
     0
 49
-0.125
 74
     0
 49
0.125
 74
     0
 49
-0.125
 74
     0
 49
0.125
 74
     0
 49
-0.125
 74
     0
  0
LTYPE
  5
94
330
5
100
AcDbSymbolTableRecord
100
AcDbLinetypeTableRecord
  2
PHANTOMX2
 70
     0
  3
Phantom (2x) ____________    __
 72
    65
 73
     6
 40
5.0
 49
2.5
 74
     0
 49
-0.5
 74
     0
 49
0.5
 74
     0
 49
-0.5
 74
     0
 49
0.5
 74
     0
 49
-0.5
 74
     0
  0
LTYPE
  5
95
330
5
100
AcDbSymbolTableRecord
100
AcDbLinetypeTableRecord
  2
DOTS
 70
     0
  3
Dots - - - - - - - - - - - - - 
 72
    65
 73
     2
 40
0.1
 49
0.05
 74
     0
 49
-0.05
 74
     0
  0
LTYPE
  5
96
330
5
100
AcDbSymbolTableRecord
100
AcDbLinetypeTableRecord
  2
ACAD_ISO02W100
 70
     0
  3
__ __ __ __ __ __ __ __ __ __ _
 72
    65
 73
     2
 40
15.0
 49
12.0
 74
     0
 49
-3.0
 74
     0
  0
LTYPE
  5
97
330
5
100
AcDbSymbolTableRecord
100
AcDbLinetypeTableRecord
  2
ACAD_ISO03W100
 70
     0
  3
__    __    __    __    __    _
 72
    65
 73
     2
 40
30.0
 49
12.0
 74
     0
 49
-18.0
 74
     0
  0
LTYPE
  5
98
330
5
100
AcDbSymbolTableRecord
100
AcDbLinetypeTableRecord
  2
ACAD_ISO04W100
 70
     0
  3
____ . ____ . ____ . ____ . ___
 72
    65
 73
     4
 40
30.5
 49
24.0
 74
     0
 49
-3.0
 74
     0
 49
0.5
 74
     0
 49
-3.0
 74
     0
  0
LTYPE
  5
99
330
5
100
AcDbSymbolTableRecord
100
AcDbLinetypeTableRecord
  2
ACAD_ISO05W100
 70
     0
  3
____ .. ____ .. ____ .. ____ ..
 72
    65
 73
     6
 40
34.0
 49
24.0
 74
     0
 49
-3.0
 74
     0
 49
0.5
 74
     0
 49
-3.0
 74
     0
 49
0.5
 74
     0
 49
-3.0
 74
     0
  0
LTYPE
  5
9A
330
5
100
AcDbSymbolTableRecord
100
AcDbLinetypeTableRecord
  2
ACAD_ISO06W100
 70
     0
  3
____ ... ____ ... ____ ... ____
 72
    65
 73
     6
 40
34.0
 49
24.0
 74
     0
 49
-3.0
 74
     0
 49
0.5
 74
     0
 49
-3.0
 74
     0
 49
0.5
 74
     0
 49
-3.0
 74
     0
  0
LTYPE
  5
9B
330
5
100
AcDbSymbolTableRecord
100
AcDbLinetypeTableRecord
  2
ACAD_ISO07W100
 70
     0
  3
. . . . . . . . . . . . . . . .
 72
    65
 73
     2
 40
3.5
 49
0.5
 74
     0
 49
-3.0
 74
     0
  0
LTYPE
  5
9C
330
5
100
AcDbSymbolTableRecord
100
AcDbLinetypeTableRecord
  2
ACAD_ISO08W100
 70
     0
  3
____ __ ____ __ ____ __ ____ __
 72
    65
 73
     4
 40
36.0
 49
24.0
 74
     0
 49
-3.0
 74
     0
 49
6.0
 74
     0
 49
-3.0
 74
     0
  0
LTYPE
  5
9D
330
5
100
AcDbSymbolTableRecord
100
AcDbLinetypeTableRecord
  2
ACAD_ISO09W100
 70
     0
  3
____ __ __ ____ __ __ ____ __ _
 72
    65
 73
     6
 40
45.0
 49
24.0
 74
     0
 49
-3.0
 74
     0
 49
6.0
 74
     0
 49
-3.0
 74
     0
 49
6.0
 74
     0
 49
-3.0
 74
     0
  0
LTYPE
  5
9E
330
5
100
AcDbSymbolTableRecord
100
AcDbLinetypeTableRecord
  2
ACAD_ISO10W100
 70
     0
  3
__ . __ . __ . __ . __ . __ . _
 72
    65
 73
     4
 40
18.5
 49
12.0
 74
     0
 49
-3.0
 74
     0
 49
0.5
 74
     0
 49
-3.0
 74
     0
  0
LTYPE
  5
9F
330
5
100
AcDbSymbolTableRecord
100
AcDbLinetypeTableRecord
  2
ACAD_ISO11W100
 70
     0
  3
__ __ . __ __ . __ __ . __ __ .
 72
    65
 73
     6
 40
33.5
 49
12.0
 74
     0
 49
-3.0
 74
     0
 49
12.0
 74
     0
 49
-3.0
 74
     0
 49
0.5
 74
     0
 49
-3.0
 74
     0
  0
LTYPE
  5
A0
330
5
100
AcDbSymbolTableRecord
100
AcDbLinetypeTableRecord
  2
ACAD_ISO12W100
 70
     0
  3
__ . . __ . . __ . . __ . . __ 
 72
    65
 73
     6
 40
22.0
 49
12.0
 74
     0
 49
-3.0
 74
     0
 49
0.5
 74
     0
 49
-3.0
 74
     0
 49
0.5
 74
     0
 49
-3.0
 74
     0
  0
LTYPE
  5
A1
330
5
100
AcDbSymbolTableRecord
100
AcDbLinetypeTableRecord
  2
ACAD_ISO13W100
 70
     0
  3
__ __ . . __ __ . . __ __ . . _
 72
    65
 73
     6
 40
33.5
 49
12.0
 74
     0
 49
-3.0
 74
     0
 49
12.0
 74
     0
 49
-3.0
 74
     0
 49
0.5
 74
     0
 49
-3.0
 74
     0
  0
LTYPE
  5
A2
330
5
100
AcDbSymbolTableRecord
100
AcDbLinetypeTableRecord
  2
ACAD_ISO14W100
 70
     0
  3
__ . . . __ . . . __ . . . __ .
 72
    65
 73
     6
 40
22.0
 49
12.0
 74
     0
 49
-3.0
 74
     0
 49
0.5
 74
     0
 49
-3.0
 74
     0
 49
0.5
 74
     0
 49
-3.0
 74
     0
  0
LTYPE
  5
A3
330
5
100
AcDbSymbolTableRecord
100
AcDbLinetypeTableRecord
  2
ACAD_ISO15W100
 70
     0
  3
__ __ . . . __ __ . . . __ __ .
 72
    65
 73
     6
 40
33.5
 49
12.0
 74
     0
 49
-3.0
 74
     0
 49
12.0
 74
     0
 49
-3.0
 74
     0
 49
0.5
 74
     0
 49
-3.0
 74
     0
  0
ENDTAB
  0
TABLE
  2
LAYER
  5
2
330
0
100
AcDbSymbolTable
 70
     5
  0
LAYER
  5
5C
330
2
100
AcDbSymbolTableRecord
100
AcDbLayerTableRecord
  2
0
 70
     0
 62
     7
  6
Continuous
370
    -3
390
F
347
21
  0
LAYER
  5
A4
330
2
100
AcDbSymbolTableRecord
100
AcDbLayerTableRecord
  2
BODENDURCHFÜHRUNGEN
 70
     0
 62
     7
  6
Continuous
370
    -3
390
F
347
21
  0
LAYER
  5
A5
330
2
100
AcDbSymbolTableRecord
100
AcDbLayerTableRecord
  2
GRUNDRISS
 70
     0
 62
     7
  6
Continuous
370
    -3
390
F
347
21
  0
LAYER
  5
A6
330
2
100
AcDbSymbolTableRecord
100
AcDbLayerTableRecord
  2
HALLE_0_1_EG
 70
     0
 62
     7
  6
Continuous
370
    -3
390
F
347
21
  0
LAYER
  5
A7
330
2
100
AcDbSymbolTableRecord
100
AcDbLayerTableRecord
  2
SW_HALLENWAND
 70
     1
 62
    30
  6
Continuous
370
    -3
390
F
347
21
  0
ENDTAB
  0
TABLE
  2
STYLE
  5
3
330
0
100
AcDbSymbolTable
 70
     7
  0
STYLE
  5
5D
330
3
100
AcDbSymbolTableRecord
100
AcDbTextStyleTableRecord
  2
Standard
 70
     0
 40
0.0
 41
1.0
 50
0.0
 71
     0
 42
0.375
  3
txt
  4

  0
STYLE
  5
62
330
3
100
AcDbSymbolTableRecord
100
AcDbTextStyleTableRecord
  2
Annotative
 70
     0
 40
0.0
 41
1.0
 50
0.0
 71
     0
 42
0.2
  3
txt
  4

1001
AcadAnnotative
1000
AnnotativeData
1002
{
1070
     1
1070
     1
1002
}
  0
STYLE
  5
A8
330
3
100
AcDbSymbolTableRecord
100
AcDbTextStyleTableRecord
  2
ITALIC
 70
     0
 40
0.0
 41
1.0
 50
0.0
 71
     0
 42
0.375
  3
ITALIC
  4

  0
STYLE
  5
A9
330
3
100
AcDbSymbolTableRecord
100
AcDbTextStyleTableRecord
  2
SIMPLEX
 70
     0
 40
0.0
 41
1.0
 50
0.0
 71
     0
 42
0.375
  3
SIMPLEX
  4

  0
STYLE
  5
AA
330
3
100
AcDbSymbolTableRecord
100
AcDbTextStyleTableRecord
  2
COMPLEX
 70
     0
 40
0.0
 41
1.0
 50
0.0
 71
     0
 42
0.375
  3
COMPLEX
  4

  0
STYLE
  5
AC
330
3
100
AcDbSymbolTableRecord
100
AcDbTextStyleTableRecord
  2
ARIAL
 70
     0
 40
0.0
 41
1.0
 50
0.0
 71
     0
 42
0.375
  3
arial.ttf
  4

1001
ACAD
1000
Arial
1071
        0
  0
STYLE
  5
15C
330
3
100
AcDbSymbolTableRecord
100
AcDbTextStyleTableRecord
  2
ARIALB
 70
     0
 40
0.0
 41
1.0
 50
0.0
 71
     0
 42
0.375
  3

  4

1001
ACAD
1000
Arial
1071
 33554432
  0
ENDTAB
  0
TABLE
  2
VIEW
  5
6
330
0
100
AcDbSymbolTable
 70
     0
  0
ENDTAB
  0
TABLE
  2
UCS
  5
7
330
0
100
AcDbSymbolTable
 70
     0
  0
ENDTAB
  0
TABLE
  2
APPID
  5
9
330
0
100
AcDbSymbolTable
 70
     3
  0
APPID
  5
5E
330
9
100
AcDbSymbolTableRecord
100
AcDbRegAppTableRecord
  2
ACAD
 70
     0
  0
APPID
  5
66
330
9
100
AcDbSymbolTableRecord
100
AcDbRegAppTableRecord
  2
AcadAnnotative
 70
     0
  0
APPID
  5
70
330
9
100
AcDbSymbolTableRecord
100
AcDbRegAppTableRecord
  2
ACAD_MLEADERVER
 70
     0
  0
ENDTAB
  0
TABLE
  2
DIMSTYLE
  5
A
330
0
100
AcDbSymbolTable
 70
     2
100
AcDbDimStyleTable
 71
     0
  0
DIMSTYLE
105
60
330
A
100
AcDbSymbolTableRecord
100
AcDbDimStyleTableRecord
  2
Standard
 70
     0
340
5D
  0
DIMSTYLE
105
61
330
A
100
AcDbSymbolTableRecord
100
AcDbDimStyleTableRecord
  2
Annotative
 70
     0
340
5D
1001
AcadAnnotative
1000
AnnotativeData
1002
{
1070
     1
1070
     1
1002
}
  0
ENDTAB
  0
TABLE
  2
BLOCK_RECORD
  5
1
330
0
100
AcDbSymbolTable
 70
     2
  0
BLOCK_RECORD
  5
75
330
1
100
AcDbSymbolTableRecord
100
AcDbBlockTableRecord
  2
*Model_Space
340
78
 70
     0
280
     1
281
     0
  0
BLOCK_RECORD
  5
71
330
1
100
AcDbSymbolTableRecord
100
AcDbBlockTableRecord
  2
*Paper_Space
340
74
 70
     0
280
     1
281
     0
  0
BLOCK_RECORD
  5
79
330
1
100
AcDbSymbolTableRecord
100
AcDbBlockTableRecord
  2
*Paper_Space0
340
7C
 70
     0
280
     1
281
     0
  0
BLOCK_RECORD
  5
AF
330
1
100
AcDbSymbolTableRecord
100
AcDbBlockTableRecord
  2
CROSSHAIR
340
0
102
{BLKREFS
331
B7
331
B8
331
B9
331
BA
331
BB
331
BC
331
BD
331
BE
331
BF
331
C0
331
C1
331
C2
331
C3
331
C4
331
C5
331
C6
331
C7
331
C8
331
C9
331
CA
331
CB
331
CC
331
CD
331
CE
331
CF
331
D0
331
D1
331
D2
331
D3
331
D4
331
D5
331
D6
331
D7
331
D8
331
D9
331
DA
331
DB
331
DC
331
DD
331
DE
331
DF
331
E0
331
E1
331
E2
102
}
 70
     0
280
     1
281
     0
  0
ENDTAB
  0
ENDSEC
  0
SECTION
  2
BLOCKS
  0
BLOCK
  5
76
330
75
100
AcDbEntity
  8
0
100
AcDbBlockBegin
  2
*Model_Space
 70
     0
 10
0.0
 20
0.0
 30
0.0
  3
*Model_Space
  1

  0
ENDBLK
  5
77
330
75
100
AcDbEntity
  8
0
100
AcDbBlockEnd
  0
BLOCK
  5
72
330
71
100
AcDbEntity
 67
     1
  8
0
100
AcDbBlockBegin
  2
*Paper_Space
 70
     0
 10
0.0
 20
0.0
 30
0.0
  3
*Paper_Space
  1

  0
ENDBLK
  5
73
330
71
100
AcDbEntity
 67
     1
  8
0
100
AcDbBlockEnd
  0
BLOCK
  5
7A
330
79
100
AcDbEntity
 67
     1
  8
0
100
AcDbBlockBegin
  2
*Paper_Space0
 70
     0
 10
0.0
 20
0.0
 30
0.0
  3
*Paper_Space0
  1

  0
ENDBLK
  5
7B
330
79
100
AcDbEntity
 67
     1
  8
0
100
AcDbBlockEnd
  0
BLOCK
  5
B5
330
AF
100
AcDbEntity
  8
0
 62
     0
100
AcDbBlockBegin
  2
CROSSHAIR
 70
     0
 10
0.0
 20
0.0
 30
0.0
  3
CROSSHAIR
  1

  0
CIRCLE
  5
B0
330
AF
100
AcDbEntity
  8
0
  6
Continuous
 62
     0
100
AcDbCircle
 10
0.0
 20
0.0
 30
0.0
 40
0.0127
  0
LINE
  5
B1
330
AF
100
AcDbEntity
  8
0
  6
Continuous
 62
     0
100
AcDbLine
 10
-0.0254
 20
0.0
 30
0.0
 11
0.0254
 21
0.0
 31
0.0
  0
LINE
  5
B2
330
AF
100
AcDbEntity
  8
0
  6
Continuous
 62
     0
100
AcDbLine
 10
0.0
 20
-0.0254
 30
0.0
 11
0.0
 21
0.0254
 31
0.0
  0
LINE
  5
B3
330
AF
100
AcDbEntity
  8
0
  6
Continuous
 62
     0
100
AcDbLine
 10
0.0254
 20
0.0
 30
0.0
 11
-0.0254
 21
0.0
 31
0.0
  0
LINE
  5
B4
330
AF
100
AcDbEntity
  8
0
  6
Continuous
 62
     0
100
AcDbLine
 10
0.0
 20
0.0254
 30
0.0
 11
0.0
 21
-0.0254
 31
0.0
  0
ENDBLK
  5
B6
330
AF
100
AcDbEntity
  8
0
 62
     0
100
AcDbBlockEnd
  0
ENDSEC
  0
SECTION
  2
ENTITIES
  0
LINE
  5
AB
330
75
100
AcDbEntity
  8
HALLE_0_1_EG
  6
Continuous
100
AcDbLine
 10
4.726514000000002
 20
-56.27118184999999
 30
0.0
 11
4.726513984686268
 21
-56.27118183834053
 31
0.0
  0
TEXT
  5
AD
330
75
100
AcDbEntity
  8
BODENDURCHFÜHRUNGEN
  6
Continuous
100
AcDbText
 10
40.23103961839857
 20
-0.4148124486114754
 30
0.0
 40
1.249999999999999
  1
Erschliessungspunkt
 41
0.6026290752614674
  7
ARIAL
100
AcDbText
  0
INSERT
  5
B7
330
75
100
AcDbEntity
  8
BODENDURCHFÜHRUNGEN
  6
Continuous
 62
     1
100
AcDbBlockReference
  2
CROSSHAIR
 10
61.09601153803922
 20
41.18791263012922
 30
0.0
 41
49.21259842519686
 42
49.21259842519686
 50
270.0000000000001
  0
INSERT
  5
B8
330
75
100
AcDbEntity
  8
BODENDURCHFÜHRUNGEN
  6
Continuous
 62
     1
100
AcDbBlockReference
  2
CROSSHAIR
 10
61.12601153803922
 20
27.39291263012947
 30
0.0
 41
49.21259842519686
 42
49.21259842519686
 50
270.0000000000001
  0
INSERT
  5
B9
330
75
100
AcDbEntity
  8
BODENDURCHFÜHRUNGEN
  6
Continuous
 62
     1
100
AcDbBlockReference
  2
CROSSHAIR
 10
55.77201153803924
 20
41.24291263012921
 30
0.0
 41
49.21259842519686
 42
49.21259842519686
 50
270.0000000000001
  0
INSERT
  5
BA
330
75
100
AcDbEntity
  8
BODENDURCHFÜHRUNGEN
  6
Continuous
 62
     1
100
AcDbBlockReference
  2
CROSSHAIR
 10
46.71101153803919
 20
41.26491263012921
 30
0.0
 41
49.21259842519686
 42
49.21259842519686
 50
270.0000000000001
  0
INSERT
  5
BB
330
75
100
AcDbEntity
  8
BODENDURCHFÜHRUNGEN
  6
Continuous
 62
     1
100
AcDbBlockReference
  2
CROSSHAIR
 10
35.02601153803909
 20
41.98091263012924
 30
0.0
 41
49.21259842519686
 42
49.21259842519686
 50
270.0000000000001
  0
INSERT
  5
BC
330
75
100
AcDbEntity
  8
BODENDURCHFÜHRUNGEN
  6
Continuous
 62
     1
100
AcDbBlockReference
  2
CROSSHAIR
 10
46.65701153803921
 20
33.32991263012926
 30
0.0
 41
49.21259842519686
 42
49.21259842519686
 50
270.0000000000001
  0
INSERT
  5
BD
330
75
100
AcDbEntity
  8
BODENDURCHFÜHRUNGEN
  6
Continuous
 62
     1
100
AcDbBlockReference
  2
CROSSHAIR
 10
41.64101153803922
 20
31.77991263012925
 30
0.0
 41
49.21259842519686
 42
49.21259842519686
 50
270.0000000000001
  0
INSERT
  5
BE
330
75
100
AcDbEntity
  8
BODENDURCHFÜHRUNGEN
  6
Continuous
 62
     1
100
AcDbBlockReference
  2
CROSSHAIR
 10
28.8720115380393
 20
42.29491263012923
 30
0.0
 41
49.21259842519686
 42
49.21259842519686
 50
270.0000000000001
  0
INSERT
  5
BF
330
75
100
AcDbEntity
  8
BODENDURCHFÜHRUNGEN
  6
Continuous
 62
     1
100
AcDbBlockReference
  2
CROSSHAIR
 10
37.64501153803922
 20
33.35291263012925
 30
0.0
 41
49.21259842519686
 42
49.21259842519686
 50
270.0000000000001
  0
INSERT
  5
C0
330
75
100
AcDbEntity
  8
BODENDURCHFÜHRUNGEN
  6
Continuous
 62
     1
100
AcDbBlockReference
  2
CROSSHAIR
 10
27.52701153803949
 20
42.30991263012923
 30
0.0
 41
49.21259842519686
 42
49.21259842519686
 50
270.0000000000001
  0
INSERT
  5
C1
330
75
100
AcDbEntity
  8
BODENDURCHFÜHRUNGEN
  6
Continuous
 62
     1
100
AcDbBlockReference
  2
CROSSHAIR
 10
27.58401153803948
 20
33.16091263012926
 30
0.0
 41
49.21259842519686
 42
49.21259842519686
 50
270.0000000000001
  0
INSERT
  5
C2
330
75
100
AcDbEntity
  8
BODENDURCHFÜHRUNGEN
  6
Continuous
 62
     1
100
AcDbBlockReference
  2
CROSSHAIR
 10
20.38001153803947
 20
42.27491263012923
 30
0.0
 41
49.21259842519686
 42
49.21259842519686
 50
270.0000000000001
  0
INSERT
  5
C3
330
75
100
AcDbEntity
  8
BODENDURCHFÜHRUNGEN
  6
Continuous
 62
     1
100
AcDbBlockReference
  2
CROSSHAIR
 10
11.28601153803948
 20
42.23291263012925
 30
0.0
 41
49.21259842519686
 42
49.21259842519686
 50
270.0000000000001
  0
INSERT
  5
C4
330
75
100
AcDbEntity
  8
BODENDURCHFÜHRUNGEN
  6
Continuous
 62
     1
100
AcDbBlockReference
  2
CROSSHAIR
 10
49.50401153803923
 20
43.09091263012922
 30
0.0
 41
49.21259842519686
 42
49.21259842519686
 50
270.0000000000001
  0
INSERT
  5
C5
330
75
100
AcDbEntity
  8
BODENDURCHFÜHRUNGEN
  6
Continuous
 62
     1
100
AcDbBlockReference
  2
CROSSHAIR
 10
37.51701153803921
 20
43.09091263012922
 30
0.0
 41
49.21259842519686
 42
49.21259842519686
 50
270.0000000000001
  0
INSERT
  5
C6
330
75
100
AcDbEntity
  8
BODENDURCHFÜHRUNGEN
  6
Continuous
 62
     1
100
AcDbBlockReference
  2
CROSSHAIR
 10
13.53626153803939
 20
42.84946592962178
 30
0.0
 41
49.21259842519686
 42
49.21259842519686
 50
270.0000000000001
  0
INSERT
  5
C7
330
75
100
AcDbEntity
  8
BODENDURCHFÜHRUNGEN
  6
Continuous
 62
     1
100
AcDbBlockReference
  2
CROSSHAIR
 10
25.43201153803947
 20
43.09091263012922
 30
0.0
 41
49.21259842519686
 42
49.21259842519686
 50
270.0000000000001
  0
INSERT
  5
C8
330
75
100
AcDbEntity
  8
BODENDURCHFÜHRUNGEN
  6
Continuous
 62
     1
100
AcDbBlockReference
  2
CROSSHAIR
 10
61.09528818778542
 20
17.16723003755211
 30
0.0
 41
49.21259842519686
 42
49.21259842519686
 50
270.0000000000001
  0
INSERT
  5
C9
330
75
100
AcDbEntity
  8
BODENDURCHFÜHRUNGEN
  6
Continuous
 62
     1
100
AcDbBlockReference
  2
CROSSHAIR
 10
47.24328818778536
 20
13.97817151337803
 30
0.0
 41
49.21259842519686
 42
49.21259842519686
 50
270.0000000000001
  0
INSERT
  5
CA
330
75
100
AcDbEntity
  8
BODENDURCHFÜHRUNGEN
  6
Continuous
 62
     1
100
AcDbBlockReference
  2
CROSSHAIR
 10
41.90528818778534
 20
12.52217151337804
 30
0.0
 41
49.21259842519686
 42
49.21259842519686
 50
270.0000000000001
  0
INSERT
  5
CB
330
75
100
AcDbEntity
  8
BODENDURCHFÜHRUNGEN
  6
Continuous
 62
     1
100
AcDbBlockReference
  2
CROSSHAIR
 10
37.26628818778537
 20
14.01117151337804
 30
0.0
 41
49.21259842519686
 42
49.21259842519686
 50
270.0000000000001
  0
INSERT
  5
CC
330
75
100
AcDbEntity
  8
BODENDURCHFÜHRUNGEN
  6
Continuous
 62
     1
100
AcDbBlockReference
  2
CROSSHAIR
 10
28.64728818778561
 20
13.87117151337804
 30
0.0
 41
49.21259842519686
 42
49.21259842519686
 50
270.0000000000001
  0
INSERT
  5
CD
330
75
100
AcDbEntity
  8
BODENDURCHFÜHRUNGEN
  6
Continuous
 62
     1
100
AcDbBlockReference
  2
CROSSHAIR
 10
20.4222881877858
 20
33.19817151337803
 30
0.0
 41
49.21259842519686
 42
49.21259842519686
 50
270.0000000000001
  0
INSERT
  5
CE
330
75
100
AcDbEntity
  8
BODENDURCHFÜHRUNGEN
  6
Continuous
 62
     1
100
AcDbBlockReference
  2
CROSSHAIR
 10
11.2472881877858
 20
33.17717151337804
 30
0.0
 41
49.21259842519686
 42
49.21259842519686
 50
270.0000000000001
  0
INSERT
  5
CF
330
75
100
AcDbEntity
  8
BODENDURCHFÜHRUNGEN
  6
Continuous
 62
     1
100
AcDbBlockReference
  2
CROSSHAIR
 10
47.14314097966348
 20
23.02356872149997
 30
0.0
 41
49.21259842519686
 42
49.21259842519686
 50
270.0000000000001
  0
INSERT
  5
D0
330
75
100
AcDbEntity
  8
BODENDURCHFÜHRUNGEN
  6
Continuous
 62
     1
100
AcDbBlockReference
  2
CROSSHAIR
 10
37.28114097966348
 20
21.99956872149996
 30
0.0
 41
49.21259842519686
 42
49.21259842519686
 50
270.0000000000001
  0
INSERT
  5
D1
330
75
100
AcDbEntity
  8
BODENDURCHFÜHRUNGEN
  6
Continuous
 62
     1
100
AcDbBlockReference
  2
CROSSHAIR
 10
28.53314097966377
 20
22.49356872149997
 30
0.0
 41
49.21259842519686
 42
49.21259842519686
 50
270.0000000000001
  0
INSERT
  5
D2
330
75
100
AcDbEntity
  8
BODENDURCHFÜHRUNGEN
  6
Continuous
 62
     1
100
AcDbBlockReference
  2
CROSSHAIR
 10
20.63214097966399
 20
22.49256872149997
 30
0.0
 41
49.21259842519686
 42
49.21259842519686
 50
270.0000000000001
  0
INSERT
  5
D3
330
75
100
AcDbEntity
  8
BODENDURCHFÜHRUNGEN
  6
Continuous
 62
     1
100
AcDbBlockReference
  2
CROSSHAIR
 10
10.72914097966398
 20
22.44356872149997
 30
0.0
 41
49.21259842519686
 42
49.21259842519686
 50
270.0000000000001
  0
INSERT
  5
D4
330
75
100
AcDbEntity
  8
BODENDURCHFÜHRUNGEN
  6
Continuous
 62
     1
100
AcDbBlockReference
  2
CROSSHAIR
 10
20.68814097966399
 20
13.85556872149984
 30
0.0
 41
49.21259842519686
 42
49.21259842519686
 50
270.0000000000001
  0
INSERT
  5
D5
330
75
100
AcDbEntity
  8
BODENDURCHFÜHRUNGEN
  6
Continuous
 62
     1
100
AcDbBlockReference
  2
CROSSHAIR
 10
10.91614097966398
 20
13.86456872149984
 30
0.0
 41
49.21259842519686
 42
49.21259842519686
 50
270.0000000000001
  0
INSERT
  5
D6
330
75
100
AcDbEntity
  8
BODENDURCHFÜHRUNGEN
  6
Continuous
 62
     1
100
AcDbBlockReference
  2
CROSSHAIR
 10
1.897140979663931
 20
13.84056872149984
 30
0.0
 41
49.21259842519686
 42
49.21259842519686
 50
270.0000000000001
  0
INSERT
  5
D7
330
75
100
AcDbEntity
  8
BODENDURCHFÜHRUNGEN
  6
Continuous
 62
     1
100
AcDbBlockReference
  2
CROSSHAIR
 10
10.88214097966398
 20
4.047568721499845
 30
0.0
 41
49.21259842519686
 42
49.21259842519686
 50
270.0000000000001
  0
INSERT
  5
D8
330
75
100
AcDbEntity
  8
BODENDURCHFÜHRUNGEN
  6
Continuous
 62
     1
100
AcDbBlockReference
  2
CROSSHAIR
 10
20.72714097966398
 20
4.047568721499839
 30
0.0
 41
49.21259842519686
 42
49.21259842519686
 50
270.0000000000001
  0
INSERT
  5
D9
330
75
100
AcDbEntity
  8
BODENDURCHFÜHRUNGEN
  6
Continuous
 62
     1
100
AcDbBlockReference
  2
CROSSHAIR
 10
28.61014097966375
 20
4.047568721499839
 30
0.0
 41
49.21259842519686
 42
49.21259842519686
 50
270.0000000000001
  0
INSERT
  5
DA
330
75
100
AcDbEntity
  8
BODENDURCHFÜHRUNGEN
  6
Continuous
 62
     1
100
AcDbBlockReference
  2
CROSSHAIR
 10
37.30014097966351
 20
4.047568721499839
 30
0.0
 41
49.21259842519686
 42
49.21259842519686
 50
270.0000000000001
  0
INSERT
  5
DB
330
75
100
AcDbEntity
  8
BODENDURCHFÜHRUNGEN
  6
Continuous
 62
     1
100
AcDbBlockReference
  2
CROSSHAIR
 10
53.95749377154174
 20
12.60482760474862
 30
0.0
 41
49.21259842519686
 42
49.21259842519686
 50
270.0000000000001
  0
INSERT
  5
DC
330
75
100
AcDbEntity
  8
BODENDURCHFÜHRUNGEN
  6
Continuous
 62
     1
100
AcDbBlockReference
  2
CROSSHAIR
 10
1.897261538039389
 20
33.3714659296218
 30
0.0
 41
49.21259842519686
 42
49.21259842519686
 50
270.0000000000001
  0
INSERT
  5
DD
330
75
100
AcDbEntity
  8
BODENDURCHFÜHRUNGEN
  6
Continuous
 62
     1
100
AcDbBlockReference
  2
CROSSHAIR
 10
1.897261538039392
 20
42.3464659296218
 30
0.0
 41
49.21259842519686
 42
49.21259842519686
 50
270.0000000000001
  0
INSERT
  5
DE
330
75
100
AcDbEntity
  8
BODENDURCHFÜHRUNGEN
  6
Continuous
 62
     1
100
AcDbBlockReference
  2
CROSSHAIR
 10
38.67139295012027
 20
0.1902996566206936
 30
0.0
 41
49.21259842519686
 42
49.21259842519686
 50
270.0000000000001
  0
INSERT
  5
DF
330
75
100
AcDbEntity
  8
BODENDURCHFÜHRUNGEN
  6
Continuous
 62
     1
100
AcDbBlockReference
  2
CROSSHAIR
 10
61.05657093578241
 20
36.83460139306445
 30
0.0
 41
49.21259842519686
 42
49.21259842519686
 50
270.0000000000001
  0
INSERT
  5
E0
330
75
100
AcDbEntity
  8
BODENDURCHFÜHRUNGEN
  6
Continuous
 62
     1
100
AcDbBlockReference
  2
CROSSHAIR
 10
61.09521001132166
 20
33.35452505718637
 30
0.0
 41
49.21259842519686
 42
49.21259842519686
 50
270.0000000000001
  0
INSERT
  5
E1
330
75
100
AcDbEntity
  8
BODENDURCHFÜHRUNGEN
  6
Continuous
 62
     1
100
AcDbBlockReference
  2
CROSSHAIR
 10
15.82169347824883
 20
21.39948312636241
 30
0.0
 41
49.21259842519686
 42
49.21259842519686
 50
270.0000000000001
  0
INSERT
  5
E2
330
75
100
AcDbEntity
  8
BODENDURCHFÜHRUNGEN
  6
Continuous
 62
     1
100
AcDbBlockReference
  2
CROSSHAIR
 10
15.57457092412274
 20
31.20021218140083
 30
0.0
 41
49.21259842519686
 42
49.21259842519686
 50
270.0000000000001
  0
LINE
  5
E3
330
75
100
AcDbEntity
  8
BODENDURCHFÜHRUNGEN
  6
Continuous
 62
     0
100
AcDbLine
 10
39.00246774467119
 20
-2.267877664253584
 30
0.0
 11
40.00246774467118
 21
-2.267877664253584
 31
0.0
  0
LINE
  5
E4
330
75
100
AcDbEntity
  8
BODENDURCHFÜHRUNGEN
  6
Continuous
 62
     0
100
AcDbLine
 10
39.00246774467119
 20
-2.700050122269025
 30
0.0
 11
41.00246774467119
 21
-2.700050122269025
 31
0.0
  0
LINE
  5
E5
330
75
100
AcDbEntity
  8
BODENDURCHFÜHRUNGEN
  6
Continuous
 62
     0
100
AcDbLine
 10
39.00246774467119
 20
-3.194859282574577
 30
0.0
 11
44.00246774467118
 21
-3.194859282574577
 31
0.0
  0
LINE
  5
E6
330
75
100
AcDbEntity
  8
BODENDURCHFÜHRUNGEN
  6
Continuous
 62
     0
100
AcDbLine
 10
39.00246774467119
 20
-3.655069206238926
 30
0.0
 11
49.00246774467118
 21
-3.655069206238926
 31
0.0
  0
TEXT
  5
E7
330
75
100
AcDbEntity
  8
BODENDURCHFÜHRUNGEN
  6
Continuous
100
AcDbText
 10
38.45728309836623
 20
-2.389909365418608
 30
0.0
 40
0.375
  1
1m
 41
0.6026290752614673
  7
ARIAL
100
AcDbText
  0
TEXT
  5
E8
330
75
100
AcDbEntity
  8
BODENDURCHFÜHRUNGEN
  6
Continuous
100
AcDbText
 10
38.45728309836623
 20
-2.840398241099916
 30
0.0
 40
0.375
  1
2m
 41
0.6026290752614673
  7
ARIAL
100
AcDbText
  0
TEXT
  5
E9
330
75
100
AcDbEntity
  8
BODENDURCHFÜHRUNGEN
  6
Continuous
100
AcDbText
 10
38.45728309836623
 20
-3.330285633538733
 30
0.0
 40
0.375
  1
5m
 41
0.6026290752614673
  7
ARIAL
100
AcDbText
  0
TEXT
  5
EA
330
75
100
AcDbEntity
  8
BODENDURCHFÜHRUNGEN
  6
Continuous
100
AcDbText
 10
38.26728309836621
 20
-3.799571542735058
 30
0.0
 40
0.375
  1
10 m
 41
0.6026290752614673
  7
ARIAL
100
AcDbText
  0
TEXT
  5
EB
330
75
100
AcDbEntity
  8
HALLE_0_1_EG
  6
Continuous
100
AcDbText
 10
51.84893794298511
 20
0.5281275993522837
 30
0.0
 40
0.375
  1
Veranstalter
  7
ARIAL
100
AcDbText
  0
TEXT
  5
EC
330
75
100
AcDbEntity
  8
HALLE_0_1_EG
  6
Continuous
100
AcDbText
 10
51.85467818442759
 20
-0.2456602918090466
 30
0.0
 40
0.375
  1
Anlass
  7
ARIAL
100
AcDbText
  0
TEXT
  5
ED
330
75
100
AcDbEntity
  8
HALLE_0_1_EG
  6
Continuous
100
AcDbText
 10
51.84893794298512
 20
-0.998133569038376
 30
0.0
 40
0.375
  1
Datum
  7
ARIAL
100
AcDbText
  0
TEXT
  5
EE
330
75
100
AcDbEntity
  8
HALLE_0_1_EG
  6
Continuous
100
AcDbText
 10
51.84893794298512
 20
-3.428193302146543
 30
0.0
 40
0.375
  1
Massstab 1:250
  7
ARIAL
100
AcDbText
  0
TEXT
  5
EF
330
75
100
AcDbEntity
  8
HALLE_0_1_EG
  6
Continuous
100
AcDbText
 10
57.00908727575574
 20
-3.457179390270715
 30
0.0
 40
0.375
  1
Thun, 
  7
ARIAL
100
AcDbText
  0
TEXT
  5
F0
330
75
100
AcDbEntity
  8
HALLE_0_1_EG
  6
Continuous
100
AcDbText
 10
51.84893794298512
 20
-2.326811553091329
 30
0.0
 40
0.7500000000000001
  1
Grundriss EG Halle 1
  7
ARIAL
100
AcDbText
  0
LWPOLYLINE
  5
F1
330
75
100
AcDbEntity
  8
HALLE_0_1_EG
  6
Continuous
100
AcDbPolyline
 90
        4
 70
     1
 43
0.0
 10
51.38761534329926
 20
1.293497676630176
 10
67.68013280906055
 20
1.293497676630176
 10
67.68013280906055
 20
-3.751512459833593
 10
51.38761534329926
 20
-3.751512459833593
  0
LINE
  5
F2
330
75
100
AcDbEntity
  8
HALLE_0_1_EG
  6
Continuous
100
AcDbLine
 10
61.69181057485027
 20
1.287294894255003
 30
0.0
 11
61.69181057485027
 21
-3.757715242208766
 31
0.0
  0
LINE
  5
F3
330
75
100
AcDbEntity
  8
HALLE_0_1_EG
  6
Continuous
100
AcDbLine
 10
51.38761534329926
 20
-1.307993479725875
 30
0.0
 11
61.69181057485027
 21
-1.307993479725875
 31
0.0
  0
LINE
  5
F4
330
75
100
AcDbEntity
  8
HALLE_0_1_EG
  6
Continuous
100
AcDbLine
 10
51.38761534329926
 20
-2.704434884341123
 30
0.0
 11
61.69181057485027
 21
-2.704434884341123
 31
0.0
  0
LINE
  5
F5
330
75
100
AcDbEntity
  8
HALLE_0_1_EG
  6
Continuous
100
AcDbLine
 10
56.59600768782007
 20
-2.716664010064991
 30
0.0
 11
56.59600768782007
 21
-3.741399699860169
 31
0.0
  0
TEXT
  5
F6
330
75
100
AcDbEntity
  8
HALLE_0_1_EG
  6
Continuous
100
AcDbText
 10
62.1607708180794
 20
0.5367667495252113
 30
0.0
 40
0.375
  1
Thun-Expo
  7
ARIAL
100
AcDbText
  0
TEXT
  5
F7
330
75
100
AcDbEntity
  8
HALLE_0_1_EG
  6
Continuous
100
AcDbText
 10
62.1607708180794
 20
-0.0257332504747889
 30
0.0
 40
0.375
  1
Mittlere Strasse 27
  7
ARIAL
100
AcDbText
  0
TEXT
  5
F8
330
75
100
AcDbEntity
  8
HALLE_0_1_EG
  6
Continuous
100
AcDbText
 10
62.1607708180794
 20
-0.588233250474789
 30
0.0
 40
0.375
  1
Postfach 879
  7
ARIAL
100
AcDbText
  0
TEXT
  5
F9
330
75
100
AcDbEntity
  8
HALLE_0_1_EG
  6
Continuous
100
AcDbText
 10
62.1607708180794
 20
-1.150733250474788
 30
0.0
 40
0.375
  1
3607 Thun
  7
ARIAL
100
AcDbText
  0
TEXT
  5
FA
330
75
100
AcDbEntity
  8
HALLE_0_1_EG
  6
Continuous
100
AcDbText
 10
62.15695699953884
 20
-2.328625844421191
 30
0.0
 40
0.3750000000000001
  1
Fon  +41 33 225 11 20
  7
ARIAL
100
AcDbText
  0
TEXT
  5
FB
330
75
100
AcDbEntity
  8
HALLE_0_1_EG
  6
Continuous
100
AcDbText
 10
62.15695699953884
 20
-2.891125844421191
 30
0.0
 40
0.3750000000000001
  1
Fax  +41 33 225 11 28
  7
ARIAL
100
AcDbText
  0
TEXT
  5
FC
330
75
100
AcDbEntity
  8
HALLE_0_1_EG
  6
Continuous
100
AcDbText
 10
62.15695699953884
 20
-3.453625844421191
 30
0.0
 40
0.3750000000000001
  1
Mail  info@thun-expo.ch
  7
ARIAL
100
AcDbText
  0
LINE
  5
FD
330
75
100
AcDbEntity
  8
GRUNDRISS
  6
Continuous
100
AcDbLine
 10
1.791085877911086
 20
26.14589604189642
 30
0.0
 11
1.799103957425526
 21
43.34589604189555
 31
0.0
  0
ARC
  5
FE
330
75
100
AcDbEntity
  8
GRUNDRISS
  6
Continuous
100
AcDbCircle
 10
54.54901072394371
 20
3.645896041897773
 30
0.0
 40
1.5
100
AcDbArc
 50
270.0
 51
0.0
  0
LINE
  5
FF
330
75
100
AcDbEntity
  8
GRUNDRISS
  6
Continuous
100
AcDbLine
 10
61.19901072394385
 20
28.65398499226285
 30
0.0
 11
61.49901072394399
 21
28.65398499226285
 31
0.0
  0
LINE
  5
100
330
75
100
AcDbEntity
  8
GRUNDRISS
  6
Continuous
100
AcDbLine
 10
61.19901072394385
 20
31.86697345623757
 30
0.0
 11
61.19901072394385
 21
28.65398499226285
 31
0.0
  0
LINE
  5
101
330
75
100
AcDbEntity
  8
GRUNDRISS
  6
Continuous
100
AcDbLine
 10
61.49901072394399
 20
31.86697345623757
 30
0.0
 11
61.49901072394399
 21
30.23589604189714
 31
0.0
  0
LINE
  5
102
330
75
100
AcDbEntity
  8
GRUNDRISS
  6
Continuous
100
AcDbLine
 10
4.619010723943522
 20
43.34589604189555
 30
0.0
 11
4.619010723943522
 21
43.64589604189571
 31
0.0
  0
LINE
  5
103
330
75
100
AcDbEntity
  8
GRUNDRISS
  6
Continuous
100
AcDbLine
 10
1.499010723942661
 20
43.64589604189571
 30
0.0
 11
4.619010723943522
 21
43.64589604189571
 31
0.0
  0
LINE
  5
104
330
75
100
AcDbEntity
  8
GRUNDRISS
  6
Continuous
100
AcDbLine
 10
1.799103957425526
 20
43.34589604189555
 30
0.0
 11
4.619010723943522
 21
43.34589604189555
 31
0.0
  0
LINE
  5
105
330
75
100
AcDbEntity
  8
GRUNDRISS
  6
Continuous
100
AcDbLine
 10
50.24901072394172
 20
43.34589604189555
 30
0.0
 11
50.24901072394172
 21
43.64589604189569
 31
0.0
  0
LINE
  5
106
330
75
100
AcDbEntity
  8
GRUNDRISS
  6
Continuous
100
AcDbLine
 10
7.619010723941962
 20
43.64589604189571
 30
0.0
 11
50.24901072394172
 21
43.64589604189569
 31
0.0
  0
LINE
  5
107
330
75
100
AcDbEntity
  8
GRUNDRISS
  6
Continuous
100
AcDbLine
 10
7.619010723941962
 20
43.34589604189555
 30
0.0
 11
50.24901072394172
 21
43.34589604189555
 31
0.0
  0
LINE
  5
108
330
75
100
AcDbEntity
  8
GRUNDRISS
  6
Continuous
100
AcDbLine
 10
7.619010723941962
 20
43.34589604189555
 30
0.0
 11
7.619010723941962
 21
43.64589604189571
 31
0.0
  0
LINE
  5
109
330
75
100
AcDbEntity
  8
GRUNDRISS
  6
Continuous
100
AcDbLine
 10
53.24901072394311
 20
43.64589604189569
 30
0.0
 11
61.49901072394399
 21
43.64589604189569
 31
0.0
  0
LINE
  5
10A
330
75
100
AcDbEntity
  8
GRUNDRISS
  6
Continuous
100
AcDbLine
 10
53.24901072394311
 20
43.34589604189555
 30
0.0
 11
61.19901072394385
 21
43.34589604189555
 31
0.0
  0
LINE
  5
10B
330
75
100
AcDbEntity
  8
GRUNDRISS
  6
Continuous
100
AcDbLine
 10
53.24901072394311
 20
43.34589604189555
 30
0.0
 11
53.24901072394311
 21
43.64589604189569
 31
0.0
  0
LINE
  5
10C
330
75
100
AcDbEntity
  8
GRUNDRISS
  6
Continuous
100
AcDbLine
 10
61.19901072394385
 20
37.43589604189754
 30
0.0
 11
61.49901072394399
 21
37.43589604189754
 31
0.0
  0
LINE
  5
10D
330
75
100
AcDbEntity
  8
GRUNDRISS
  6
Continuous
100
AcDbLine
 10
61.49901072394399
 20
37.57589604189642
 30
0.0
 11
61.49901072394399
 21
37.43589604189754
 31
0.0
  0
LINE
  5
10E
330
75
100
AcDbEntity
  8
GRUNDRISS
  6
Continuous
100
AcDbLine
 10
61.19901072394385
 20
43.34589604189555
 30
0.0
 11
61.19901072394385
 21
37.43589604189754
 31
0.0
  0
LINE
  5
10F
330
75
100
AcDbEntity
  8
GRUNDRISS
  6
Continuous
100
AcDbLine
 10
61.49901072394399
 20
43.64589604189569
 30
0.0
 11
61.49901072394399
 21
37.90589604189716
 31
0.0
  0
LINE
  5
110
330
75
100
AcDbEntity
  8
GRUNDRISS
  6
Continuous
100
AcDbLine
 10
61.49901072394399
 20
37.43589604189754
 30
0.0
 11
61.49901072394399
 21
36.49089604189621
 31
0.0
  0
LINE
  5
111
330
75
100
AcDbEntity
  8
GRUNDRISS
  6
Continuous
100
AcDbLine
 10
61.19901072394385
 20
37.43589604189754
 30
0.0
 11
61.19901072394385
 21
36.49089604189621
 31
0.0
  0
LINE
  5
112
330
75
100
AcDbEntity
  8
GRUNDRISS
  6
Continuous
100
AcDbLine
 10
61.19901072394385
 20
36.36089604189556
 30
0.0
 11
61.49901072394399
 21
36.36089604189556
 31
0.0
  0
LINE
  5
113
330
75
100
AcDbEntity
  8
GRUNDRISS
  6
Continuous
100
AcDbLine
 10
61.49901072394399
 20
36.49089604189621
 30
0.0
 11
61.49901072394399
 21
36.36089604189556
 31
0.0
  0
LINE
  5
114
330
75
100
AcDbEntity
  8
GRUNDRISS
  6
Continuous
100
AcDbLine
 10
61.19901072394385
 20
36.49089604189621
 30
0.0
 11
61.19901072394385
 21
36.36089604189556
 31
0.0
  0
LINE
  5
115
330
75
100
AcDbEntity
  8
GRUNDRISS
  6
Continuous
100
AcDbLine
 10
61.19901072394385
 20
36.49089604189621
 30
0.0
 11
61.49901072394399
 21
36.49089604189621
 31
0.0
  0
LINE
  5
116
330
75
100
AcDbEntity
  8
GRUNDRISS
  6
Continuous
100
AcDbLine
 10
61.49901072394399
 20
36.36089604189556
 30
0.0
 11
61.49901072394399
 21
35.06089604189791
 31
0.0
  0
LINE
  5
117
330
75
100
AcDbEntity
  8
GRUNDRISS
  6
Continuous
100
AcDbLine
 10
61.19901072394385
 20
36.36089604189556
 30
0.0
 11
61.19901072394385
 21
35.06089604189791
 31
0.0
  0
LINE
  5
118
330
75
100
AcDbEntity
  8
GRUNDRISS
  6
Continuous
100
AcDbLine
 10
61.49901072394399
 20
34.73089604189716
 30
0.0
 11
61.49901072394399
 21
32.19089604189716
 31
0.0
  0
LINE
  5
119
330
75
100
AcDbEntity
  8
GRUNDRISS
  6
Continuous
100
AcDbLine
 10
61.19901072394385
 20
34.73089604189716
 30
0.0
 11
61.19901072394385
 21
32.19089604189716
 31
0.0
  0
LINE
  5
11A
330
75
100
AcDbEntity
  8
GRUNDRISS
  6
Continuous
100
AcDbLine
 10
61.19901072394385
 20
7.428996946330614
 30
0.0
 11
61.49901072394399
 21
7.428996946330614
 31
0.0
  0
LINE
  5
11B
330
75
100
AcDbEntity
  8
GRUNDRISS
  6
Continuous
100
AcDbLine
 10
61.49901072394399
 20
21.14589604189704
 30
0.0
 11
61.49901072394399
 21
7.428996946330614
 31
0.0
  0
LINE
  5
11C
330
75
100
AcDbEntity
  8
GRUNDRISS
  6
Continuous
100
AcDbLine
 10
61.19901072394385
 20
23.65038000043218
 30
0.0
 11
61.49901072394399
 21
23.65038000043218
 31
0.0
  0
LINE
  5
11D
330
75
100
AcDbEntity
  8
GRUNDRISS
  6
Continuous
100
AcDbLine
 10
61.49901072394399
 20
5.450621453098011
 30
0.0
 11
61.49901072394399
 21
3.645896041897773
 31
0.0
  0
LINE
  5
11E
330
75
100
AcDbEntity
  8
GRUNDRISS
  6
Continuous
100
AcDbLine
 10
61.19901072394385
 20
5.450621453098011
 30
0.0
 11
61.49901072394399
 21
5.450621453098011
 31
0.0
  0
LINE
  5
11F
330
75
100
AcDbEntity
  8
GRUNDRISS
  6
Continuous
100
AcDbLine
 10
54.54901072394371
 20
3.945896041897907
 30
0.0
 11
54.54901072394371
 21
3.645896041897773
 31
0.0
  0
LINE
  5
120
330
75
100
AcDbEntity
  8
GRUNDRISS
  6
Continuous
100
AcDbLine
 10
61.49901072394399
 20
3.645896041897773
 30
0.0
 11
54.54901072394371
 21
3.645896041897773
 31
0.0
  0
LINE
  5
121
330
75
100
AcDbEntity
  8
GRUNDRISS
  6
Continuous
100
AcDbLine
 10
61.19901072394385
 20
3.945896041897907
 30
0.0
 11
56.12901072394208
 21
3.945896041897907
 31
0.0
  0
LINE
  5
122
330
75
100
AcDbEntity
  8
GRUNDRISS
  6
Continuous
100
AcDbLine
 10
7.499010723942487
 20
3.945896041897913
 30
0.0
 11
7.499010723942487
 21
3.645896041897773
 31
0.0
  0
LINE
  5
123
330
75
100
AcDbEntity
  8
GRUNDRISS
  6
Continuous
100
AcDbLine
 10
51.54901072394232
 20
3.645896041897773
 30
0.0
 11
7.499010723942487
 21
3.645896041897773
 31
0.0
  0
LINE
  5
124
330
75
100
AcDbEntity
  8
GRUNDRISS
  6
Continuous
100
AcDbLine
 10
51.54901072394232
 20
3.945896041897907
 30
0.0
 11
7.499010723942487
 21
3.945896041897913
 31
0.0
  0
LINE
  5
125
330
75
100
AcDbEntity
  8
GRUNDRISS
  6
Continuous
100
AcDbLine
 10
51.54901072394232
 20
3.945896041897907
 30
0.0
 11
51.54901072394232
 21
3.645896041897773
 31
0.0
  0
LINE
  5
126
330
75
100
AcDbEntity
  8
GRUNDRISS
  6
Continuous
100
AcDbLine
 10
4.499010723941089
 20
3.645896041897773
 30
0.0
 11
1.499010723942649
 21
3.645896041897773
 31
0.0
  0
LINE
  5
127
330
75
100
AcDbEntity
  8
GRUNDRISS
  6
Continuous
100
AcDbLine
 10
4.499010723941089
 20
3.945896041897913
 30
0.0
 11
1.799010723942789
 21
3.945896041897913
 31
0.0
  0
LINE
  5
128
330
75
100
AcDbEntity
  8
GRUNDRISS
  6
Continuous
100
AcDbLine
 10
4.499010723941089
 20
3.945896041897913
 30
0.0
 11
4.499010723941089
 21
3.645896041897773
 31
0.0
  0
LINE
  5
129
330
75
100
AcDbEntity
  8
GRUNDRISS
  6
Continuous
100
AcDbLine
 10
1.799010723942789
 20
21.14589604189705
 30
0.0
 11
1.499010723942649
 21
21.14589604189705
 31
0.0
  0
LINE
  5
12A
330
75
100
AcDbEntity
  8
GRUNDRISS
  6
Continuous
100
AcDbLine
 10
1.499010723942649
 20
3.645896041897773
 30
0.0
 11
1.499010723942649
 21
21.14589604189705
 31
0.0
  0
LINE
  5
12B
330
75
100
AcDbEntity
  8
GRUNDRISS
  6
Continuous
100
AcDbLine
 10
1.799010723942789
 20
3.945896041897913
 30
0.0
 11
1.799010723942789
 21
21.14589604189705
 31
0.0
  0
LINE
  5
12C
330
75
100
AcDbEntity
  8
GRUNDRISS
  6
Continuous
100
AcDbLine
 10
1.499010723942649
 20
26.14589604189642
 30
0.0
 11
1.499010723942661
 21
43.64589604189571
 31
0.0
  0
LINE
  5
12D
330
75
100
AcDbEntity
  8
GRUNDRISS
  6
Continuous
100
AcDbLine
 10
1.791085877911086
 20
26.14589604189642
 30
0.0
 11
1.499010723942649
 21
26.14589604189642
 31
0.0
  0
LINE
  5
12E
330
75
100
AcDbEntity
  8
GRUNDRISS
  6
Continuous
100
AcDbLine
 10
1.619010723942114
 20
26.14589604189642
 30
0.0
 11
1.619010723942114
 21
21.14589604189705
 31
0.0
  0
LINE
  5
12F
330
75
100
AcDbEntity
  8
GRUNDRISS
  6
Continuous
100
AcDbLine
 10
61.19901072394385
 20
28.65159072517232
 30
0.0
 11
61.19901072394385
 21
23.65159072517295
 31
0.0
  0
LINE
  5
130
330
75
100
AcDbEntity
  8
GRUNDRISS
  6
Continuous
100
AcDbLine
 10
0.89901072394237
 20
9.94589604189775
 30
0.0
 11
0.89901072394237
 21
4.745896041895329
 31
0.0
  0
LINE
  5
131
330
75
100
AcDbEntity
  8
GRUNDRISS
  6
Continuous
100
AcDbLine
 10
0.89901072394237
 20
4.745896041895329
 30
0.0
 11
1.499010723942649
 21
5.005896041896632
 31
0.0
  0
LINE
  5
132
330
75
100
AcDbEntity
  8
GRUNDRISS
  6
Continuous
100
AcDbLine
 10
0.89901072394237
 20
4.745896041895329
 30
0.0
 11
0.2990107239420908
 21
5.005896041896632
 31
0.0
  0
LINE
  5
133
330
75
100
AcDbEntity
  8
GRUNDRISS
  6
Continuous
100
AcDbLine
 10
58.20901072394364
 20
3.945896041897907
 30
0.0
 11
58.20901072394364
 21
5.013549759938976
 31
0.0
  0
LINE
  5
134
330
75
100
AcDbEntity
  8
GRUNDRISS
  6
Continuous
100
AcDbLine
 10
58.20901072394364
 20
5.013549759938976
 30
0.0
 11
58.20901072394364
 21
5.145896041895508
 31
0.0
  0
LINE
  5
135
330
75
100
AcDbEntity
  8
GRUNDRISS
  6
Continuous
100
AcDbLine
 10
58.47901072394318
 20
3.945896041897907
 30
0.0
 11
58.20901072394364
 21
3.945896041897907
 31
0.0
  0
LINE
  5
136
330
75
100
AcDbEntity
  8
GRUNDRISS
  6
Continuous
100
AcDbLine
 10
58.47901072394318
 20
5.145896041895508
 30
0.0
 11
58.47901072394318
 21
3.945896041897907
 31
0.0
  0
LINE
  5
137
330
75
100
AcDbEntity
  8
GRUNDRISS
  6
Continuous
100
AcDbLine
 10
58.20901072394364
 20
5.145896041895508
 30
0.0
 11
58.28542088545734
 21
5.145896041895508
 31
0.0
  0
LINE
  5
138
330
75
100
AcDbEntity
  8
GRUNDRISS
  6
Continuous
100
AcDbLine
 10
58.28542088545734
 20
5.145896041895508
 30
0.0
 11
58.47901072394318
 21
5.145896041895508
 31
0.0
  0
LINE
  5
139
330
75
100
AcDbEntity
  8
GRUNDRISS
  6
Continuous
100
AcDbLine
 10
57.93901072394115
 20
3.945896041897907
 30
0.0
 11
57.93901072394115
 21
4.545896041898187
 31
0.0
  0
LINE
  5
13A
330
75
100
AcDbEntity
  8
GRUNDRISS
  6
Continuous
100
AcDbLine
 10
57.93901072394115
 20
4.545896041898187
 30
0.0
 11
57.93901072394115
 21
5.145896041895508
 31
0.0
  0
LINE
  5
13B
330
75
100
AcDbEntity
  8
GRUNDRISS
  6
Continuous
100
AcDbLine
 10
58.20901072394364
 20
3.945896041897907
 30
0.0
 11
57.93901072394115
 21
3.945896041897907
 31
0.0
  0
LINE
  5
13C
330
75
100
AcDbEntity
  8
GRUNDRISS
  6
Continuous
100
AcDbLine
 10
57.93901072394115
 20
5.145896041895508
 30
0.0
 11
58.20901072394364
 21
5.145896041895508
 31
0.0
  0
LINE
  5
13D
330
75
100
AcDbEntity
  8
GRUNDRISS
  6
Continuous
100
AcDbLine
 10
57.66901072394162
 20
3.945896041897907
 30
0.0
 11
57.66901072394162
 21
5.145896041895508
 31
0.0
  0
LINE
  5
13E
330
75
100
AcDbEntity
  8
GRUNDRISS
  6
Continuous
100
AcDbLine
 10
57.93901072394115
 20
3.945896041897907
 30
0.0
 11
57.66901072394162
 21
3.945896041897907
 31
0.0
  0
LINE
  5
13F
330
75
100
AcDbEntity
  8
GRUNDRISS
  6
Continuous
100
AcDbLine
 10
57.66901072394162
 20
5.145896041895508
 30
0.0
 11
57.93901072394115
 21
5.145896041895508
 31
0.0
  0
LINE
  5
140
330
75
100
AcDbEntity
  8
GRUNDRISS
  6
Continuous
100
AcDbLine
 10
56.12901072394208
 20
4.545896041898187
 30
0.0
 11
59.8290107239438
 21
4.545896041898187
 31
0.0
  0
LINE
  5
141
330
75
100
AcDbEntity
  8
GRUNDRISS
  6
Continuous
100
AcDbLine
 10
59.8290107239438
 20
4.545896041898187
 30
0.0
 11
59.55901072394131
 21
5.145896041895508
 31
0.0
  0
LINE
  5
142
330
75
100
AcDbEntity
  8
GRUNDRISS
  6
Continuous
100
AcDbLine
 10
59.8290107239438
 20
4.545896041898187
 30
0.0
 11
59.55901072394131
 21
3.945896041897907
 31
0.0
  0
LINE
  5
143
330
75
100
AcDbEntity
  8
GRUNDRISS
  6
Continuous
100
AcDbLine
 10
4.499010723941089
 20
3.645896041897773
 30
0.0
 11
7.499010723942487
 21
3.645896041897773
 31
0.0
  0
ARC
  5
144
330
75
100
AcDbEntity
  8
GRUNDRISS
  6
Continuous
100
AcDbCircle
 10
7.499010723942487
 20
3.645896041897773
 30
0.0
 40
1.5
100
AcDbArc
 50
180.0
 51
0.0
  0
ARC
  5
145
330
75
100
AcDbEntity
  8
GRUNDRISS
  6
Continuous
100
AcDbCircle
 10
4.499010723941089
 20
3.645896041897773
 30
0.0
 40
1.5
100
AcDbArc
 50
180.0
 51
0.0
  0
LINE
  5
146
330
75
100
AcDbEntity
  8
GRUNDRISS
  6
Continuous
100
AcDbLine
 10
4.499010723941089
 20
3.645896041897773
 30
0.0
 11
4.499010723941089
 21
2.145896041897075
 31
0.0
  0
LINE
  5
147
330
75
100
AcDbEntity
  8
GRUNDRISS
  6
Continuous
100
AcDbLine
 10
7.499010723942487
 20
3.645896041897773
 30
0.0
 11
7.499010723942487
 21
2.145896041897075
 31
0.0
  0
LINE
  5
148
330
75
100
AcDbEntity
  8
GRUNDRISS
  6
Continuous
100
AcDbLine
 10
1.499010723942649
 20
26.14589604189642
 30
0.0
 11
1.499010723942649
 21
21.14589604189705
 31
0.0
  0
LINE
  5
149
330
75
100
AcDbEntity
  8
GRUNDRISS
  6
Continuous
100
AcDbLine
 10
4.619010723943522
 20
43.64589604189571
 30
0.0
 11
7.619010723941962
 21
43.64589604189571
 31
0.0
  0
ARC
  5
14A
330
75
100
AcDbEntity
  8
GRUNDRISS
  6
Continuous
100
AcDbCircle
 10
4.619010723943522
 20
43.64589604189571
 30
0.0
 40
1.5
100
AcDbArc
 50
0.0
 51
180.0
  0
LINE
  5
14B
330
75
100
AcDbEntity
  8
GRUNDRISS
  6
Continuous
100
AcDbLine
 10
4.619010723943522
 20
43.64589604189571
 30
0.0
 11
4.619010723943522
 21
45.14589604189641
 31
0.0
  0
ARC
  5
14C
330
75
100
AcDbEntity
  8
GRUNDRISS
  6
Continuous
100
AcDbCircle
 10
7.619010723941962
 20
43.64589604189571
 30
0.0
 40
1.5
100
AcDbArc
 50
0.0
 51
180.0
  0
LINE
  5
14D
330
75
100
AcDbEntity
  8
GRUNDRISS
  6
Continuous
100
AcDbLine
 10
7.619010723941962
 20
43.34589604189555
 30
0.0
 11
7.619010723941962
 21
45.14589604189641
 31
0.0
  0
LINE
  5
14E
330
75
100
AcDbEntity
  8
GRUNDRISS
  6
Continuous
100
AcDbLine
 10
50.24901072394172
 20
43.64589604189569
 30
0.0
 11
53.24901072394311
 21
43.64589604189569
 31
0.0
  0
ARC
  5
14F
330
75
100
AcDbEntity
  8
GRUNDRISS
  6
Continuous
100
AcDbCircle
 10
50.24901072394172
 20
43.64589604189569
 30
0.0
 40
1.5
100
AcDbArc
 50
0.0
 51
180.0
  0
LINE
  5
150
330
75
100
AcDbEntity
  8
GRUNDRISS
  6
Continuous
100
AcDbLine
 10
50.24901072394172
 20
43.64589604189569
 30
0.0
 11
50.24901072394172
 21
45.14589604189639
 31
0.0
  0
ARC
  5
151
330
75
100
AcDbEntity
  8
GRUNDRISS
  6
Continuous
100
AcDbCircle
 10
53.24901072394311
 20
43.64589604189569
 30
0.0
 40
1.5
100
AcDbArc
 50
0.0
 51
180.0
  0
LINE
  5
152
330
75
100
AcDbEntity
  8
GRUNDRISS
  6
Continuous
100
AcDbLine
 10
53.24901072394311
 20
43.64589604189569
 30
0.0
 11
53.24901072394311
 21
45.14589604189639
 31
0.0
  0
LINE
  5
153
330
75
100
AcDbEntity
  8
GRUNDRISS
  6
Continuous
100
AcDbLine
 10
55.97901072394201
 20
3.945896041897907
 30
0.0
 11
55.97901072394201
 21
8.387744168945514
 31
0.0
  0
LINE
  5
154
330
75
100
AcDbEntity
  8
GRUNDRISS
  6
Continuous
100
AcDbLine
 10
56.12901072394208
 20
3.945896041897907
 30
0.0
 11
56.12901072394208
 21
8.387744168945514
 31
0.0
  0
LINE
  5
155
330
75
100
AcDbEntity
  8
GRUNDRISS
  6
Continuous
100
AcDbLine
 10
56.12901072394208
 20
5.220896041897028
 30
0.0
 11
59.8290107239438
 21
5.220896041897022
 31
0.0
  0
LINE
  5
156
330
75
100
AcDbEntity
  8
GRUNDRISS
  6
Continuous
100
AcDbLine
 10
51.54901072394232
 20
3.645896041897773
 30
0.0
 11
54.54901072394371
 21
3.645896041897773
 31
0.0
  0
ARC
  5
157
330
75
100
AcDbEntity
  8
GRUNDRISS
  6
Continuous
100
AcDbCircle
 10
54.54901072394371
 20
3.645896041897773
 30
0.0
 40
1.5
100
AcDbArc
 50
180.0
 51
270.0
  0
LINE
  5
158
330
75
100
AcDbEntity
  8
GRUNDRISS
  6
Continuous
100
AcDbLine
 10
54.54901072394371
 20
3.645896041897773
 30
0.0
 11
54.54901072394371
 21
2.145896041897075
 31
0.0
  0
ARC
  5
159
330
75
100
AcDbEntity
  8
GRUNDRISS
  6
Continuous
100
AcDbCircle
 10
51.54901072394232
 20
3.645896041897773
 30
0.0
 40
1.5
100
AcDbArc
 50
270.0
 51
0.0
  0
ARC
  5
15A
330
75
100
AcDbEntity
  8
GRUNDRISS
  6
Continuous
100
AcDbCircle
 10
51.54901072394232
 20
3.645896041897773
 30
0.0
 40
1.5
100
AcDbArc
 50
180.0
 51
270.0
  0
LINE
  5
15B
330
75
100
AcDbEntity
  8
GRUNDRISS
  6
Continuous
100
AcDbLine
 10
51.54901072394232
 20
3.645896041897773
 30
0.0
 11
51.54901072394232
 21
2.145896041897075
 31
0.0
  0
TEXT
  5
15D
330
75
100
AcDbEntity
  8
GRUNDRISS
100
AcDbText
 10
54.76663595934297
 20
4.538162665325137
 30
0.0
 40
0.1136434108527132
  1
F
 50
180.0
  7
ARIALB
 11
54.76663595934297
 21
4.424519254472423
 31
0.0
100
AcDbText
 73
     3
  0
TEXT
  5
15F
330
75
100
AcDbEntity
  8
GRUNDRISS
100
AcDbText
 10
53.79901072394336
 20
43.00725263104421
 30
0.0
 40
0.1136434108527132
  1
F
  7
ARIALB
 11
53.79901072394336
 21
43.12089604189693
 31
0.0
100
AcDbText
 73
     3
  0
TEXT
  5
160
330
75
100
AcDbEntity
  8
GRUNDRISS
100
AcDbText
 10
4.069010723943266
 20
43.00725263104421
 30
0.0
 40
0.1136434108527132
  1
F
  7
ARIALB
 11
4.069010723943266
 21
43.12089604189693
 31
0.0
100
AcDbText
 73
     3
  0
TEXT
  5
161
330
75
100
AcDbEntity
  8
GRUNDRISS
100
AcDbText
 10
3.94901072394379
 20
4.244577631043826
 30
0.0
 40
0.1136434108527132
  1
F
  7
ARIALB
 11
3.94901072394379
 21
4.358221041896539
 31
0.0
100
AcDbText
 73
     3
  0
CIRCLE
  5
162
330
75
100
AcDbEntity
  8
GRUNDRISS
  6
Continuous
100
AcDbCircle
 10
37.40901072394282
 20
3.995896041897936
 30
0.0
 40
0.05
  0
CIRCLE
  5
163
330
75
100
AcDbEntity
  8
GRUNDRISS
  6
Continuous
100
AcDbCircle
 10
28.6890107239423
 20
3.995896041897936
 30
0.0
 40
0.05
  0
CIRCLE
  5
164
330
75
100
AcDbEntity
  8
GRUNDRISS
  6
Continuous
100
AcDbCircle
 10
20.81901072394218
 20
3.995896041897936
 30
0.0
 40
0.05
  0
CIRCLE
  5
165
330
75
100
AcDbEntity
  8
GRUNDRISS
  6
Continuous
100
AcDbCircle
 10
10.96901072394351
 20
3.995896041897936
 30
0.0
 40
0.05
  0
LINE
  5
166
330
75
100
AcDbEntity
  8
GRUNDRISS
  6
Continuous
100
AcDbLine
 10
61.49901072394399
 20
43.64589604189569
 30
0.0
 11
61.49901072394399
 21
37.43589604189754
 31
0.0
  0
LINE
  5
167
330
75
100
AcDbEntity
  8
GRUNDRISS
  6
Continuous
100
AcDbLine
 10
61.19901072394385
 20
32.19697345623832
 30
0.0
 11
61.59901072394404
 21
32.19697345623832
 31
0.0
  0
LINE
  5
168
330
75
100
AcDbEntity
  8
GRUNDRISS
  6
Continuous
100
AcDbLine
 10
61.59901072394404
 20
32.19697345623832
 30
0.0
 11
61.59901072394404
 21
31.86697345623757
 31
0.0
  0
LINE
  5
169
330
75
100
AcDbEntity
  8
GRUNDRISS
  6
Continuous
100
AcDbLine
 10
61.59901072394404
 20
31.86697345623757
 30
0.0
 11
61.19901072394385
 21
31.86697345623757
 31
0.0
  0
LINE
  5
16A
330
75
100
AcDbEntity
  8
GRUNDRISS
  6
Continuous
100
AcDbLine
 10
61.19901072394385
 20
31.86697345623757
 30
0.0
 11
61.19901072394385
 21
32.19697345623832
 31
0.0
  0
LINE
  5
16B
330
75
100
AcDbEntity
  8
GRUNDRISS
  6
Continuous
100
AcDbLine
 10
61.49901072394399
 20
33.01589604189607
 30
0.0
 11
61.49901072394399
 21
34.01589604189653
 31
0.0
  0
LINE
  5
16C
330
75
100
AcDbEntity
  8
GRUNDRISS
  6
Continuous
100
AcDbLine
 10
61.49901072394399
 20
19.85589604189762
 30
0.0
 11
61.49901072394399
 21
20.85589604189809
 31
0.0
  0
LINE
  5
16D
330
75
100
AcDbEntity
  8
GRUNDRISS
  6
Continuous
100
AcDbLine
 10
0.0990107239419977
 20
11.44589604189549
 30
0.0
 11
0.0990107239419977
 21
4.545896041898192
 31
0.0
  0
LINE
  5
16E
330
75
100
AcDbEntity
  8
GRUNDRISS
  6
Continuous
100
AcDbLine
 10
0.0990107239419977
 20
4.545896041898192
 30
0.0
 11
1.499010723942649
 21
4.545896041898192
 31
0.0
  0
LINE
  5
16F
330
75
100
AcDbEntity
  8
GRUNDRISS
  6
Continuous
100
AcDbLine
 10
1.499010723942649
 20
4.545896041898192
 30
0.0
 11
1.499010723942649
 21
4.745896041895329
 31
0.0
  0
LINE
  5
170
330
75
100
AcDbEntity
  8
GRUNDRISS
  6
Continuous
100
AcDbLine
 10
1.499010723942649
 20
4.745896041895329
 30
0.0
 11
0.2990107239420908
 21
4.745896041895329
 31
0.0
  0
LINE
  5
171
330
75
100
AcDbEntity
  8
GRUNDRISS
  6
Continuous
100
AcDbLine
 10
0.2990107239420908
 20
4.745896041895329
 30
0.0
 11
0.2990107239420908
 21
11.2458960418954
 31
0.0
  0
LINE
  5
172
330
75
100
AcDbEntity
  8
GRUNDRISS
  6
Continuous
100
AcDbLine
 10
0.2990107239420908
 20
11.2458960418954
 30
0.0
 11
1.499010723942649
 21
11.2458960418954
 31
0.0
  0
LINE
  5
173
330
75
100
AcDbEntity
  8
GRUNDRISS
  6
Continuous
100
AcDbLine
 10
1.499010723942649
 20
11.2458960418954
 30
0.0
 11
1.499010723942649
 21
11.44589604189549
 31
0.0
  0
LINE
  5
174
330
75
100
AcDbEntity
  8
GRUNDRISS
  6
Continuous
100
AcDbLine
 10
1.499010723942649
 20
11.44589604189549
 30
0.0
 11
0.0990107239419977
 21
11.44589604189549
 31
0.0
  0
LINE
  5
175
330
75
100
AcDbEntity
  8
GRUNDRISS
  6
Continuous
100
AcDbLine
 10
0.2990107239420908
 20
9.94589604189775
 30
0.0
 11
1.499010723942649
 21
9.94589604189775
 31
0.0
  0
LINE
  5
176
330
75
100
AcDbEntity
  8
GRUNDRISS
  6
Continuous
100
AcDbLine
 10
1.499010723942649
 20
9.94589604189775
 30
0.0
 11
1.499010723942649
 21
9.685896041896446
 31
0.0
  0
LINE
  5
177
330
75
100
AcDbEntity
  8
GRUNDRISS
  6
Continuous
100
AcDbLine
 10
1.499010723942649
 20
9.685896041896446
 30
0.0
 11
0.2990107239420908
 21
9.685896041896446
 31
0.0
  0
LINE
  5
178
330
75
100
AcDbEntity
  8
GRUNDRISS
  6
Continuous
100
AcDbLine
 10
0.2990107239420908
 20
9.685896041896446
 30
0.0
 11
0.2990107239420908
 21
9.94589604189775
 31
0.0
  0
LINE
  5
179
330
75
100
AcDbEntity
  8
GRUNDRISS
  6
Continuous
100
AcDbLine
 10
0.2990107239420908
 20
9.685896041896446
 30
0.0
 11
1.499010723942649
 21
9.685896041896446
 31
0.0
  0
LINE
  5
17A
330
75
100
AcDbEntity
  8
GRUNDRISS
  6
Continuous
100
AcDbLine
 10
1.499010723942649
 20
9.685896041896446
 30
0.0
 11
1.499010723942649
 21
9.425896041898099
 31
0.0
  0
LINE
  5
17B
330
75
100
AcDbEntity
  8
GRUNDRISS
  6
Continuous
100
AcDbLine
 10
1.499010723942649
 20
9.425896041898099
 30
0.0
 11
0.2990107239420908
 21
9.425896041898099
 31
0.0
  0
LINE
  5
17C
330
75
100
AcDbEntity
  8
GRUNDRISS
  6
Continuous
100
AcDbLine
 10
0.2990107239420908
 20
9.425896041898099
 30
0.0
 11
0.2990107239420908
 21
9.685896041896446
 31
0.0
  0
LINE
  5
17D
330
75
100
AcDbEntity
  8
GRUNDRISS
  6
Continuous
100
AcDbLine
 10
0.2990107239420908
 20
9.425896041898099
 30
0.0
 11
1.499010723942649
 21
9.425896041898099
 31
0.0
  0
LINE
  5
17E
330
75
100
AcDbEntity
  8
GRUNDRISS
  6
Continuous
100
AcDbLine
 10
1.499010723942649
 20
9.425896041898099
 30
0.0
 11
1.499010723942649
 21
9.165896041896795
 31
0.0
  0
LINE
  5
17F
330
75
100
AcDbEntity
  8
GRUNDRISS
  6
Continuous
100
AcDbLine
 10
1.499010723942649
 20
9.165896041896795
 30
0.0
 11
0.2990107239420908
 21
9.165896041896795
 31
0.0
  0
LINE
  5
180
330
75
100
AcDbEntity
  8
GRUNDRISS
  6
Continuous
100
AcDbLine
 10
0.2990107239420908
 20
9.165896041896795
 30
0.0
 11
0.2990107239420908
 21
9.425896041898099
 31
0.0
  0
LINE
  5
181
330
75
100
AcDbEntity
  8
GRUNDRISS
  6
Continuous
100
AcDbLine
 10
0.2990107239420908
 20
9.165896041896795
 30
0.0
 11
1.499010723942649
 21
9.165896041896795
 31
0.0
  0
LINE
  5
182
330
75
100
AcDbEntity
  8
GRUNDRISS
  6
Continuous
100
AcDbLine
 10
1.499010723942649
 20
9.165896041896795
 30
0.0
 11
1.499010723942649
 21
8.905896041895491
 31
0.0
  0
LINE
  5
183
330
75
100
AcDbEntity
  8
GRUNDRISS
  6
Continuous
100
AcDbLine
 10
1.499010723942649
 20
8.905896041895491
 30
0.0
 11
0.2990107239420908
 21
8.905896041895491
 31
0.0
  0
LINE
  5
184
330
75
100
AcDbEntity
  8
GRUNDRISS
  6
Continuous
100
AcDbLine
 10
0.2990107239420908
 20
8.905896041895491
 30
0.0
 11
0.2990107239420908
 21
9.165896041896795
 31
0.0
  0
LINE
  5
185
330
75
100
AcDbEntity
  8
GRUNDRISS
  6
Continuous
100
AcDbLine
 10
0.2990107239420908
 20
8.905896041895491
 30
0.0
 11
1.499010723942649
 21
8.905896041895491
 31
0.0
  0
LINE
  5
186
330
75
100
AcDbEntity
  8
GRUNDRISS
  6
Continuous
100
AcDbLine
 10
1.499010723942649
 20
8.905896041895491
 30
0.0
 11
1.499010723942649
 21
8.645896041897144
 31
0.0
  0
LINE
  5
187
330
75
100
AcDbEntity
  8
GRUNDRISS
  6
Continuous
100
AcDbLine
 10
1.499010723942649
 20
8.645896041897144
 30
0.0
 11
0.2990107239420908
 21
8.645896041897144
 31
0.0
  0
LINE
  5
188
330
75
100
AcDbEntity
  8
GRUNDRISS
  6
Continuous
100
AcDbLine
 10
0.2990107239420908
 20
8.645896041897144
 30
0.0
 11
0.2990107239420908
 21
8.905896041895491
 31
0.0
  0
LINE
  5
189
330
75
100
AcDbEntity
  8
GRUNDRISS
  6
Continuous
100
AcDbLine
 10
0.2990107239420908
 20
8.645896041897144
 30
0.0
 11
1.499010723942649
 21
8.645896041897144
 31
0.0
  0
LINE
  5
18A
330
75
100
AcDbEntity
  8
GRUNDRISS
  6
Continuous
100
AcDbLine
 10
1.499010723942649
 20
8.645896041897144
 30
0.0
 11
1.499010723942649
 21
8.38589604189584
 31
0.0
  0
LINE
  5
18B
330
75
100
AcDbEntity
  8
GRUNDRISS
  6
Continuous
100
AcDbLine
 10
1.499010723942649
 20
8.38589604189584
 30
0.0
 11
0.2990107239420908
 21
8.38589604189584
 31
0.0
  0
LINE
  5
18C
330
75
100
AcDbEntity
  8
GRUNDRISS
  6
Continuous
100
AcDbLine
 10
0.2990107239420908
 20
8.38589604189584
 30
0.0
 11
0.2990107239420908
 21
8.645896041897144
 31
0.0
  0
LINE
  5
18D
330
75
100
AcDbEntity
  8
GRUNDRISS
  6
Continuous
100
AcDbLine
 10
0.2990107239420908
 20
8.38589604189584
 30
0.0
 11
1.499010723942649
 21
8.38589604189584
 31
0.0
  0
LINE
  5
18E
330
75
100
AcDbEntity
  8
GRUNDRISS
  6
Continuous
100
AcDbLine
 10
1.499010723942649
 20
8.38589604189584
 30
0.0
 11
1.499010723942649
 21
8.125896041897494
 31
0.0
  0
LINE
  5
18F
330
75
100
AcDbEntity
  8
GRUNDRISS
  6
Continuous
100
AcDbLine
 10
1.499010723942649
 20
8.125896041897494
 30
0.0
 11
0.2990107239420908
 21
8.125896041897494
 31
0.0
  0
LINE
  5
190
330
75
100
AcDbEntity
  8
GRUNDRISS
  6
Continuous
100
AcDbLine
 10
0.2990107239420908
 20
8.125896041897494
 30
0.0
 11
0.2990107239420908
 21
8.38589604189584
 31
0.0
  0
LINE
  5
191
330
75
100
AcDbEntity
  8
GRUNDRISS
  6
Continuous
100
AcDbLine
 10
0.2990107239420908
 20
8.125896041897494
 30
0.0
 11
1.499010723942649
 21
8.125896041897494
 31
0.0
  0
LINE
  5
192
330
75
100
AcDbEntity
  8
GRUNDRISS
  6
Continuous
100
AcDbLine
 10
1.499010723942649
 20
8.125896041897494
 30
0.0
 11
1.499010723942649
 21
7.865896041896189
 31
0.0
  0
LINE
  5
193
330
75
100
AcDbEntity
  8
GRUNDRISS
  6
Continuous
100
AcDbLine
 10
1.499010723942649
 20
7.865896041896189
 30
0.0
 11
0.2990107239420908
 21
7.865896041896189
 31
0.0
  0
LINE
  5
194
330
75
100
AcDbEntity
  8
GRUNDRISS
  6
Continuous
100
AcDbLine
 10
0.2990107239420908
 20
7.865896041896189
 30
0.0
 11
0.2990107239420908
 21
8.125896041897494
 31
0.0
  0
LINE
  5
195
330
75
100
AcDbEntity
  8
GRUNDRISS
  6
Continuous
100
AcDbLine
 10
0.2990107239420908
 20
7.865896041896189
 30
0.0
 11
1.499010723942649
 21
7.865896041896189
 31
0.0
  0
LINE
  5
196
330
75
100
AcDbEntity
  8
GRUNDRISS
  6
Continuous
100
AcDbLine
 10
1.499010723942649
 20
7.865896041896189
 30
0.0
 11
1.499010723942649
 21
7.605896041897842
 31
0.0
  0
LINE
  5
197
330
75
100
AcDbEntity
  8
GRUNDRISS
  6
Continuous
100
AcDbLine
 10
1.499010723942649
 20
7.605896041897842
 30
0.0
 11
0.2990107239420908
 21
7.605896041897842
 31
0.0
  0
LINE
  5
198
330
75
100
AcDbEntity
  8
GRUNDRISS
  6
Continuous
100
AcDbLine
 10
0.2990107239420908
 20
7.605896041897842
 30
0.0
 11
0.2990107239420908
 21
7.865896041896189
 31
0.0
  0
LINE
  5
199
330
75
100
AcDbEntity
  8
GRUNDRISS
  6
Continuous
100
AcDbLine
 10
0.2990107239420908
 20
7.605896041897842
 30
0.0
 11
1.499010723942649
 21
7.605896041897842
 31
0.0
  0
LINE
  5
19A
330
75
100
AcDbEntity
  8
GRUNDRISS
  6
Continuous
100
AcDbLine
 10
1.499010723942649
 20
7.605896041897842
 30
0.0
 11
1.499010723942649
 21
7.345896041896539
 31
0.0
  0
LINE
  5
19B
330
75
100
AcDbEntity
  8
GRUNDRISS
  6
Continuous
100
AcDbLine
 10
1.499010723942649
 20
7.345896041896539
 30
0.0
 11
0.2990107239420908
 21
7.345896041896539
 31
0.0
  0
LINE
  5
19C
330
75
100
AcDbEntity
  8
GRUNDRISS
  6
Continuous
100
AcDbLine
 10
0.2990107239420908
 20
7.345896041896539
 30
0.0
 11
0.2990107239420908
 21
7.605896041897842
 31
0.0
  0
LINE
  5
19D
330
75
100
AcDbEntity
  8
GRUNDRISS
  6
Continuous
100
AcDbLine
 10
0.2990107239420908
 20
7.345896041896539
 30
0.0
 11
1.499010723942649
 21
7.345896041896539
 31
0.0
  0
LINE
  5
19E
330
75
100
AcDbEntity
  8
GRUNDRISS
  6
Continuous
100
AcDbLine
 10
1.499010723942649
 20
7.345896041896539
 30
0.0
 11
1.499010723942649
 21
7.085896041895235
 31
0.0
  0
LINE
  5
19F
330
75
100
AcDbEntity
  8
GRUNDRISS
  6
Continuous
100
AcDbLine
 10
1.499010723942649
 20
7.085896041895235
 30
0.0
 11
0.2990107239420908
 21
7.085896041895235
 31
0.0
  0
LINE
  5
1A0
330
75
100
AcDbEntity
  8
GRUNDRISS
  6
Continuous
100
AcDbLine
 10
0.2990107239420908
 20
7.085896041895235
 30
0.0
 11
0.2990107239420908
 21
7.345896041896539
 31
0.0
  0
LINE
  5
1A1
330
75
100
AcDbEntity
  8
GRUNDRISS
  6
Continuous
100
AcDbLine
 10
0.2990107239420908
 20
7.085896041895235
 30
0.0
 11
1.499010723942649
 21
7.085896041895235
 31
0.0
  0
LINE
  5
1A2
330
75
100
AcDbEntity
  8
GRUNDRISS
  6
Continuous
100
AcDbLine
 10
1.499010723942649
 20
7.085896041895235
 30
0.0
 11
1.499010723942649
 21
6.825896041896888
 31
0.0
  0
LINE
  5
1A3
330
75
100
AcDbEntity
  8
GRUNDRISS
  6
Continuous
100
AcDbLine
 10
1.499010723942649
 20
6.825896041896888
 30
0.0
 11
0.2990107239420908
 21
6.825896041896888
 31
0.0
  0
LINE
  5
1A4
330
75
100
AcDbEntity
  8
GRUNDRISS
  6
Continuous
100
AcDbLine
 10
0.2990107239420908
 20
6.825896041896888
 30
0.0
 11
0.2990107239420908
 21
7.085896041895235
 31
0.0
  0
LINE
  5
1A5
330
75
100
AcDbEntity
  8
GRUNDRISS
  6
Continuous
100
AcDbLine
 10
0.2990107239420908
 20
6.825896041896888
 30
0.0
 11
1.499010723942649
 21
6.825896041896888
 31
0.0
  0
LINE
  5
1A6
330
75
100
AcDbEntity
  8
GRUNDRISS
  6
Continuous
100
AcDbLine
 10
1.499010723942649
 20
6.825896041896888
 30
0.0
 11
1.499010723942649
 21
6.565896041895585
 31
0.0
  0
LINE
  5
1A7
330
75
100
AcDbEntity
  8
GRUNDRISS
  6
Continuous
100
AcDbLine
 10
1.499010723942649
 20
6.565896041895585
 30
0.0
 11
0.2990107239420908
 21
6.565896041895585
 31
0.0
  0
LINE
  5
1A8
330
75
100
AcDbEntity
  8
GRUNDRISS
  6
Continuous
100
AcDbLine
 10
0.2990107239420908
 20
6.565896041895585
 30
0.0
 11
0.2990107239420908
 21
6.825896041896888
 31
0.0
  0
LINE
  5
1A9
330
75
100
AcDbEntity
  8
GRUNDRISS
  6
Continuous
100
AcDbLine
 10
0.2990107239420908
 20
6.565896041895585
 30
0.0
 11
1.499010723942649
 21
6.565896041895585
 31
0.0
  0
LINE
  5
1AA
330
75
100
AcDbEntity
  8
GRUNDRISS
  6
Continuous
100
AcDbLine
 10
1.499010723942649
 20
6.565896041895585
 30
0.0
 11
1.499010723942649
 21
6.305896041897238
 31
0.0
  0
LINE
  5
1AB
330
75
100
AcDbEntity
  8
GRUNDRISS
  6
Continuous
100
AcDbLine
 10
1.499010723942649
 20
6.305896041897238
 30
0.0
 11
0.2990107239420908
 21
6.305896041897238
 31
0.0
  0
LINE
  5
1AC
330
75
100
AcDbEntity
  8
GRUNDRISS
  6
Continuous
100
AcDbLine
 10
0.2990107239420908
 20
6.305896041897238
 30
0.0
 11
0.2990107239420908
 21
6.565896041895585
 31
0.0
  0
LINE
  5
1AD
330
75
100
AcDbEntity
  8
GRUNDRISS
  6
Continuous
100
AcDbLine
 10
0.2990107239420908
 20
6.305896041897238
 30
0.0
 11
1.499010723942649
 21
6.305896041897238
 31
0.0
  0
LINE
  5
1AE
330
75
100
AcDbEntity
  8
GRUNDRISS
  6
Continuous
100
AcDbLine
 10
1.499010723942649
 20
6.305896041897238
 30
0.0
 11
1.499010723942649
 21
6.045896041895933
 31
0.0
  0
LINE
  5
1AF
330
75
100
AcDbEntity
  8
GRUNDRISS
  6
Continuous
100
AcDbLine
 10
1.499010723942649
 20
6.045896041895933
 30
0.0
 11
0.2990107239420908
 21
6.045896041895933
 31
0.0
  0
LINE
  5
1B0
330
75
100
AcDbEntity
  8
GRUNDRISS
  6
Continuous
100
AcDbLine
 10
0.2990107239420908
 20
6.045896041895933
 30
0.0
 11
0.2990107239420908
 21
6.305896041897238
 31
0.0
  0
LINE
  5
1B1
330
75
100
AcDbEntity
  8
GRUNDRISS
  6
Continuous
100
AcDbLine
 10
0.2990107239420908
 20
6.045896041895933
 30
0.0
 11
1.499010723942649
 21
6.045896041895933
 31
0.0
  0
LINE
  5
1B2
330
75
100
AcDbEntity
  8
GRUNDRISS
  6
Continuous
100
AcDbLine
 10
1.499010723942649
 20
6.045896041895933
 30
0.0
 11
1.499010723942649
 21
5.785896041897586
 31
0.0
  0
LINE
  5
1B3
330
75
100
AcDbEntity
  8
GRUNDRISS
  6
Continuous
100
AcDbLine
 10
1.499010723942649
 20
5.785896041897586
 30
0.0
 11
0.2990107239420908
 21
5.785896041897586
 31
0.0
  0
LINE
  5
1B4
330
75
100
AcDbEntity
  8
GRUNDRISS
  6
Continuous
100
AcDbLine
 10
0.2990107239420908
 20
5.785896041897586
 30
0.0
 11
0.2990107239420908
 21
6.045896041895933
 31
0.0
  0
LINE
  5
1B5
330
75
100
AcDbEntity
  8
GRUNDRISS
  6
Continuous
100
AcDbLine
 10
0.2990107239420908
 20
5.785896041897586
 30
0.0
 11
1.499010723942649
 21
5.785896041897586
 31
0.0
  0
LINE
  5
1B6
330
75
100
AcDbEntity
  8
GRUNDRISS
  6
Continuous
100
AcDbLine
 10
1.499010723942649
 20
5.785896041897586
 30
0.0
 11
1.499010723942649
 21
5.525896041896283
 31
0.0
  0
LINE
  5
1B7
330
75
100
AcDbEntity
  8
GRUNDRISS
  6
Continuous
100
AcDbLine
 10
1.499010723942649
 20
5.525896041896283
 30
0.0
 11
0.2990107239420908
 21
5.525896041896283
 31
0.0
  0
LINE
  5
1B8
330
75
100
AcDbEntity
  8
GRUNDRISS
  6
Continuous
100
AcDbLine
 10
0.2990107239420908
 20
5.525896041896283
 30
0.0
 11
0.2990107239420908
 21
5.785896041897586
 31
0.0
  0
LINE
  5
1B9
330
75
100
AcDbEntity
  8
GRUNDRISS
  6
Continuous
100
AcDbLine
 10
0.2990107239420908
 20
5.525896041896283
 30
0.0
 11
1.499010723942649
 21
5.525896041896283
 31
0.0
  0
LINE
  5
1BA
330
75
100
AcDbEntity
  8
GRUNDRISS
  6
Continuous
100
AcDbLine
 10
1.499010723942649
 20
5.525896041896283
 30
0.0
 11
1.499010723942649
 21
5.265896041894979
 31
0.0
  0
LINE
  5
1BB
330
75
100
AcDbEntity
  8
GRUNDRISS
  6
Continuous
100
AcDbLine
 10
1.499010723942649
 20
5.265896041894979
 30
0.0
 11
0.2990107239420908
 21
5.265896041894979
 31
0.0
  0
LINE
  5
1BC
330
75
100
AcDbEntity
  8
GRUNDRISS
  6
Continuous
100
AcDbLine
 10
0.2990107239420908
 20
5.265896041894979
 30
0.0
 11
0.2990107239420908
 21
5.525896041896283
 31
0.0
  0
LINE
  5
1BD
330
75
100
AcDbEntity
  8
GRUNDRISS
  6
Continuous
100
AcDbLine
 10
0.2990107239420908
 20
5.265896041894979
 30
0.0
 11
1.499010723942649
 21
5.265896041894979
 31
0.0
  0
LINE
  5
1BE
330
75
100
AcDbEntity
  8
GRUNDRISS
  6
Continuous
100
AcDbLine
 10
1.499010723942649
 20
5.265896041894979
 30
0.0
 11
1.499010723942649
 21
5.005896041896632
 31
0.0
  0
LINE
  5
1BF
330
75
100
AcDbEntity
  8
GRUNDRISS
  6
Continuous
100
AcDbLine
 10
1.499010723942649
 20
5.005896041896632
 30
0.0
 11
0.2990107239420908
 21
5.005896041896632
 31
0.0
  0
LINE
  5
1C0
330
75
100
AcDbEntity
  8
GRUNDRISS
  6
Continuous
100
AcDbLine
 10
0.2990107239420908
 20
5.005896041896632
 30
0.0
 11
0.2990107239420908
 21
5.265896041894979
 31
0.0
  0
LINE
  5
1C1
330
75
100
AcDbEntity
  8
GRUNDRISS
  6
Continuous
100
AcDbLine
 10
0.2990107239420908
 20
5.005896041896632
 30
0.0
 11
1.499010723942649
 21
5.005896041896632
 31
0.0
  0
LINE
  5
1C2
330
75
100
AcDbEntity
  8
GRUNDRISS
  6
Continuous
100
AcDbLine
 10
1.499010723942649
 20
5.005896041896632
 30
0.0
 11
1.499010723942649
 21
4.745896041895329
 31
0.0
  0
LINE
  5
1C3
330
75
100
AcDbEntity
  8
GRUNDRISS
  6
Continuous
100
AcDbLine
 10
1.499010723942649
 20
4.745896041895329
 30
0.0
 11
0.2990107239420908
 21
4.745896041895329
 31
0.0
  0
LINE
  5
1C4
330
75
100
AcDbEntity
  8
GRUNDRISS
  6
Continuous
100
AcDbLine
 10
0.2990107239420908
 20
4.745896041895329
 30
0.0
 11
0.2990107239420908
 21
5.005896041896632
 31
0.0
  0
LINE
  5
1C5
330
75
100
AcDbEntity
  8
GRUNDRISS
  6
Continuous
100
AcDbLine
 10
1.499010723942649
 20
14.14589604189675
 30
0.0
 11
1.499010723942649
 21
13.14589604189628
 31
0.0
  0
LINE
  5
1C6
330
75
100
AcDbEntity
  8
GRUNDRISS
  6
Continuous
100
AcDbLine
 10
1.499010723942649
 20
34.14589604189718
 30
0.0
 11
1.499010723942649
 21
33.14589604189672
 31
0.0
  0
LINE
  5
1C7
330
75
100
AcDbEntity
  8
GRUNDRISS
  6
Continuous
100
AcDbLine
 10
59.55901072394131
 20
5.145896041895508
 30
0.0
 11
59.8290107239438
 21
5.145896041895508
 31
0.0
  0
LINE
  5
1C8
330
75
100
AcDbEntity
  8
GRUNDRISS
  6
Continuous
100
AcDbLine
 10
59.8290107239438
 20
5.145896041895508
 30
0.0
 11
59.8290107239438
 21
3.945896041897907
 31
0.0
  0
LINE
  5
1C9
330
75
100
AcDbEntity
  8
GRUNDRISS
  6
Continuous
100
AcDbLine
 10
59.8290107239438
 20
3.945896041897907
 30
0.0
 11
59.55901072394131
 21
3.945896041897907
 31
0.0
  0
LINE
  5
1CA
330
75
100
AcDbEntity
  8
GRUNDRISS
  6
Continuous
100
AcDbLine
 10
59.55901072394131
 20
3.945896041897907
 30
0.0
 11
59.55901072394131
 21
5.145896041895508
 31
0.0
  0
LINE
  5
1CB
330
75
100
AcDbEntity
  8
GRUNDRISS
  6
Continuous
100
AcDbLine
 10
59.28901072394178
 20
5.145896041895508
 30
0.0
 11
59.55901072394131
 21
5.145896041895508
 31
0.0
  0
LINE
  5
1CC
330
75
100
AcDbEntity
  8
GRUNDRISS
  6
Continuous
100
AcDbLine
 10
59.55901072394131
 20
5.145896041895508
 30
0.0
 11
59.55901072394131
 21
3.945896041897907
 31
0.0
  0
LINE
  5
1CD
330
75
100
AcDbEntity
  8
GRUNDRISS
  6
Continuous
100
AcDbLine
 10
59.55901072394131
 20
3.945896041897907
 30
0.0
 11
59.28901072394178
 21
3.945896041897907
 31
0.0
  0
LINE
  5
1CE
330
75
100
AcDbEntity
  8
GRUNDRISS
  6
Continuous
100
AcDbLine
 10
59.28901072394178
 20
3.945896041897907
 30
0.0
 11
59.28901072394178
 21
5.145896041895508
 31
0.0
  0
LINE
  5
1CF
330
75
100
AcDbEntity
  8
GRUNDRISS
  6
Continuous
100
AcDbLine
 10
59.01901072394224
 20
5.145896041895508
 30
0.0
 11
59.28901072394178
 21
5.145896041895508
 31
0.0
  0
LINE
  5
1D0
330
75
100
AcDbEntity
  8
GRUNDRISS
  6
Continuous
100
AcDbLine
 10
59.28901072394178
 20
5.145896041895508
 30
0.0
 11
59.28901072394178
 21
3.945896041897907
 31
0.0
  0
LINE
  5
1D1
330
75
100
AcDbEntity
  8
GRUNDRISS
  6
Continuous
100
AcDbLine
 10
59.28901072394178
 20
3.945896041897907
 30
0.0
 11
59.01901072394224
 21
3.945896041897907
 31
0.0
  0
LINE
  5
1D2
330
75
100
AcDbEntity
  8
GRUNDRISS
  6
Continuous
100
AcDbLine
 10
59.01901072394224
 20
3.945896041897907
 30
0.0
 11
59.01901072394224
 21
5.145896041895508
 31
0.0
  0
LINE
  5
1D3
330
75
100
AcDbEntity
  8
GRUNDRISS
  6
Continuous
100
AcDbLine
 10
58.74901072394271
 20
5.145896041895508
 30
0.0
 11
59.01901072394224
 21
5.145896041895508
 31
0.0
  0
LINE
  5
1D4
330
75
100
AcDbEntity
  8
GRUNDRISS
  6
Continuous
100
AcDbLine
 10
59.01901072394224
 20
5.145896041895508
 30
0.0
 11
59.01901072394224
 21
3.945896041897907
 31
0.0
  0
LINE
  5
1D5
330
75
100
AcDbEntity
  8
GRUNDRISS
  6
Continuous
100
AcDbLine
 10
59.01901072394224
 20
3.945896041897907
 30
0.0
 11
58.74901072394271
 21
3.945896041897907
 31
0.0
  0
LINE
  5
1D6
330
75
100
AcDbEntity
  8
GRUNDRISS
  6
Continuous
100
AcDbLine
 10
58.74901072394271
 20
3.945896041897907
 30
0.0
 11
58.74901072394271
 21
5.145896041895508
 31
0.0
  0
LINE
  5
1D7
330
75
100
AcDbEntity
  8
GRUNDRISS
  6
Continuous
100
AcDbLine
 10
58.47901072394318
 20
5.145896041895508
 30
0.0
 11
58.74901072394271
 21
5.145896041895508
 31
0.0
  0
LINE
  5
1D8
330
75
100
AcDbEntity
  8
GRUNDRISS
  6
Continuous
100
AcDbLine
 10
58.74901072394271
 20
5.145896041895508
 30
0.0
 11
58.74901072394271
 21
3.945896041897907
 31
0.0
  0
LINE
  5
1D9
330
75
100
AcDbEntity
  8
GRUNDRISS
  6
Continuous
100
AcDbLine
 10
58.74901072394271
 20
3.945896041897907
 30
0.0
 11
58.47901072394318
 21
3.945896041897907
 31
0.0
  0
LINE
  5
1DA
330
75
100
AcDbEntity
  8
GRUNDRISS
  6
Continuous
100
AcDbLine
 10
58.47901072394318
 20
3.945896041897907
 30
0.0
 11
58.47901072394318
 21
5.145896041895508
 31
0.0
  0
LINE
  5
1DB
330
75
100
AcDbEntity
  8
GRUNDRISS
  6
Continuous
100
AcDbLine
 10
57.39901072394208
 20
5.145896041895508
 30
0.0
 11
57.66901072394162
 21
5.145896041895508
 31
0.0
  0
LINE
  5
1DC
330
75
100
AcDbEntity
  8
GRUNDRISS
  6
Continuous
100
AcDbLine
 10
57.66901072394162
 20
5.145896041895508
 30
0.0
 11
57.66901072394162
 21
3.945896041897907
 31
0.0
  0
LINE
  5
1DD
330
75
100
AcDbEntity
  8
GRUNDRISS
  6
Continuous
100
AcDbLine
 10
57.66901072394162
 20
3.945896041897907
 30
0.0
 11
57.39901072394208
 21
3.945896041897907
 31
0.0
  0
LINE
  5
1DE
330
75
100
AcDbEntity
  8
GRUNDRISS
  6
Continuous
100
AcDbLine
 10
57.39901072394208
 20
3.945896041897907
 30
0.0
 11
57.39901072394208
 21
5.145896041895508
 31
0.0
  0
LINE
  5
1DF
330
75
100
AcDbEntity
  8
GRUNDRISS
  6
Continuous
100
AcDbLine
 10
57.12901072394255
 20
5.145896041895508
 30
0.0
 11
57.39901072394208
 21
5.145896041895508
 31
0.0
  0
LINE
  5
1E0
330
75
100
AcDbEntity
  8
GRUNDRISS
  6
Continuous
100
AcDbLine
 10
57.39901072394208
 20
5.145896041895508
 30
0.0
 11
57.39901072394208
 21
3.945896041897907
 31
0.0
  0
LINE
  5
1E1
330
75
100
AcDbEntity
  8
GRUNDRISS
  6
Continuous
100
AcDbLine
 10
57.39901072394208
 20
3.945896041897907
 30
0.0
 11
57.12901072394255
 21
3.945896041897907
 31
0.0
  0
LINE
  5
1E2
330
75
100
AcDbEntity
  8
GRUNDRISS
  6
Continuous
100
AcDbLine
 10
57.12901072394255
 20
3.945896041897907
 30
0.0
 11
57.12901072394255
 21
5.145896041895508
 31
0.0
  0
LINE
  5
1E3
330
75
100
AcDbEntity
  8
GRUNDRISS
  6
Continuous
100
AcDbLine
 10
56.85901072394301
 20
5.145896041895508
 30
0.0
 11
57.12901072394255
 21
5.145896041895508
 31
0.0
  0
LINE
  5
1E4
330
75
100
AcDbEntity
  8
GRUNDRISS
  6
Continuous
100
AcDbLine
 10
57.12901072394255
 20
5.145896041895508
 30
0.0
 11
57.12901072394255
 21
3.945896041897907
 31
0.0
  0
LINE
  5
1E5
330
75
100
AcDbEntity
  8
GRUNDRISS
  6
Continuous
100
AcDbLine
 10
57.12901072394255
 20
3.945896041897907
 30
0.0
 11
56.85901072394301
 21
3.945896041897907
 31
0.0
  0
LINE
  5
1E6
330
75
100
AcDbEntity
  8
GRUNDRISS
  6
Continuous
100
AcDbLine
 10
56.85901072394301
 20
3.945896041897907
 30
0.0
 11
56.85901072394301
 21
5.145896041895508
 31
0.0
  0
LINE
  5
1E7
330
75
100
AcDbEntity
  8
GRUNDRISS
  6
Continuous
100
AcDbLine
 10
56.58901072394348
 20
5.145896041895508
 30
0.0
 11
56.85901072394301
 21
5.145896041895508
 31
0.0
  0
LINE
  5
1E8
330
75
100
AcDbEntity
  8
GRUNDRISS
  6
Continuous
100
AcDbLine
 10
56.85901072394301
 20
5.145896041895508
 30
0.0
 11
56.85901072394301
 21
3.945896041897907
 31
0.0
  0
LINE
  5
1E9
330
75
100
AcDbEntity
  8
GRUNDRISS
  6
Continuous
100
AcDbLine
 10
56.85901072394301
 20
3.945896041897907
 30
0.0
 11
56.58901072394348
 21
3.945896041897907
 31
0.0
  0
LINE
  5
1EA
330
75
100
AcDbEntity
  8
GRUNDRISS
  6
Continuous
100
AcDbLine
 10
56.58901072394348
 20
3.945896041897907
 30
0.0
 11
56.58901072394348
 21
5.145896041895508
 31
0.0
  0
LINE
  5
1EB
330
75
100
AcDbEntity
  8
GRUNDRISS
  6
Continuous
100
AcDbLine
 10
56.31901072394395
 20
5.145896041895508
 30
0.0
 11
56.58901072394348
 21
5.145896041895508
 31
0.0
  0
LINE
  5
1EC
330
75
100
AcDbEntity
  8
GRUNDRISS
  6
Continuous
100
AcDbLine
 10
56.58901072394348
 20
5.145896041895508
 30
0.0
 11
56.58901072394348
 21
3.945896041897907
 31
0.0
  0
LINE
  5
1ED
330
75
100
AcDbEntity
  8
GRUNDRISS
  6
Continuous
100
AcDbLine
 10
56.58901072394348
 20
3.945896041897907
 30
0.0
 11
56.31901072394395
 21
3.945896041897907
 31
0.0
  0
LINE
  5
1EE
330
75
100
AcDbEntity
  8
GRUNDRISS
  6
Continuous
100
AcDbLine
 10
56.31901072394395
 20
3.945896041897907
 30
0.0
 11
56.31901072394395
 21
5.145896041895508
 31
0.0
  0
LINE
  5
1EF
330
75
100
AcDbEntity
  8
GRUNDRISS
  6
Continuous
100
AcDbLine
 10
56.12901072394208
 20
5.295896041895584
 30
0.0
 11
59.8290107239438
 21
5.295896041895579
 31
0.0
  0
LINE
  5
1F0
330
75
100
AcDbEntity
  8
GRUNDRISS
  6
Continuous
100
AcDbLine
 10
59.8290107239438
 20
5.295896041895579
 30
0.0
 11
59.8290107239438
 21
5.145896041895508
 31
0.0
  0
LINE
  5
1F1
330
75
100
AcDbEntity
  8
GRUNDRISS
  6
Continuous
100
AcDbLine
 10
59.8290107239438
 20
5.145896041895508
 30
0.0
 11
56.12901072394208
 21
5.145896041895515
 31
0.0
  0
LINE
  5
1F2
330
75
100
AcDbEntity
  8
GRUNDRISS
  6
Continuous
100
AcDbLine
 10
56.12901072394208
 20
5.145896041895515
 30
0.0
 11
56.12901072394208
 21
5.295896041895584
 31
0.0
  0
LINE
  5
1F3
330
75
100
AcDbEntity
  8
GRUNDRISS
  6
Continuous
100
AcDbLine
 10
54.85006140619978
 20
4.997690785349761
 30
0.0
 11
54.85006140619978
 21
3.99769078534929
 31
0.0
  0
LINE
  5
1F4
330
75
100
AcDbEntity
  8
GRUNDRISS
  6
Continuous
100
AcDbLine
 10
54.85006140619978
 20
3.99769078534929
 30
0.0
 11
54.65006140619969
 21
3.99769078534929
 31
0.0
  0
LINE
  5
1F5
330
75
100
AcDbEntity
  8
GRUNDRISS
  6
Continuous
100
AcDbLine
 10
54.65006140619969
 20
3.99769078534929
 30
0.0
 11
54.65006140619969
 21
4.997690785349761
 31
0.0
  0
LINE
  5
1F6
330
75
100
AcDbEntity
  8
GRUNDRISS
  6
Continuous
100
AcDbLine
 10
54.65006140619969
 20
4.997690785349761
 30
0.0
 11
54.85006140619978
 21
4.997690785349761
 31
0.0
  0
LINE
  5
1F7
330
75
100
AcDbEntity
  8
GRUNDRISS
  6
Continuous
100
AcDbLine
 10
53.29901072394314
 20
43.32089604189702
 30
0.0
 11
54.29901072394359
 21
43.32089604189702
 31
0.0
  0
LINE
  5
1F8
330
75
100
AcDbEntity
  8
GRUNDRISS
  6
Continuous
100
AcDbLine
 10
54.29901072394359
 20
43.32089604189702
 30
0.0
 11
54.29901072394359
 21
43.12089604189693
 31
0.0
  0
LINE
  5
1F9
330
75
100
AcDbEntity
  8
GRUNDRISS
  6
Continuous
100
AcDbLine
 10
54.29901072394359
 20
43.12089604189693
 30
0.0
 11
53.29901072394314
 21
43.12089604189693
 31
0.0
  0
LINE
  5
1FA
330
75
100
AcDbEntity
  8
GRUNDRISS
  6
Continuous
100
AcDbLine
 10
53.29901072394314
 20
43.12089604189693
 30
0.0
 11
53.29901072394314
 21
43.32089604189702
 31
0.0
  0
LINE
  5
1FB
330
75
100
AcDbEntity
  8
GRUNDRISS
  6
Continuous
100
AcDbLine
 10
3.569010723943033
 20
43.32089604189702
 30
0.0
 11
4.569010723943499
 21
43.32089604189702
 31
0.0
  0
LINE
  5
1FC
330
75
100
AcDbEntity
  8
GRUNDRISS
  6
Continuous
100
AcDbLine
 10
4.569010723943499
 20
43.32089604189702
 30
0.0
 11
4.569010723943499
 21
43.12089604189693
 31
0.0
  0
LINE
  5
1FD
330
75
100
AcDbEntity
  8
GRUNDRISS
  6
Continuous
100
AcDbLine
 10
4.569010723943499
 20
43.12089604189693
 30
0.0
 11
3.569010723943033
 21
43.12089604189693
 31
0.0
  0
LINE
  5
1FE
330
75
100
AcDbEntity
  8
GRUNDRISS
  6
Continuous
100
AcDbLine
 10
3.569010723943033
 20
43.12089604189693
 30
0.0
 11
3.569010723943033
 21
43.32089604189702
 31
0.0
  0
LINE
  5
1FF
330
75
100
AcDbEntity
  8
GRUNDRISS
  6
Continuous
100
AcDbLine
 10
3.449010723943557
 20
4.170896041896539
 30
0.0
 11
4.449010723941066
 21
4.170896041896539
 31
0.0
  0
LINE
  5
200
330
75
100
AcDbEntity
  8
GRUNDRISS
  6
Continuous
100
AcDbLine
 10
4.449010723941066
 20
4.170896041896539
 30
0.0
 11
4.449010723941066
 21
3.970896041896446
 31
0.0
  0
LINE
  5
201
330
75
100
AcDbEntity
  8
GRUNDRISS
  6
Continuous
100
AcDbLine
 10
4.449010723941066
 20
3.970896041896446
 30
0.0
 11
3.449010723943557
 21
3.970896041896446
 31
0.0
  0
LINE
  5
202
330
75
100
AcDbEntity
  8
GRUNDRISS
  6
Continuous
100
AcDbLine
 10
3.449010723943557
 20
3.970896041896446
 30
0.0
 11
3.449010723943557
 21
4.170896041896539
 31
0.0
  0
LINE
  5
203
330
75
100
AcDbEntity
  8
GRUNDRISS
  6
Continuous
100
AcDbLine
 10
61.19901072394385
 20
35.06089604189791
 30
0.0
 11
61.59901072394404
 21
35.06089604189791
 31
0.0
  0
LINE
  5
204
330
75
100
AcDbEntity
  8
GRUNDRISS
  6
Continuous
100
AcDbLine
 10
61.59901072394404
 20
35.06089604189791
 30
0.0
 11
61.59901072394404
 21
34.73089604189716
 31
0.0
  0
LINE
  5
205
330
75
100
AcDbEntity
  8
GRUNDRISS
  6
Continuous
100
AcDbLine
 10
61.59901072394404
 20
34.73089604189716
 30
0.0
 11
61.19901072394385
 21
34.73089604189716
 31
0.0
  0
LINE
  5
206
330
75
100
AcDbEntity
  8
GRUNDRISS
  6
Continuous
100
AcDbLine
 10
61.19901072394385
 20
34.73089604189716
 30
0.0
 11
61.19901072394385
 21
35.06089604189791
 31
0.0
  0
LINE
  5
207
330
75
100
AcDbEntity
  8
GRUNDRISS
  6
Continuous
100
AcDbLine
 10
1.589010723941508
 20
3.645896041897773
 30
0.0
 11
1.649010723942719
 21
3.645896041897773
 31
0.0
  0
LINE
  5
208
330
75
100
AcDbEntity
  8
GRUNDRISS
  6
Continuous
100
AcDbLine
 10
1.649010723942719
 20
3.645896041897773
 30
0.0
 11
1.649010723942719
 21
3.59589604189775
 31
0.0
  0
LINE
  5
209
330
75
100
AcDbEntity
  8
GRUNDRISS
  6
Continuous
100
AcDbLine
 10
1.649010723942719
 20
3.59589604189775
 30
0.0
 11
1.589010723941508
 21
3.59589604189775
 31
0.0
  0
LINE
  5
20A
330
75
100
AcDbEntity
  8
GRUNDRISS
  6
Continuous
100
AcDbLine
 10
1.589010723941508
 20
3.59589604189775
 30
0.0
 11
1.589010723941508
 21
3.645896041897773
 31
0.0
  0
LINE
  5
20B
330
75
100
AcDbEntity
  8
GRUNDRISS
  6
Continuous
100
AcDbLine
 10
61.34901072394097
 20
3.645896041897773
 30
0.0
 11
61.40901072394218
 21
3.645896041897773
 31
0.0
  0
LINE
  5
20C
330
75
100
AcDbEntity
  8
GRUNDRISS
  6
Continuous
100
AcDbLine
 10
61.40901072394218
 20
3.645896041897773
 30
0.0
 11
61.40901072394218
 21
3.59589604189775
 31
0.0
  0
LINE
  5
20D
330
75
100
AcDbEntity
  8
GRUNDRISS
  6
Continuous
100
AcDbLine
 10
61.40901072394218
 20
3.59589604189775
 30
0.0
 11
61.34901072394097
 21
3.59589604189775
 31
0.0
  0
LINE
  5
20E
330
75
100
AcDbEntity
  8
GRUNDRISS
  6
Continuous
100
AcDbLine
 10
61.34901072394097
 20
3.59589604189775
 30
0.0
 11
61.34901072394097
 21
3.645896041897773
 31
0.0
  0
LINE
  5
20F
330
75
100
AcDbEntity
  8
GRUNDRISS
  6
Continuous
100
AcDbLine
 10
56.16701072394246
 20
3.645896041897773
 30
0.0
 11
56.21701072394248
 21
3.645896041897773
 31
0.0
  0
LINE
  5
210
330
75
100
AcDbEntity
  8
GRUNDRISS
  6
Continuous
100
AcDbLine
 10
47.87601072394351
 20
3.645896041897773
 30
0.0
 11
48.17601072394364
 21
3.645896041897773
 31
0.0
  0
LINE
  5
211
330
75
100
AcDbEntity
  8
GRUNDRISS
  6
Continuous
100
AcDbLine
 10
48.17601072394364
 20
3.645896041897773
 30
0.0
 11
48.17601072394364
 21
3.460896041895026
 31
0.0
  0
LINE
  5
212
330
75
100
AcDbEntity
  8
GRUNDRISS
  6
Continuous
100
AcDbLine
 10
48.17601072394364
 20
3.460896041895026
 30
0.0
 11
47.87601072394351
 21
3.460896041895026
 31
0.0
  0
LINE
  5
213
330
75
100
AcDbEntity
  8
GRUNDRISS
  6
Continuous
100
AcDbLine
 10
47.87601072394351
 20
3.460896041895026
 30
0.0
 11
47.87601072394351
 21
3.645896041897773
 31
0.0
  0
LINE
  5
214
330
75
100
AcDbEntity
  8
GRUNDRISS
  6
Continuous
100
AcDbLine
 10
41.26501072394295
 20
3.645896041897773
 30
0.0
 11
41.56501072394308
 21
3.645896041897773
 31
0.0
  0
LINE
  5
215
330
75
100
AcDbEntity
  8
GRUNDRISS
  6
Continuous
100
AcDbLine
 10
41.56501072394308
 20
3.645896041897773
 30
0.0
 11
41.56501072394308
 21
3.460896041895026
 31
0.0
  0
LINE
  5
216
330
75
100
AcDbEntity
  8
GRUNDRISS
  6
Continuous
100
AcDbLine
 10
41.56501072394308
 20
3.460896041895026
 30
0.0
 11
41.26501072394295
 21
3.460896041895026
 31
0.0
  0
LINE
  5
217
330
75
100
AcDbEntity
  8
GRUNDRISS
  6
Continuous
100
AcDbLine
 10
41.26501072394295
 20
3.460896041895026
 30
0.0
 11
41.26501072394295
 21
3.645896041897773
 31
0.0
  0
LINE
  5
218
330
75
100
AcDbEntity
  8
GRUNDRISS
  6
Continuous
100
AcDbLine
 10
21.43201072394135
 20
3.645896041897773
 30
0.0
 11
21.73201072394149
 21
3.645896041897773
 31
0.0
  0
LINE
  5
219
330
75
100
AcDbEntity
  8
GRUNDRISS
  6
Continuous
100
AcDbLine
 10
21.73201072394149
 20
3.645896041897773
 30
0.0
 11
21.73201072394149
 21
3.460896041897983
 31
0.0
  0
LINE
  5
21A
330
75
100
AcDbEntity
  8
GRUNDRISS
  6
Continuous
100
AcDbLine
 10
21.73201072394149
 20
3.460896041897983
 30
0.0
 11
21.43201072394135
 21
3.460896041897983
 31
0.0
  0
LINE
  5
21B
330
75
100
AcDbEntity
  8
GRUNDRISS
  6
Continuous
100
AcDbLine
 10
21.43201072394135
 20
3.460896041897983
 30
0.0
 11
21.43201072394135
 21
3.645896041897773
 31
0.0
  0
LINE
  5
21C
330
75
100
AcDbEntity
  8
GRUNDRISS
  6
Continuous
100
AcDbLine
 10
14.82101072394377
 20
3.645896041897773
 30
0.0
 11
15.12101072394392
 21
3.645896041897773
 31
0.0
  0
LINE
  5
21D
330
75
100
AcDbEntity
  8
GRUNDRISS
  6
Continuous
100
AcDbLine
 10
15.12101072394392
 20
3.645896041897773
 30
0.0
 11
15.12101072394392
 21
3.460896041897983
 31
0.0
  0
LINE
  5
21E
330
75
100
AcDbEntity
  8
GRUNDRISS
  6
Continuous
100
AcDbLine
 10
15.12101072394392
 20
3.460896041897983
 30
0.0
 11
14.82101072394377
 21
3.460896041897983
 31
0.0
  0
LINE
  5
21F
330
75
100
AcDbEntity
  8
GRUNDRISS
  6
Continuous
100
AcDbLine
 10
14.82101072394377
 20
3.460896041897983
 30
0.0
 11
14.82101072394377
 21
3.645896041897773
 31
0.0
  0
LINE
  5
220
330
75
100
AcDbEntity
  8
GRUNDRISS
  6
Continuous
100
AcDbLine
 10
41.38901072394229
 20
3.945896041897913
 30
0.0
 11
40.40901072394125
 21
3.945896041897913
 31
0.0
  0
LINE
  5
221
330
75
100
AcDbEntity
  8
GRUNDRISS
  6
Continuous
100
AcDbLine
 10
19.81901072394173
 20
3.945896041897913
 30
0.0
 11
18.81901072394422
 21
3.945896041897913
 31
0.0
  0
LINE
  5
222
330
75
100
AcDbEntity
  8
GRUNDRISS
  6
Continuous
100
AcDbLine
 10
61.49901072394399
 20
43.64589604189569
 30
0.0
 11
61.49901072394399
 21
43.39589604189558
 31
0.0
  0
LINE
  5
223
330
75
100
AcDbEntity
  8
GRUNDRISS
  6
Continuous
100
AcDbLine
 10
61.49901072394399
 20
39.17589604189716
 30
0.0
 11
61.49901072394399
 21
38.97589604189707
 31
0.0
  0
LINE
  5
224
330
75
100
AcDbEntity
  8
GRUNDRISS
  6
Continuous
100
AcDbLine
 10
61.4979637670271
 20
41.04189036545109
 30
0.0
 11
61.4979637670271
 21
40.78189036544979
 31
0.0
  0
LINE
  5
225
330
75
100
AcDbEntity
  8
GRUNDRISS
  6
Continuous
100
AcDbLine
 10
61.4979637670271
 20
41.30189036544944
 30
0.0
 11
61.4979637670271
 21
41.04189036545109
 31
0.0
  0
LINE
  5
226
330
75
100
AcDbEntity
  8
GRUNDRISS
  6
Continuous
100
AcDbLine
 10
61.4979637670271
 20
41.56189036545074
 30
0.0
 11
61.4979637670271
 21
41.30189036544944
 31
0.0
  0
LINE
  5
227
330
75
100
AcDbEntity
  8
GRUNDRISS
  6
Continuous
100
AcDbLine
 10
61.4979637670271
 20
41.82189036544909
 30
0.0
 11
61.4979637670271
 21
41.56189036545074
 31
0.0
  0
LINE
  5
228
330
75
100
AcDbEntity
  8
GRUNDRISS
  6
Continuous
100
AcDbLine
 10
61.4979637670271
 20
42.08189036545039
 30
0.0
 11
61.4979637670271
 21
41.82189036544909
 31
0.0
  0
LINE
  5
229
330
75
100
AcDbEntity
  8
GRUNDRISS
  6
Continuous
100
AcDbLine
 10
61.4979637670271
 20
42.34189036544875
 30
0.0
 11
61.4979637670271
 21
42.08189036545039
 31
0.0
  0
LINE
  5
22A
330
75
100
AcDbEntity
  8
GRUNDRISS
  6
Continuous
100
AcDbLine
 10
61.4979637670271
 20
42.60189036545004
 30
0.0
 11
61.4979637670271
 21
42.34189036544875
 31
0.0
  0
LINE
  5
22B
330
75
100
AcDbEntity
  8
GRUNDRISS
  6
Continuous
100
AcDbLine
 10
61.4979637670271
 20
42.86189036544839
 30
0.0
 11
61.4979637670271
 21
42.60189036545004
 31
0.0
  0
LINE
  5
22C
330
75
100
AcDbEntity
  8
GRUNDRISS
  6
Continuous
100
AcDbLine
 10
61.4979637670271
 20
43.1218903654497
 30
0.0
 11
61.4979637670271
 21
42.86189036544839
 31
0.0
  0
LINE
  5
22D
330
75
100
AcDbEntity
  8
GRUNDRISS
  6
Continuous
100
AcDbLine
 10
61.4979637670271
 20
43.38189036545101
 30
0.0
 11
61.4979637670271
 21
43.1218903654497
 31
0.0
  0
LINE
  5
22E
330
75
100
AcDbEntity
  8
GRUNDRISS
  6
Continuous
100
AcDbLine
 10
61.4979637670271
 20
43.64189036544934
 30
0.0
 11
61.4979637670271
 21
43.38189036545101
 31
0.0
  0
LINE
  5
22F
330
75
100
AcDbEntity
  8
GRUNDRISS
  6
Continuous
100
AcDbLine
 10
61.49901072394399
 20
34.09589604189716
 30
0.0
 11
61.49901072394399
 21
34.01589604189653
 31
0.0
  0
LINE
  5
230
330
75
100
AcDbEntity
  8
GRUNDRISS
  6
Continuous
100
AcDbLine
 10
61.49901072394399
 20
33.01589604189607
 30
0.0
 11
61.49901072394399
 21
32.93589604189544
 31
0.0
  0
LINE
  5
231
330
75
100
AcDbEntity
  8
GRUNDRISS
  6
Continuous
100
AcDbLine
 10
62.07901072394189
 20
19.775896041897
 30
0.0
 11
62.07901072394189
 21
20.93589604189577
 31
0.0
  0
LINE
  5
232
330
75
100
AcDbEntity
  8
GRUNDRISS
  6
Continuous
100
AcDbLine
 10
62.07901072394189
 20
20.93589604189577
 30
0.0
 11
61.49901072394399
 21
20.93589604189577
 31
0.0
  0
LINE
  5
233
330
75
100
AcDbEntity
  8
GRUNDRISS
  6
Continuous
100
AcDbLine
 10
61.49901072394399
 20
20.93589604189577
 30
0.0
 11
61.49901072394399
 21
20.85589604189809
 31
0.0
  0
LINE
  5
234
330
75
100
AcDbEntity
  8
GRUNDRISS
  6
Continuous
100
AcDbLine
 10
61.49901072394399
 20
20.85589604189809
 30
0.0
 11
61.99901072394126
 21
20.85589604189809
 31
0.0
  0
LINE
  5
235
330
75
100
AcDbEntity
  8
GRUNDRISS
  6
Continuous
100
AcDbLine
 10
61.99901072394126
 20
20.85589604189809
 30
0.0
 11
61.99901072394126
 21
19.85589604189762
 31
0.0
  0
LINE
  5
236
330
75
100
AcDbEntity
  8
GRUNDRISS
  6
Continuous
100
AcDbLine
 10
61.99901072394126
 20
19.85589604189762
 30
0.0
 11
61.49901072394399
 21
19.85589604189762
 31
0.0
  0
LINE
  5
237
330
75
100
AcDbEntity
  8
GRUNDRISS
  6
Continuous
100
AcDbLine
 10
61.49901072394399
 20
19.85589604189762
 30
0.0
 11
61.49901072394399
 21
19.775896041897
 31
0.0
  0
LINE
  5
238
330
75
100
AcDbEntity
  8
GRUNDRISS
  6
Continuous
100
AcDbLine
 10
61.49901072394399
 20
19.775896041897
 30
0.0
 11
62.07901072394189
 21
19.775896041897
 31
0.0
  0
LINE
  5
239
330
75
100
AcDbEntity
  8
GRUNDRISS
  6
Continuous
100
AcDbLine
 10
0.919010723941788
 20
14.22589604189737
 30
0.0
 11
0.919010723941788
 21
13.06589604189565
 31
0.0
  0
LINE
  5
23A
330
75
100
AcDbEntity
  8
GRUNDRISS
  6
Continuous
100
AcDbLine
 10
0.919010723941788
 20
13.06589604189565
 30
0.0
 11
1.499010723942649
 21
13.06589604189565
 31
0.0
  0
LINE
  5
23B
330
75
100
AcDbEntity
  8
GRUNDRISS
  6
Continuous
100
AcDbLine
 10
1.499010723942649
 20
13.06589604189565
 30
0.0
 11
1.499010723942649
 21
13.14589604189628
 31
0.0
  0
LINE
  5
23C
330
75
100
AcDbEntity
  8
GRUNDRISS
  6
Continuous
100
AcDbLine
 10
1.499010723942649
 20
13.14589604189628
 30
0.0
 11
0.9990107239424167
 21
13.14589604189628
 31
0.0
  0
LINE
  5
23D
330
75
100
AcDbEntity
  8
GRUNDRISS
  6
Continuous
100
AcDbLine
 10
0.9990107239424167
 20
13.14589604189628
 30
0.0
 11
0.9990107239424167
 21
14.14589604189675
 31
0.0
  0
LINE
  5
23E
330
75
100
AcDbEntity
  8
GRUNDRISS
  6
Continuous
100
AcDbLine
 10
0.9990107239424167
 20
14.14589604189675
 30
0.0
 11
1.499010723942649
 21
14.14589604189675
 31
0.0
  0
LINE
  5
23F
330
75
100
AcDbEntity
  8
GRUNDRISS
  6
Continuous
100
AcDbLine
 10
1.499010723942649
 20
14.14589604189675
 30
0.0
 11
1.499010723942649
 21
14.22589604189737
 31
0.0
  0
LINE
  5
240
330
75
100
AcDbEntity
  8
GRUNDRISS
  6
Continuous
100
AcDbLine
 10
1.499010723942649
 20
14.22589604189737
 30
0.0
 11
0.919010723941788
 21
14.22589604189737
 31
0.0
  0
LINE
  5
241
330
75
100
AcDbEntity
  8
GRUNDRISS
  6
Continuous
100
AcDbLine
 10
0.919010723941788
 20
34.22589604189781
 30
0.0
 11
0.919010723941788
 21
33.06589604189609
 31
0.0
  0
LINE
  5
242
330
75
100
AcDbEntity
  8
GRUNDRISS
  6
Continuous
100
AcDbLine
 10
0.919010723941788
 20
33.06589604189609
 30
0.0
 11
1.499010723942649
 21
33.06589604189609
 31
0.0
  0
LINE
  5
243
330
75
100
AcDbEntity
  8
GRUNDRISS
  6
Continuous
100
AcDbLine
 10
1.499010723942649
 20
33.06589604189609
 30
0.0
 11
1.499010723942649
 21
33.14589604189672
 31
0.0
  0
LINE
  5
244
330
75
100
AcDbEntity
  8
GRUNDRISS
  6
Continuous
100
AcDbLine
 10
1.499010723942649
 20
33.14589604189672
 30
0.0
 11
0.9990107239424167
 21
33.14589604189672
 31
0.0
  0
LINE
  5
245
330
75
100
AcDbEntity
  8
GRUNDRISS
  6
Continuous
100
AcDbLine
 10
0.9990107239424167
 20
33.14589604189672
 30
0.0
 11
0.9990107239424167
 21
34.14589604189718
 31
0.0
  0
LINE
  5
246
330
75
100
AcDbEntity
  8
GRUNDRISS
  6
Continuous
100
AcDbLine
 10
0.9990107239424167
 20
34.14589604189718
 30
0.0
 11
1.499010723942649
 21
34.14589604189718
 31
0.0
  0
LINE
  5
247
330
75
100
AcDbEntity
  8
GRUNDRISS
  6
Continuous
100
AcDbLine
 10
1.499010723942649
 20
34.14589604189718
 30
0.0
 11
1.499010723942649
 21
34.22589604189781
 31
0.0
  0
LINE
  5
248
330
75
100
AcDbEntity
  8
GRUNDRISS
  6
Continuous
100
AcDbLine
 10
1.499010723942649
 20
34.22589604189781
 30
0.0
 11
0.919010723941788
 21
34.22589604189781
 31
0.0
  0
LINE
  5
249
330
75
100
AcDbEntity
  8
GRUNDRISS
  6
Continuous
100
AcDbLine
 10
54.64410524953136
 20
3.945896041897907
 30
0.0
 11
54.64410524953136
 21
8.537744168945584
 31
0.0
  0
LINE
  5
24A
330
75
100
AcDbEntity
  8
GRUNDRISS
  6
Continuous
100
AcDbLine
 10
54.79410524953143
 20
3.945896041897907
 30
0.0
 11
54.79410524953143
 21
8.387744168945514
 31
0.0
  0
LINE
  5
24B
330
75
100
AcDbEntity
  8
GRUNDRISS
  6
Continuous
100
AcDbLine
 10
56.2054706763638
 20
8.387744168945507
 30
0.0
 11
56.2054706763638
 21
8.537744168945577
 31
0.0
  0
LINE
  5
24C
330
75
100
AcDbEntity
  8
GRUNDRISS
  6
Continuous
100
AcDbLine
 10
54.79410524953143
 20
8.387744168945514
 30
0.0
 11
55.97901072394201
 21
8.387744168945514
 31
0.0
  0
LINE
  5
24D
330
75
100
AcDbEntity
  8
GRUNDRISS
  6
Continuous
100
AcDbLine
 10
56.12901072394208
 20
8.387744168945514
 30
0.0
 11
56.2054706763638
 21
8.387744168945507
 31
0.0
  0
LINE
  5
24E
330
75
100
AcDbEntity
  8
GRUNDRISS
  6
Continuous
100
AcDbLine
 10
58.216622545189
 20
8.387744168945507
 30
0.0
 11
60.99518287672052
 21
8.387744168945507
 31
0.0
  0
LINE
  5
24F
330
75
100
AcDbEntity
  8
GRUNDRISS
  6
Continuous
100
AcDbLine
 10
60.8751828767181
 20
8.537744168945577
 30
0.0
 11
58.216622545189
 21
8.537744168945577
 31
0.0
  0
LINE
  5
250
330
75
100
AcDbEntity
  8
GRUNDRISS
  6
Continuous
100
AcDbLine
 10
56.2054706763638
 20
8.537744168945577
 30
0.0
 11
54.64410524953136
 21
8.537744168945584
 31
0.0
  0
LINE
  5
251
330
75
100
AcDbEntity
  8
GRUNDRISS
  6
Continuous
100
AcDbLine
 10
58.216622545189
 20
8.387744168945507
 30
0.0
 11
58.216622545189
 21
8.537744168945577
 31
0.0
  0
LINE
  5
252
330
75
100
AcDbEntity
  8
GRUNDRISS
  6
Continuous
100
AcDbLine
 10
60.8751828767181
 20
9.73567379160278
 30
0.0
 11
60.8751828767181
 21
8.537744168945577
 31
0.0
  0
LINE
  5
253
330
75
100
AcDbEntity
  8
GRUNDRISS
  6
Continuous
100
AcDbLine
 10
60.99518287672052
 20
8.387744168945507
 30
0.0
 11
60.99518287672052
 21
9.615673791603315
 31
0.0
  0
LINE
  5
254
330
75
100
AcDbEntity
  8
GRUNDRISS
  6
Continuous
100
AcDbLine
 10
61.19901072394385
 20
23.65038000043218
 30
0.0
 11
61.19901072394385
 21
9.73567379160278
 31
0.0
  0
LINE
  5
255
330
75
100
AcDbEntity
  8
GRUNDRISS
  6
Continuous
100
AcDbLine
 10
61.19901072394385
 20
9.615673791603315
 30
0.0
 11
61.19901072394385
 21
3.945896041897907
 31
0.0
  0
LINE
  5
256
330
75
100
AcDbEntity
  8
GRUNDRISS
  6
Continuous
100
AcDbLine
 10
60.99518287672052
 20
9.615673791603315
 30
0.0
 11
61.19901072394385
 21
9.615673791603315
 31
0.0
  0
LINE
  5
257
330
75
100
AcDbEntity
  8
GRUNDRISS
  6
Continuous
100
AcDbLine
 10
61.19901072394385
 20
9.73567379160278
 30
0.0
 11
60.8751828767181
 21
9.73567379160278
 31
0.0
  0
LINE
  5
258
330
75
100
AcDbEntity
  8
GRUNDRISS
  6
Continuous
100
AcDbLine
 10
55.97901072394201
 20
3.945896041897907
 30
0.0
 11
54.79410524953143
 21
3.945896041897907
 31
0.0
  0
LINE
  5
259
330
75
100
AcDbEntity
  8
GRUNDRISS
  6
Continuous
100
AcDbLine
 10
54.64410524953136
 20
3.945896041897907
 30
0.0
 11
54.54901072394371
 21
3.945896041897907
 31
0.0
  0
LINE
  5
25A
330
75
100
AcDbEntity
  8
GRUNDRISS
  6
Continuous
100
AcDbLine
 10
61.28467587306007
 20
7.428996946330614
 30
0.0
 11
61.28467587306007
 21
5.450621453098011
 31
0.0
  0
LINE
  5
25B
330
75
100
AcDbEntity
  8
GRUNDRISS
  6
Continuous
100
AcDbLine
 10
61.49901072394399
 20
23.65038000043218
 30
0.0
 11
61.49901072394399
 21
15.28589604189609
 31
0.0
  0
LINE
  5
25C
330
75
100
AcDbEntity
  8
GRUNDRISS
  6
Continuous
100
AcDbLine
 10
61.49901072394399
 20
37.43589604189754
 30
0.0
 11
61.49901072394399
 21
28.65398499226285
 31
0.0
  0
LINE
  5
25D
330
75
100
AcDbEntity
  8
GRUNDRISS
  6
Continuous
100
AcDbLine
 10
61.31901072394331
 20
28.65148499226329
 30
0.0
 11
61.31901072394331
 21
23.65288000043173
 31
0.0
  0
LINE
  5
25F
102
{ACAD_REACTORS
330
25E
102
}
330
75
100
AcDbEntity
  8
SW_HALLENWAND
100
AcDbLine
 10
61.19950303652171
 20
9.772424431127905
 30
0.0
 11
61.19880343081279
 21
43.34778693870458
 31
0.0
  0
LINE
  5
260
102
{ACAD_REACTORS
330
25E
102
}
330
75
100
AcDbEntity
  8
SW_HALLENWAND
100
AcDbLine
 10
61.19880343081279
 20
43.34778693870458
 30
0.0
 11
1.800043886026487
 21
43.34562968666168
 31
0.0
  0
LINE
  5
261
102
{ACAD_REACTORS
330
25E
102
}
330
75
100
AcDbEntity
  8
SW_HALLENWAND
100
AcDbLine
 10
1.800043886026487
 20
43.34562968666168
 30
0.0
 11
1.799739082570109
 21
3.946062260840456
 31
0.0
  0
LINE
  5
262
102
{ACAD_REACTORS
330
25E
102
}
330
75
100
AcDbEntity
  8
SW_HALLENWAND
100
AcDbLine
 10
1.799739082570109
 20
3.946062260840456
 30
0.0
 11
54.64410524953136
 21
3.945916694650277
 31
0.0
  0
LINE
  5
263
102
{ACAD_REACTORS
330
25E
102
}
330
75
100
AcDbEntity
  8
SW_HALLENWAND
100
AcDbLine
 10
60.86042857773264
 20
9.772424724871235
 30
0.0
 11
61.19950303652171
 21
9.772424431127905
 31
0.0
  0
LINE
  5
264
102
{ACAD_REACTORS
330
25E
102
}
330
75
100
AcDbEntity
  8
SW_HALLENWAND
100
AcDbLine
 10
60.86042857773264
 20
9.772424724871235
 30
0.0
 11
60.86042857773264
 21
8.537741878596241
 31
0.0
  0
LINE
  5
265
102
{ACAD_REACTORS
330
25E
102
}
330
75
100
AcDbEntity
  8
SW_HALLENWAND
100
AcDbLine
 10
54.64410524953136
 20
8.537747263842351
 30
0.0
 11
60.86042857773264
 21
8.537741878596241
 31
0.0
  0
LINE
  5
266
102
{ACAD_REACTORS
330
25E
102
}
330
75
100
AcDbEntity
  8
SW_HALLENWAND
100
AcDbLine
 10
54.64410524953136
 20
8.537747263842351
 30
0.0
 11
54.64410524953136
 21
3.945916694650277
 31
0.0
  0
LINE
  5
267
330
75
100
AcDbEntity
  8
GRUNDRISS
  6
Continuous
100
AcDbLine
 10
56.2054706763638
 20
8.387744168945507
 30
0.0
 11
58.216622545189
 21
8.387744168945507
 31
0.0
  0
LINE
  5
268
330
75
100
AcDbEntity
  8
GRUNDRISS
  6
Continuous
100
AcDbLine
 10
56.2054706763638
 20
8.467197991259411
 30
0.0
 11
58.216622545189
 21
8.467197991259411
 31
0.0
  0
LINE
  5
26A
102
{ACAD_REACTORS
330
269
102
}
330
75
100
AcDbEntity
  8
GRUNDRISS
  6
Continuous
100
AcDbLine
 10
56.5849251220262
 20
8.548358444292182
 30
0.0
 11
57.90326667249328
 21
8.548358444292182
 31
0.0
  0
LINE
  5
26B
102
{ACAD_REACTORS
330
269
102
}
330
75
100
AcDbEntity
  8
GRUNDRISS
  6
Continuous
100
AcDbLine
 10
57.90326667249328
 20
8.548358444292182
 30
0.0
 11
57.80706337016106
 21
8.491143252295872
 31
0.0
  0
LINE
  5
26C
102
{ACAD_REACTORS
330
269
102
}
330
75
100
AcDbEntity
  8
GRUNDRISS
  6
Continuous
100
AcDbLine
 10
57.90326667249328
 20
8.548358444292182
 30
0.0
 11
57.80706337016106
 21
8.605573636288209
 31
0.0
  0
LINE
  5
26D
102
{ACAD_REACTORS
330
269
102
}
330
75
100
AcDbEntity
  8
GRUNDRISS
  6
Continuous
100
AcDbLine
 10
57.80706337016106
 20
8.605573636288209
 30
0.0
 11
57.80706337016106
 21
8.491143252295872
 31
0.0
  0
LINE
  5
26F
102
{ACAD_REACTORS
330
26E
102
}
330
75
100
AcDbEntity
  8
GRUNDRISS
  6
Continuous
100
AcDbLine
 10
61.36353325194587
 20
5.811023749828715
 30
0.0
 11
61.36353325194587
 21
7.12936530029579
 31
0.0
  0
LINE
  5
270
102
{ACAD_REACTORS
330
26E
102
}
330
75
100
AcDbEntity
  8
GRUNDRISS
  6
Continuous
100
AcDbLine
 10
61.36353325194587
 20
7.12936530029579
 30
0.0
 11
61.42074844394218
 21
7.033161997963568
 31
0.0
  0
LINE
  5
271
102
{ACAD_REACTORS
330
26E
102
}
330
75
100
AcDbEntity
  8
GRUNDRISS
  6
Continuous
100
AcDbLine
 10
61.36353325194587
 20
7.12936530029579
 30
0.0
 11
61.30631805994984
 21
7.033161997963568
 31
0.0
  0
LINE
  5
272
102
{ACAD_REACTORS
330
26E
102
}
330
75
100
AcDbEntity
  8
GRUNDRISS
  6
Continuous
100
AcDbLine
 10
61.30631805994984
 20
7.033161997963568
 30
0.0
 11
61.42074844394218
 21
7.033161997963568
 31
0.0
  0
LINE
  5
274
102
{ACAD_REACTORS
330
273
102
}
330
75
100
AcDbEntity
  8
HALLE_0_1_EG
  6
Continuous
100
AcDbLine
 10
62.4693650199833
 20
29.90570908436969
 30
0.0
 11
62.4693650199833
 21
30.23570908436969
 31
0.0
  0
LINE
  5
275
102
{ACAD_REACTORS
330
273
102
}
330
75
100
AcDbEntity
  8
HALLE_0_1_EG
  6
Continuous
100
AcDbLine
 10
61.4993650199833
 20
30.23570908436969
 30
0.0
 11
62.4693650199833
 21
30.23570908436969
 31
0.0
  0
LINE
  5
276
102
{ACAD_REACTORS
330
273
102
}
330
75
100
AcDbEntity
  8
HALLE_0_1_EG
  6
Continuous
100
AcDbLine
 10
61.4993650199833
 20
29.90570908436969
 30
0.0
 11
62.4693650199833
 21
29.90570908436969
 31
0.0
  0
LINE
  5
277
102
{ACAD_REACTORS
330
273
102
}
330
75
100
AcDbEntity
  8
HALLE_0_1_EG
  6
Continuous
100
AcDbLine
 10
63.3093650199833
 20
30.23570908436969
 30
0.0
 11
65.99936501998332
 21
30.23570908436969
 31
0.0
  0
LINE
  5
278
102
{ACAD_REACTORS
330
273
102
}
330
75
100
AcDbEntity
  8
HALLE_0_1_EG
  6
Continuous
100
AcDbLine
 10
63.3093650199833
 20
29.90570908436969
 30
0.0
 11
66.32936501998333
 21
29.90570908436969
 31
0.0
  0
LINE
  5
279
102
{ACAD_REACTORS
330
273
102
}
330
75
100
AcDbEntity
  8
HALLE_0_1_EG
  6
Continuous
100
AcDbLine
 10
63.3093650199833
 20
29.90570908436969
 30
0.0
 11
63.3093650199833
 21
30.23570908436969
 31
0.0
  0
LINE
  5
27A
102
{ACAD_REACTORS
330
273
102
}
330
75
100
AcDbEntity
  8
HALLE_0_1_EG
  6
Continuous
100
AcDbLine
 10
65.99936501998332
 20
30.23570908436969
 30
0.0
 11
65.99936501998332
 21
37.57570908436969
 31
0.0
  0
LINE
  5
27B
102
{ACAD_REACTORS
330
273
102
}
330
75
100
AcDbEntity
  8
HALLE_0_1_EG
  6
Continuous
100
AcDbLine
 10
66.32936501998333
 20
29.90570908436969
 30
0.0
 11
66.32936501998333
 21
37.90570908436968
 31
0.0
  0
LINE
  5
27C
102
{ACAD_REACTORS
330
273
102
}
330
75
100
AcDbEntity
  8
HALLE_0_1_EG
  6
Continuous
100
AcDbLine
 10
64.0393650199833
 20
37.90570908436968
 30
0.0
 11
64.0393650199833
 21
37.57570908436969
 31
0.0
  0
LINE
  5
27D
102
{ACAD_REACTORS
330
273
102
}
330
75
100
AcDbEntity
  8
HALLE_0_1_EG
  6
Continuous
100
AcDbLine
 10
65.99936501998332
 20
37.57570908436969
 30
0.0
 11
64.0393650199833
 21
37.57570908436969
 31
0.0
  0
LINE
  5
27E
102
{ACAD_REACTORS
330
273
102
}
330
75
100
AcDbEntity
  8
HALLE_0_1_EG
  6
Continuous
100
AcDbLine
 10
66.32936501998333
 20
37.90570908436968
 30
0.0
 11
64.0393650199833
 21
37.90570908436968
 31
0.0
  0
LINE
  5
27F
102
{ACAD_REACTORS
330
273
102
}
330
75
100
AcDbEntity
  8
HALLE_0_1_EG
  6
Continuous
100
AcDbLine
 10
64.0393650199833
 20
37.57570908436969
 30
0.0
 11
62.7693650199833
 21
37.57570908436969
 31
0.0
  0
LINE
  5
280
102
{ACAD_REACTORS
330
273
102
}
330
75
100
AcDbEntity
  8
HALLE_0_1_EG
  6
Continuous
100
AcDbLine
 10
64.0393650199833
 20
37.90570908436968
 30
0.0
 11
62.7693650199833
 21
37.90570908436968
 31
0.0
  0
LINE
  5
281
102
{ACAD_REACTORS
330
273
102
}
330
75
100
AcDbEntity
  8
HALLE_0_1_EG
  6
Continuous
100
AcDbLine
 10
62.7693650199833
 20
37.57570908436969
 30
0.0
 11
61.4993650199833
 21
37.57570908436969
 31
0.0
  0
LINE
  5
282
102
{ACAD_REACTORS
330
273
102
}
330
75
100
AcDbEntity
  8
HALLE_0_1_EG
  6
Continuous
100
AcDbLine
 10
62.7693650199833
 20
37.90570908436968
 30
0.0
 11
61.4993650199833
 21
37.90570908436968
 31
0.0
  0
LINE
  5
283
102
{ACAD_REACTORS
330
273
102
}
330
75
100
AcDbEntity
  8
HALLE_0_1_EG
  6
Continuous
100
AcDbLine
 10
62.7693650199833
 20
37.90570908436968
 30
0.0
 11
62.7693650199833
 21
37.57570908436969
 31
0.0
  0
ARC
  5
284
102
{ACAD_REACTORS
330
273
102
}
330
75
100
AcDbEntity
  8
HALLE_0_1_EG
  6
Continuous
100
AcDbCircle
 10
62.4693650199833
 20
29.90570908436969
 30
0.0
 40
0.84
100
AcDbArc
 50
270.0
 51
0.0
  0
LINE
  5
285
102
{ACAD_REACTORS
330
273
102
}
330
75
100
AcDbEntity
  8
HALLE_0_1_EG
  6
Continuous
100
AcDbLine
 10
62.4693650199833
 20
29.90570908436969
 30
0.0
 11
62.4693650199833
 21
29.0657090843697
 31
0.0
  0
ARC
  5
286
102
{ACAD_REACTORS
330
273
102
}
330
75
100
AcDbEntity
  8
HALLE_0_1_EG
  6
Continuous
100
AcDbCircle
 10
62.7693650199833
 20
37.90570908436968
 30
0.0
 40
1.27
100
AcDbArc
 50
0.0
 51
90.0
  0
LINE
  5
287
102
{ACAD_REACTORS
330
273
102
}
330
75
100
AcDbEntity
  8
HALLE_0_1_EG
  6
Continuous
100
AcDbLine
 10
62.7693650199833
 20
37.90570908436968
 30
0.0
 11
62.7693650199833
 21
39.17570908436969
 31
0.0
  0
LINE
  5
288
102
{ACAD_REACTORS
330
273
102
}
330
75
100
AcDbEntity
  8
HALLE_0_1_EG
  6
Continuous
100
AcDbLine
 10
62.09936501998331
 20
42.19570908436969
 30
0.0
 11
62.09936501998331
 21
39.07570908436968
 31
0.0
  0
LINE
  5
289
102
{ACAD_REACTORS
330
273
102
}
330
75
100
AcDbEntity
  8
HALLE_0_1_EG
  6
Continuous
100
AcDbLine
 10
62.09936501998331
 20
39.07570908436968
 30
0.0
 11
62.69936501998331
 21
39.33570908436969
 31
0.0
  0
LINE
  5
28A
102
{ACAD_REACTORS
330
273
102
}
330
75
100
AcDbEntity
  8
HALLE_0_1_EG
  6
Continuous
100
AcDbLine
 10
62.09936501998331
 20
39.07570908436968
 30
0.0
 11
61.4993650199833
 21
39.33570908436969
 31
0.0
  0
LINE
  5
28B
102
{ACAD_REACTORS
330
273
102
}
330
75
100
AcDbEntity
  8
HALLE_0_1_EG
  6
Continuous
100
AcDbLine
 10
63.41936501998331
 20
40.37570908436968
 30
0.0
 11
63.41936501998331
 21
42.19570908436969
 31
0.0
  0
LINE
  5
28C
102
{ACAD_REACTORS
330
273
102
}
330
75
100
AcDbEntity
  8
HALLE_0_1_EG
  6
Continuous
100
AcDbLine
 10
63.41936501998331
 20
42.19570908436969
 30
0.0
 11
62.8193650199833
 21
41.93570908436969
 31
0.0
  0
LINE
  5
28D
102
{ACAD_REACTORS
330
273
102
}
330
75
100
AcDbEntity
  8
HALLE_0_1_EG
  6
Continuous
100
AcDbLine
 10
63.41936501998331
 20
42.19570908436969
 30
0.0
 11
64.01936501998331
 21
41.93570908436969
 31
0.0
  0
LINE
  5
28E
102
{ACAD_REACTORS
330
273
102
}
330
75
100
AcDbEntity
  8
HALLE_0_1_EG
  6
Continuous
100
AcDbLine
 10
62.4693650199833
 20
30.23570908436969
 30
0.0
 11
63.3093650199833
 21
30.23570908436969
 31
0.0
  0
LINE
  5
28F
102
{ACAD_REACTORS
330
273
102
}
330
75
100
AcDbEntity
  8
HALLE_0_1_EG
  6
Continuous
100
AcDbLine
 10
63.3093650199833
 20
30.23570908436969
 30
0.0
 11
63.3093650199833
 21
29.90570908436969
 31
0.0
  0
LINE
  5
290
102
{ACAD_REACTORS
330
273
102
}
330
75
100
AcDbEntity
  8
HALLE_0_1_EG
  6
Continuous
100
AcDbLine
 10
63.3093650199833
 20
29.90570908436969
 30
0.0
 11
62.4693650199833
 21
29.90570908436969
 31
0.0
  0
LINE
  5
291
102
{ACAD_REACTORS
330
273
102
}
330
75
100
AcDbEntity
  8
HALLE_0_1_EG
  6
Continuous
100
AcDbLine
 10
62.4693650199833
 20
29.90570908436969
 30
0.0
 11
62.4693650199833
 21
30.23570908436969
 31
0.0
  0
LINE
  5
292
102
{ACAD_REACTORS
330
273
102
}
330
75
100
AcDbEntity
  8
HALLE_0_1_EG
  6
Continuous
100
AcDbLine
 10
61.4993650199833
 20
43.39570908436969
 30
0.0
 11
64.01936501998331
 21
43.39570908436969
 31
0.0
  0
LINE
  5
293
102
{ACAD_REACTORS
330
273
102
}
330
75
100
AcDbEntity
  8
HALLE_0_1_EG
  6
Continuous
100
AcDbLine
 10
64.01936501998331
 20
43.39570908436969
 30
0.0
 11
64.01936501998331
 21
39.17570908436969
 31
0.0
  0
LINE
  5
294
102
{ACAD_REACTORS
330
273
102
}
330
75
100
AcDbEntity
  8
HALLE_0_1_EG
  6
Continuous
100
AcDbLine
 10
64.01936501998331
 20
39.17570908436969
 30
0.0
 11
61.4993650199833
 21
39.17570908436969
 31
0.0
  0
LINE
  5
295
102
{ACAD_REACTORS
330
273
102
}
330
75
100
AcDbEntity
  8
HALLE_0_1_EG
  6
Continuous
100
AcDbLine
 10
61.4993650199833
 20
38.97570908436968
 30
0.0
 11
64.21936501998331
 21
38.97570908436968
 31
0.0
  0
LINE
  5
296
102
{ACAD_REACTORS
330
273
102
}
330
75
100
AcDbEntity
  8
HALLE_0_1_EG
  6
Continuous
100
AcDbLine
 10
64.21936501998331
 20
38.97570908436968
 30
0.0
 11
64.21936501998331
 21
43.64570908436969
 31
0.0
  0
LINE
  5
297
102
{ACAD_REACTORS
330
273
102
}
330
75
100
AcDbEntity
  8
HALLE_0_1_EG
  6
Continuous
100
AcDbLine
 10
64.21936501998331
 20
43.64570908436969
 30
0.0
 11
61.4993650199833
 21
43.64570908436969
 31
0.0
  0
LINE
  5
298
102
{ACAD_REACTORS
330
273
102
}
330
75
100
AcDbEntity
  8
HALLE_0_1_EG
  6
Continuous
100
AcDbLine
 10
62.8193650199833
 20
42.19570908436969
 30
0.0
 11
64.01936501998331
 21
42.19570908436969
 31
0.0
  0
LINE
  5
299
102
{ACAD_REACTORS
330
273
102
}
330
75
100
AcDbEntity
  8
HALLE_0_1_EG
  6
Continuous
100
AcDbLine
 10
64.01936501998331
 20
42.19570908436969
 30
0.0
 11
64.01936501998331
 21
41.93570908436969
 31
0.0
  0
LINE
  5
29A
102
{ACAD_REACTORS
330
273
102
}
330
75
100
AcDbEntity
  8
HALLE_0_1_EG
  6
Continuous
100
AcDbLine
 10
64.01936501998331
 20
41.93570908436969
 30
0.0
 11
62.8193650199833
 21
41.93570908436969
 31
0.0
  0
LINE
  5
29B
102
{ACAD_REACTORS
330
273
102
}
330
75
100
AcDbEntity
  8
HALLE_0_1_EG
  6
Continuous
100
AcDbLine
 10
62.8193650199833
 20
41.93570908436969
 30
0.0
 11
62.8193650199833
 21
42.19570908436969
 31
0.0
  0
LINE
  5
29C
102
{ACAD_REACTORS
330
273
102
}
330
75
100
AcDbEntity
  8
HALLE_0_1_EG
  6
Continuous
100
AcDbLine
 10
62.8193650199833
 20
41.93570908436969
 30
0.0
 11
64.01936501998331
 21
41.93570908436969
 31
0.0
  0
LINE
  5
29D
102
{ACAD_REACTORS
330
273
102
}
330
75
100
AcDbEntity
  8
HALLE_0_1_EG
  6
Continuous
100
AcDbLine
 10
64.01936501998331
 20
41.93570908436969
 30
0.0
 11
64.01936501998331
 21
41.67570908436969
 31
0.0
  0
LINE
  5
29E
102
{ACAD_REACTORS
330
273
102
}
330
75
100
AcDbEntity
  8
HALLE_0_1_EG
  6
Continuous
100
AcDbLine
 10
64.01936501998331
 20
41.67570908436969
 30
0.0
 11
62.8193650199833
 21
41.67570908436969
 31
0.0
  0
LINE
  5
29F
102
{ACAD_REACTORS
330
273
102
}
330
75
100
AcDbEntity
  8
HALLE_0_1_EG
  6
Continuous
100
AcDbLine
 10
62.8193650199833
 20
41.67570908436969
 30
0.0
 11
62.8193650199833
 21
41.93570908436969
 31
0.0
  0
LINE
  5
2A0
102
{ACAD_REACTORS
330
273
102
}
330
75
100
AcDbEntity
  8
HALLE_0_1_EG
  6
Continuous
100
AcDbLine
 10
62.8193650199833
 20
41.67570908436969
 30
0.0
 11
64.01936501998331
 21
41.67570908436969
 31
0.0
  0
LINE
  5
2A1
102
{ACAD_REACTORS
330
273
102
}
330
75
100
AcDbEntity
  8
HALLE_0_1_EG
  6
Continuous
100
AcDbLine
 10
64.01936501998331
 20
41.67570908436969
 30
0.0
 11
64.01936501998331
 21
41.41570908436968
 31
0.0
  0
LINE
  5
2A2
102
{ACAD_REACTORS
330
273
102
}
330
75
100
AcDbEntity
  8
HALLE_0_1_EG
  6
Continuous
100
AcDbLine
 10
64.01936501998331
 20
41.41570908436968
 30
0.0
 11
62.8193650199833
 21
41.41570908436968
 31
0.0
  0
LINE
  5
2A3
102
{ACAD_REACTORS
330
273
102
}
330
75
100
AcDbEntity
  8
HALLE_0_1_EG
  6
Continuous
100
AcDbLine
 10
62.8193650199833
 20
41.41570908436968
 30
0.0
 11
62.8193650199833
 21
41.67570908436969
 31
0.0
  0
LINE
  5
2A4
102
{ACAD_REACTORS
330
273
102
}
330
75
100
AcDbEntity
  8
HALLE_0_1_EG
  6
Continuous
100
AcDbLine
 10
62.8193650199833
 20
41.41570908436968
 30
0.0
 11
64.01936501998331
 21
41.41570908436968
 31
0.0
  0
LINE
  5
2A5
102
{ACAD_REACTORS
330
273
102
}
330
75
100
AcDbEntity
  8
HALLE_0_1_EG
  6
Continuous
100
AcDbLine
 10
64.01936501998331
 20
41.41570908436968
 30
0.0
 11
64.01936501998331
 21
41.1557090843697
 31
0.0
  0
LINE
  5
2A6
102
{ACAD_REACTORS
330
273
102
}
330
75
100
AcDbEntity
  8
HALLE_0_1_EG
  6
Continuous
100
AcDbLine
 10
64.01936501998331
 20
41.1557090843697
 30
0.0
 11
62.8193650199833
 21
41.1557090843697
 31
0.0
  0
LINE
  5
2A7
102
{ACAD_REACTORS
330
273
102
}
330
75
100
AcDbEntity
  8
HALLE_0_1_EG
  6
Continuous
100
AcDbLine
 10
62.8193650199833
 20
41.1557090843697
 30
0.0
 11
62.8193650199833
 21
41.41570908436968
 31
0.0
  0
LINE
  5
2A8
102
{ACAD_REACTORS
330
273
102
}
330
75
100
AcDbEntity
  8
HALLE_0_1_EG
  6
Continuous
100
AcDbLine
 10
62.8193650199833
 20
41.1557090843697
 30
0.0
 11
64.01936501998331
 21
41.1557090843697
 31
0.0
  0
LINE
  5
2A9
102
{ACAD_REACTORS
330
273
102
}
330
75
100
AcDbEntity
  8
HALLE_0_1_EG
  6
Continuous
100
AcDbLine
 10
64.01936501998331
 20
41.1557090843697
 30
0.0
 11
64.01936501998331
 21
40.89570908436968
 31
0.0
  0
LINE
  5
2AA
102
{ACAD_REACTORS
330
273
102
}
330
75
100
AcDbEntity
  8
HALLE_0_1_EG
  6
Continuous
100
AcDbLine
 10
64.01936501998331
 20
40.89570908436968
 30
0.0
 11
62.8193650199833
 21
40.89570908436968
 31
0.0
  0
LINE
  5
2AB
102
{ACAD_REACTORS
330
273
102
}
330
75
100
AcDbEntity
  8
HALLE_0_1_EG
  6
Continuous
100
AcDbLine
 10
62.8193650199833
 20
40.89570908436968
 30
0.0
 11
62.8193650199833
 21
41.1557090843697
 31
0.0
  0
LINE
  5
2AC
102
{ACAD_REACTORS
330
273
102
}
330
75
100
AcDbEntity
  8
HALLE_0_1_EG
  6
Continuous
100
AcDbLine
 10
62.8193650199833
 20
40.89570908436968
 30
0.0
 11
64.01936501998331
 21
40.89570908436968
 31
0.0
  0
LINE
  5
2AD
102
{ACAD_REACTORS
330
273
102
}
330
75
100
AcDbEntity
  8
HALLE_0_1_EG
  6
Continuous
100
AcDbLine
 10
64.01936501998331
 20
40.89570908436968
 30
0.0
 11
64.01936501998331
 21
40.63570908436968
 31
0.0
  0
LINE
  5
2AE
102
{ACAD_REACTORS
330
273
102
}
330
75
100
AcDbEntity
  8
HALLE_0_1_EG
  6
Continuous
100
AcDbLine
 10
64.01936501998331
 20
40.63570908436968
 30
0.0
 11
62.8193650199833
 21
40.63570908436968
 31
0.0
  0
LINE
  5
2AF
102
{ACAD_REACTORS
330
273
102
}
330
75
100
AcDbEntity
  8
HALLE_0_1_EG
  6
Continuous
100
AcDbLine
 10
62.8193650199833
 20
40.63570908436968
 30
0.0
 11
62.8193650199833
 21
40.89570908436968
 31
0.0
  0
LINE
  5
2B0
102
{ACAD_REACTORS
330
273
102
}
330
75
100
AcDbEntity
  8
HALLE_0_1_EG
  6
Continuous
100
AcDbLine
 10
62.8193650199833
 20
40.63570908436968
 30
0.0
 11
64.01936501998331
 21
40.63570908436968
 31
0.0
  0
LINE
  5
2B1
102
{ACAD_REACTORS
330
273
102
}
330
75
100
AcDbEntity
  8
HALLE_0_1_EG
  6
Continuous
100
AcDbLine
 10
64.01936501998331
 20
40.63570908436968
 30
0.0
 11
64.01936501998331
 21
40.37570908436968
 31
0.0
  0
LINE
  5
2B2
102
{ACAD_REACTORS
330
273
102
}
330
75
100
AcDbEntity
  8
HALLE_0_1_EG
  6
Continuous
100
AcDbLine
 10
64.01936501998331
 20
40.37570908436968
 30
0.0
 11
62.8193650199833
 21
40.37570908436968
 31
0.0
  0
LINE
  5
2B3
102
{ACAD_REACTORS
330
273
102
}
330
75
100
AcDbEntity
  8
HALLE_0_1_EG
  6
Continuous
100
AcDbLine
 10
62.8193650199833
 20
40.37570908436968
 30
0.0
 11
62.8193650199833
 21
40.63570908436968
 31
0.0
  0
LINE
  5
2B4
102
{ACAD_REACTORS
330
273
102
}
330
75
100
AcDbEntity
  8
HALLE_0_1_EG
  6
Continuous
100
AcDbLine
 10
61.4993650199833
 20
42.19570908436969
 30
0.0
 11
62.69936501998331
 21
42.19570908436969
 31
0.0
  0
LINE
  5
2B5
102
{ACAD_REACTORS
330
273
102
}
330
75
100
AcDbEntity
  8
HALLE_0_1_EG
  6
Continuous
100
AcDbLine
 10
62.69936501998331
 20
42.19570908436969
 30
0.0
 11
62.69936501998331
 21
41.93570908436969
 31
0.0
  0
LINE
  5
2B6
102
{ACAD_REACTORS
330
273
102
}
330
75
100
AcDbEntity
  8
HALLE_0_1_EG
  6
Continuous
100
AcDbLine
 10
62.69936501998331
 20
41.93570908436969
 30
0.0
 11
61.4993650199833
 21
41.93570908436969
 31
0.0
  0
LINE
  5
2B7
102
{ACAD_REACTORS
330
273
102
}
330
75
100
AcDbEntity
  8
HALLE_0_1_EG
  6
Continuous
100
AcDbLine
 10
61.4993650199833
 20
41.93570908436969
 30
0.0
 11
62.69936501998331
 21
41.93570908436969
 31
0.0
  0
LINE
  5
2B8
102
{ACAD_REACTORS
330
273
102
}
330
75
100
AcDbEntity
  8
HALLE_0_1_EG
  6
Continuous
100
AcDbLine
 10
62.69936501998331
 20
41.93570908436969
 30
0.0
 11
62.69936501998331
 21
41.67570908436969
 31
0.0
  0
LINE
  5
2B9
102
{ACAD_REACTORS
330
273
102
}
330
75
100
AcDbEntity
  8
HALLE_0_1_EG
  6
Continuous
100
AcDbLine
 10
62.69936501998331
 20
41.67570908436969
 30
0.0
 11
61.4993650199833
 21
41.67570908436969
 31
0.0
  0
LINE
  5
2BA
102
{ACAD_REACTORS
330
273
102
}
330
75
100
AcDbEntity
  8
HALLE_0_1_EG
  6
Continuous
100
AcDbLine
 10
61.4993650199833
 20
41.67570908436969
 30
0.0
 11
62.69936501998331
 21
41.67570908436969
 31
0.0
  0
LINE
  5
2BB
102
{ACAD_REACTORS
330
273
102
}
330
75
100
AcDbEntity
  8
HALLE_0_1_EG
  6
Continuous
100
AcDbLine
 10
62.69936501998331
 20
41.67570908436969
 30
0.0
 11
62.69936501998331
 21
41.41570908436968
 31
0.0
  0
LINE
  5
2BC
102
{ACAD_REACTORS
330
273
102
}
330
75
100
AcDbEntity
  8
HALLE_0_1_EG
  6
Continuous
100
AcDbLine
 10
62.69936501998331
 20
41.41570908436968
 30
0.0
 11
61.4993650199833
 21
41.41570908436968
 31
0.0
  0
LINE
  5
2BD
102
{ACAD_REACTORS
330
273
102
}
330
75
100
AcDbEntity
  8
HALLE_0_1_EG
  6
Continuous
100
AcDbLine
 10
61.4993650199833
 20
41.41570908436968
 30
0.0
 11
62.69936501998331
 21
41.41570908436968
 31
0.0
  0
LINE
  5
2BE
102
{ACAD_REACTORS
330
273
102
}
330
75
100
AcDbEntity
  8
HALLE_0_1_EG
  6
Continuous
100
AcDbLine
 10
62.69936501998331
 20
41.41570908436968
 30
0.0
 11
62.69936501998331
 21
41.1557090843697
 31
0.0
  0
LINE
  5
2BF
102
{ACAD_REACTORS
330
273
102
}
330
75
100
AcDbEntity
  8
HALLE_0_1_EG
  6
Continuous
100
AcDbLine
 10
62.69936501998331
 20
41.1557090843697
 30
0.0
 11
61.4993650199833
 21
41.1557090843697
 31
0.0
  0
LINE
  5
2C0
102
{ACAD_REACTORS
330
273
102
}
330
75
100
AcDbEntity
  8
HALLE_0_1_EG
  6
Continuous
100
AcDbLine
 10
61.4993650199833
 20
41.1557090843697
 30
0.0
 11
62.69936501998331
 21
41.1557090843697
 31
0.0
  0
LINE
  5
2C1
102
{ACAD_REACTORS
330
273
102
}
330
75
100
AcDbEntity
  8
HALLE_0_1_EG
  6
Continuous
100
AcDbLine
 10
62.69936501998331
 20
41.1557090843697
 30
0.0
 11
62.69936501998331
 21
40.89570908436968
 31
0.0
  0
LINE
  5
2C2
102
{ACAD_REACTORS
330
273
102
}
330
75
100
AcDbEntity
  8
HALLE_0_1_EG
  6
Continuous
100
AcDbLine
 10
62.69936501998331
 20
40.89570908436968
 30
0.0
 11
61.4993650199833
 21
40.89570908436968
 31
0.0
  0
LINE
  5
2C3
102
{ACAD_REACTORS
330
273
102
}
330
75
100
AcDbEntity
  8
HALLE_0_1_EG
  6
Continuous
100
AcDbLine
 10
61.4993650199833
 20
40.89570908436968
 30
0.0
 11
62.69936501998331
 21
40.89570908436968
 31
0.0
  0
LINE
  5
2C4
102
{ACAD_REACTORS
330
273
102
}
330
75
100
AcDbEntity
  8
HALLE_0_1_EG
  6
Continuous
100
AcDbLine
 10
62.69936501998331
 20
40.89570908436968
 30
0.0
 11
62.69936501998331
 21
40.63570908436968
 31
0.0
  0
LINE
  5
2C5
102
{ACAD_REACTORS
330
273
102
}
330
75
100
AcDbEntity
  8
HALLE_0_1_EG
  6
Continuous
100
AcDbLine
 10
62.69936501998331
 20
40.63570908436968
 30
0.0
 11
61.4993650199833
 21
40.63570908436968
 31
0.0
  0
LINE
  5
2C6
102
{ACAD_REACTORS
330
273
102
}
330
75
100
AcDbEntity
  8
HALLE_0_1_EG
  6
Continuous
100
AcDbLine
 10
61.4993650199833
 20
40.63570908436968
 30
0.0
 11
62.69936501998331
 21
40.63570908436968
 31
0.0
  0
LINE
  5
2C7
102
{ACAD_REACTORS
330
273
102
}
330
75
100
AcDbEntity
  8
HALLE_0_1_EG
  6
Continuous
100
AcDbLine
 10
62.69936501998331
 20
40.63570908436968
 30
0.0
 11
62.69936501998331
 21
40.37570908436968
 31
0.0
  0
LINE
  5
2C8
102
{ACAD_REACTORS
330
273
102
}
330
75
100
AcDbEntity
  8
HALLE_0_1_EG
  6
Continuous
100
AcDbLine
 10
62.69936501998331
 20
40.37570908436968
 30
0.0
 11
61.4993650199833
 21
40.37570908436968
 31
0.0
  0
LINE
  5
2C9
102
{ACAD_REACTORS
330
273
102
}
330
75
100
AcDbEntity
  8
HALLE_0_1_EG
  6
Continuous
100
AcDbLine
 10
61.4993650199833
 20
40.37570908436968
 30
0.0
 11
62.69936501998331
 21
40.37570908436968
 31
0.0
  0
LINE
  5
2CA
102
{ACAD_REACTORS
330
273
102
}
330
75
100
AcDbEntity
  8
HALLE_0_1_EG
  6
Continuous
100
AcDbLine
 10
62.69936501998331
 20
40.37570908436968
 30
0.0
 11
62.69936501998331
 21
40.11570908436969
 31
0.0
  0
LINE
  5
2CB
102
{ACAD_REACTORS
330
273
102
}
330
75
100
AcDbEntity
  8
HALLE_0_1_EG
  6
Continuous
100
AcDbLine
 10
62.69936501998331
 20
40.11570908436969
 30
0.0
 11
61.4993650199833
 21
40.11570908436969
 31
0.0
  0
LINE
  5
2CC
102
{ACAD_REACTORS
330
273
102
}
330
75
100
AcDbEntity
  8
HALLE_0_1_EG
  6
Continuous
100
AcDbLine
 10
61.4993650199833
 20
40.11570908436969
 30
0.0
 11
62.69936501998331
 21
40.11570908436969
 31
0.0
  0
LINE
  5
2CD
102
{ACAD_REACTORS
330
273
102
}
330
75
100
AcDbEntity
  8
HALLE_0_1_EG
  6
Continuous
100
AcDbLine
 10
62.69936501998331
 20
40.11570908436969
 30
0.0
 11
62.69936501998331
 21
39.85570908436969
 31
0.0
  0
LINE
  5
2CE
102
{ACAD_REACTORS
330
273
102
}
330
75
100
AcDbEntity
  8
HALLE_0_1_EG
  6
Continuous
100
AcDbLine
 10
62.69936501998331
 20
39.85570908436969
 30
0.0
 11
61.4993650199833
 21
39.85570908436969
 31
0.0
  0
LINE
  5
2CF
102
{ACAD_REACTORS
330
273
102
}
330
75
100
AcDbEntity
  8
HALLE_0_1_EG
  6
Continuous
100
AcDbLine
 10
61.4993650199833
 20
39.85570908436969
 30
0.0
 11
62.69936501998331
 21
39.85570908436969
 31
0.0
  0
LINE
  5
2D0
102
{ACAD_REACTORS
330
273
102
}
330
75
100
AcDbEntity
  8
HALLE_0_1_EG
  6
Continuous
100
AcDbLine
 10
62.69936501998331
 20
39.85570908436969
 30
0.0
 11
62.69936501998331
 21
39.59570908436968
 31
0.0
  0
LINE
  5
2D1
102
{ACAD_REACTORS
330
273
102
}
330
75
100
AcDbEntity
  8
HALLE_0_1_EG
  6
Continuous
100
AcDbLine
 10
62.69936501998331
 20
39.59570908436968
 30
0.0
 11
61.4993650199833
 21
39.59570908436968
 31
0.0
  0
LINE
  5
2D2
102
{ACAD_REACTORS
330
273
102
}
330
75
100
AcDbEntity
  8
HALLE_0_1_EG
  6
Continuous
100
AcDbLine
 10
61.4993650199833
 20
39.59570908436968
 30
0.0
 11
62.69936501998331
 21
39.59570908436968
 31
0.0
  0
LINE
  5
2D3
102
{ACAD_REACTORS
330
273
102
}
330
75
100
AcDbEntity
  8
HALLE_0_1_EG
  6
Continuous
100
AcDbLine
 10
62.69936501998331
 20
39.59570908436968
 30
0.0
 11
62.69936501998331
 21
39.33570908436969
 31
0.0
  0
LINE
  5
2D4
102
{ACAD_REACTORS
330
273
102
}
330
75
100
AcDbEntity
  8
HALLE_0_1_EG
  6
Continuous
100
AcDbLine
 10
62.69936501998331
 20
39.33570908436969
 30
0.0
 11
61.4993650199833
 21
39.33570908436969
 31
0.0
  0
LINE
  5
2D5
102
{ACAD_REACTORS
330
273
102
}
330
75
100
AcDbEntity
  8
HALLE_0_1_EG
  6
Continuous
100
AcDbLine
 10
61.4993650199833
 20
39.33570908436969
 30
0.0
 11
62.69936501998331
 21
39.33570908436969
 31
0.0
  0
LINE
  5
2D6
102
{ACAD_REACTORS
330
273
102
}
330
75
100
AcDbEntity
  8
HALLE_0_1_EG
  6
Continuous
100
AcDbLine
 10
62.69936501998331
 20
39.33570908436969
 30
0.0
 11
62.69936501998331
 21
39.07570908436968
 31
0.0
  0
LINE
  5
2D7
102
{ACAD_REACTORS
330
273
102
}
330
75
100
AcDbEntity
  8
HALLE_0_1_EG
  6
Continuous
100
AcDbLine
 10
62.69936501998331
 20
39.07570908436968
 30
0.0
 11
61.4993650199833
 21
39.07570908436968
 31
0.0
  0
LINE
  5
2D8
102
{ACAD_REACTORS
330
273
102
}
330
75
100
AcDbEntity
  8
HALLE_0_1_EG
  6
Continuous
100
AcDbLine
 10
61.4993650199833
 20
42.24570908436969
 30
0.0
 11
62.74936501998331
 21
42.24570908436969
 31
0.0
  0
LINE
  5
2D9
102
{ACAD_REACTORS
330
273
102
}
330
75
100
AcDbEntity
  8
HALLE_0_1_EG
  6
Continuous
100
AcDbLine
 10
62.74936501998331
 20
42.24570908436969
 30
0.0
 11
62.74936501998331
 21
39.07570908436968
 31
0.0
  0
LINE
  5
2DA
102
{ACAD_REACTORS
330
273
102
}
330
75
100
AcDbEntity
  8
HALLE_0_1_EG
  6
Continuous
100
AcDbLine
 10
62.74936501998331
 20
39.07570908436968
 30
0.0
 11
61.4993650199833
 21
39.07570908436968
 31
0.0
  0
LINE
  5
2DB
330
75
100
AcDbEntity
  8
HALLE_0_1_EG
  6
DOT
 62
     0
100
AcDbLine
 10
21.60761333910498
 20
43.4276082431772
 30
0.0
 11
21.60761333910498
 21
4.027608243179557
 31
0.0
  0
ENDSEC
  0
SECTION
  2
OBJECTS
  0
DICTIONARY
  5
C
330
0
100
AcDbDictionary
281
     1
  3
ACAD_COLOR
350
6B
  3
ACAD_GROUP
350
D
  3
ACAD_LAYOUT
350
6A
  3
ACAD_MATERIAL
350
10
  3
ACAD_MLEADERSTYLE
350
6E
  3
ACAD_MLINESTYLE
350
67
  3
ACAD_PLOTSETTINGS
350
69
  3
ACAD_PLOTSTYLENAME
350
E
  3
ACAD_SCALELIST
350
3A
  3
ACAD_TABLESTYLE
350
6C
  3
ACAD_VISUALSTYLE
350
29
  3
ACDB_RECOMPOSE_DATA
350
2E2
  3
AcDbVariableDictionary
350
2DC
  0
DICTIONARY
  5
6B
102
{ACAD_REACTORS
330
C
102
}
330
C
100
AcDbDictionary
281
     1
  0
DICTIONARY
  5
D
102
{ACAD_REACTORS
330
C
102
}
330
C
100
AcDbDictionary
281
     1
  3
*A1
350
25E
  3
*A2
350
269
  3
*A3
350
26E
  3
*A4
350
273
  0
DICTIONARY
  5
6A
102
{ACAD_REACTORS
330
C
102
}
330
C
100
AcDbDictionary
281
     1
  3
Layout1
350
74
  3
Layout2
350
7C
  3
Model
350
78
  0
DICTIONARY
  5
10
102
{ACAD_REACTORS
330
C
102
}
330
C
100
AcDbDictionary
281
     1
  3
ByBlock
350
19
  3
ByLayer
350
11
  3
Global
350
21
  0
DICTIONARY
  5
6E
102
{ACAD_REACTORS
330
C
102
}
330
C
100
AcDbDictionary
281
     1
  3
Standard
350
6F
  0
DICTIONARY
  5
67
102
{ACAD_REACTORS
330
C
102
}
330
C
100
AcDbDictionary
281
     1
  3
Standard
350
68
  0
DICTIONARY
  5
69
102
{ACAD_REACTORS
330
C
102
}
330
C
100
AcDbDictionary
281
     1
  0
ACDBDICTIONARYWDFLT
  5
E
102
{ACAD_REACTORS
330
C
102
}
330
C
100
AcDbDictionary
281
     1
  3
Normal
350
F
100
AcDbDictionaryWithDefault
340
F
  0
DICTIONARY
  5
3A
102
{ACAD_REACTORS
330
C
102
}
330
C
100
AcDbDictionary
281
     1
  3
A0
350
3B
  3
A1
350
3C
  3
A2
350
3D
  3
A3
350
3E
  3
A4
350
3F
  3
A5
350
40
  3
A6
350
41
  3
A7
350
42
  3
A8
350
43
  3
A9
350
44
  3
B0
350
45
  3
B1
350
46
  3
B2
350
47
  3
B3
350
48
  3
B4
350
49
  3
B5
350
4A
  3
B6
350
4B
  3
B7
350
4C
  3
B8
350
4D
  3
B9
350
4E
  3
C0
350
4F
  3
C1
350
50
  3
C2
350
51
  3
C3
350
52
  3
C4
350
53
  3
C5
350
54
  3
C6
350
55
  3
C7
350
56
  3
C8
350
57
  3
C9
350
58
  3
D0
350
59
  3
D1
350
5A
  3
D2
350
5B
  0
DICTIONARY
  5
6C
102
{ACAD_REACTORS
330
C
102
}
330
C
100
AcDbDictionary
281
     1
  3
Standard
350
6D
  0
DICTIONARY
  5
29
102
{ACAD_REACTORS
330
C
102
}
330
C
100
AcDbDictionary
281
     1
  3
2dWireframe
350
2F
  3
3D Hidden
350
31
  3
3dWireframe
350
30
  3
Basic
350
2E
  3
Brighten
350
35
  3
ColorChange
350
39
  3
Conceptual
350
32
  3
Dim
350
34
  3
Facepattern
350
38
  3
Flat
350
2A
  3
FlatWithEdges
350
2B
  3
Gouraud
350
2C
  3
GouraudWithEdges
350
2D
  3
Linepattern
350
37
  3
Realistic
350
33
  3
Thicken
350
36
  0
XRECORD
  5
2E2
102
{ACAD_REACTORS
330
C
102
}
330
C
100
AcDbXrecord
280
     1
 90
        1
330
6D
  0
DICTIONARY
  5
2DC
102
{ACAD_REACTORS
330
C
102
}
330
C
100
AcDbDictionary
281
     1
  3
CANNOSCALE
350
2DF
  3
CMLEADERSTYLE
350
2DE
  3
CTABLESTYLE
350
2DD
  0
GROUP
  5
25E
102
{ACAD_REACTORS
330
D
102
}
330
D
100
AcDbGroup
300

 70
     0
 71
     1
340
25F
340
260
340
261
340
262
340
263
340
264
340
265
340
266
  0
GROUP
  5
269
102
{ACAD_REACTORS
330
D
102
}
330
D
100
AcDbGroup
300

 70
     0
 71
     1
340
26A
340
26B
340
26C
340
26D
  0
GROUP
  5
26E
102
{ACAD_REACTORS
330
D
102
}
330
D
100
AcDbGroup
300

 70
     0
 71
     1
340
26F
340
270
340
271
340
272
  0
GROUP
  5
273
102
{ACAD_REACTORS
330
D
102
}
330
D
100
AcDbGroup
300

 70
     0
 71
     1
340
274
340
275
340
276
340
277
340
278
340
279
340
27A
340
27B
340
27C
340
27D
340
27E
340
27F
340
280
340
281
340
282
340
283
340
284
340
285
340
286
340
287
340
288
340
289
340
28A
340
28B
340
28C
340
28D
340
28E
340
28F
340
290
340
291
340
292
340
293
340
294
340
295
340
296
340
297
340
298
340
299
340
29A
340
29B
340
29C
340
29D
340
29E
340
29F
340
2A0
340
2A1
340
2A2
340
2A3
340
2A4
340
2A5
340
2A6
340
2A7
340
2A8
340
2A9
340
2AA
340
2AB
340
2AC
340
2AD
340
2AE
340
2AF
340
2B0
340
2B1
340
2B2
340
2B3
340
2B4
340
2B5
340
2B6
340
2B7
340
2B8
340
2B9
340
2BA
340
2BB
340
2BC
340
2BD
340
2BE
340
2BF
340
2C0
340
2C1
340
2C2
340
2C3
340
2C4
340
2C5
340
2C6
340
2C7
340
2C8
340
2C9
340
2CA
340
2CB
340
2CC
340
2CD
340
2CE
340
2CF
340
2D0
340
2D1
340
2D2
340
2D3
340
2D4
340
2D5
340
2D6
340
2D7
340
2D8
340
2D9
340
2DA
  0
LAYOUT
  5
74
102
{ACAD_REACTORS
330
6A
102
}
330
6A
100
AcDbPlotSettings
  1

  2

  4

  6

 40
0.0
 41
0.0
 42
0.0
 43
0.0
 44
0.0
 45
0.0
 46
0.0
 47
0.0
 48
0.0
 49
0.0
140
0.0
141
0.0
142
1.0
143
1.0
 70
   688
 72
     0
 73
     0
 74
     5
  7

 75
    16
147
1.0
 76
     0
 77
     2
 78
   300
148
0.0
149
0.0
100
AcDbLayout
  1
Layout1
 70
     1
 71
     1
 10
0.0
 20
0.0
 11
12.0
 21
9.0
 12
0.0
 22
0.0
 32
0.0
 14
0.0
 24
0.0
 34
0.0
 15
0.0
 25
0.0
 35
0.0
146
0.0
 13
0.0
 23
0.0
 33
0.0
 16
1.0
 26
0.0
 36
0.0
 17
0.0
 27
1.0
 37
0.0
 76
     0
330
71
  0
LAYOUT
  5
7C
102
{ACAD_REACTORS
330
6A
102
}
330
6A
100
AcDbPlotSettings
  1

  2

  4

  6

 40
0.0
 41
0.0
 42
0.0
 43
0.0
 44
0.0
 45
0.0
 46
0.0
 47
0.0
 48
0.0
 49
0.0
140
0.0
141
0.0
142
1.0
143
1.0
 70
   688
 72
     0
 73
     0
 74
     5
  7

 75
    16
147
1.0
 76
     0
 77
     2
 78
   300
148
0.0
149
0.0
100
AcDbLayout
  1
Layout2
 70
     1
 71
     2
 10
0.0
 20
0.0
 11
12.0
 21
9.0
 12
0.0
 22
0.0
 32
0.0
 14
0.0
 24
0.0
 34
0.0
 15
0.0
 25
0.0
 35
0.0
146
0.0
 13
0.0
 23
0.0
 33
0.0
 16
1.0
 26
0.0
 36
0.0
 17
0.0
 27
1.0
 37
0.0
 76
     0
330
79
  0
LAYOUT
  5
78
102
{ACAD_REACTORS
330
6A
102
}
330
6A
100
AcDbPlotSettings
  1

  2

  4

  6

 40
0.0
 41
0.0
 42
0.0
 43
0.0
 44
0.0
 45
0.0
 46
0.0
 47
0.0
 48
0.0
 49
0.0
140
0.0
141
0.0
142
1.0
143
1.0
 70
  1712
 72
     0
 73
     0
 74
     0
  7

 75
     0
147
1.0
 76
     0
 77
     2
 78
   300
148
0.0
149
0.0
100
AcDbLayout
  1
Model
 70
     1
 71
     0
 10
0.0
 20
0.0
 11
12.0
 21
9.0
 12
0.0
 22
0.0
 32
0.0
 14
0.0
 24
0.0
 34
0.0
 15
0.0
 25
0.0
 35
0.0
146
0.0
 13
0.0
 23
0.0
 33
0.0
 16
1.0
 26
0.0
 36
0.0
 17
0.0
 27
1.0
 37
0.0
 76
     0
330
75
  0
MATERIAL
  5
19
102
{ACAD_XDICTIONARY
360
1A
102
}
102
{ACAD_REACTORS
330
10
102
}
330
10
100
AcDbMaterial
  1
ByBlock
 72
     0
 43
0.0208333333333333
 43
0.0
 43
0.0
 43
0.0
 43
0.0
 43
0.0208333333333333
 43
0.0
 43
0.0
 43
0.0
 43
0.0
 43
1.0
 43
0.0
 43
0.0
 43
0.0
 43
0.0
 43
1.0
 77
     0
 47
0.0208333333333333
 47
0.0
 47
0.0
 47
0.0
 47
0.0
 47
0.0208333333333333
 47
0.0
 47
0.0
 47
0.0
 47
0.0
 47
1.0
 47
0.0
 47
0.0
 47
0.0
 47
0.0
 47
1.0
171
     0
 49
0.0208333333333333
 49
0.0
 49
0.0
 49
0.0
 49
0.0
 49
0.0208333333333333
 49
0.0
 49
0.0
 49
0.0
 49
0.0
 49
1.0
 49
0.0
 49
0.0
 49
0.0
 49
0.0
 49
1.0
175
     0
142
0.0208333333333333
142
0.0
142
0.0
142
0.0
142
0.0
142
0.0208333333333333
142
0.0
142
0.0
142
0.0
142
0.0
142
1.0
142
0.0
142
0.0
142
0.0
142
0.0
142
1.0
179
     0
144
0.0208333333333333
144
0.0
144
0.0
144
0.0
144
0.0
144
0.0208333333333333
144
0.0
144
0.0
144
0.0
144
0.0
144
1.0
144
0.0
144
0.0
144
0.0
144
0.0
144
1.0
147
0.0208333333333333
147
0.0
147
0.0
147
0.0
147
0.0
147
0.0208333333333333
147
0.0
147
0.0
147
0.0
147
0.0
147
1.0
147
0.0
147
0.0
147
0.0
147
0.0
147
1.0
  0
MATERIAL
  5
11
102
{ACAD_XDICTIONARY
360
12
102
}
102
{ACAD_REACTORS
330
10
102
}
330
10
100
AcDbMaterial
  1
ByLayer
 72
     0
 43
0.0208333333333333
 43
0.0
 43
0.0
 43
0.0
 43
0.0
 43
0.0208333333333333
 43
0.0
 43
0.0
 43
0.0
 43
0.0
 43
1.0
 43
0.0
 43
0.0
 43
0.0
 43
0.0
 43
1.0
 77
     0
 47
0.0208333333333333
 47
0.0
 47
0.0
 47
0.0
 47
0.0
 47
0.0208333333333333
 47
0.0
 47
0.0
 47
0.0
 47
0.0
 47
1.0
 47
0.0
 47
0.0
 47
0.0
 47
0.0
 47
1.0
171
     0
 49
0.0208333333333333
 49
0.0
 49
0.0
 49
0.0
 49
0.0
 49
0.0208333333333333
 49
0.0
 49
0.0
 49
0.0
 49
0.0
 49
1.0
 49
0.0
 49
0.0
 49
0.0
 49
0.0
 49
1.0
175
     0
142
0.0208333333333333
142
0.0
142
0.0
142
0.0
142
0.0
142
0.0208333333333333
142
0.0
142
0.0
142
0.0
142
0.0
142
1.0
142
0.0
142
0.0
142
0.0
142
0.0
142
1.0
179
     0
144
0.0208333333333333
144
0.0
144
0.0
144
0.0
144
0.0
144
0.0208333333333333
144
0.0
144
0.0
144
0.0
144
0.0
144
1.0
144
0.0
144
0.0
144
0.0
144
0.0
144
1.0
147
0.0208333333333333
147
0.0
147
0.0
147
0.0
147
0.0
147
0.0208333333333333
147
0.0
147
0.0
147
0.0
147
0.0
147
1.0
147
0.0
147
0.0
147
0.0
147
0.0
147
1.0
  0
MATERIAL
  5
21
102
{ACAD_XDICTIONARY
360
22
102
}
102
{ACAD_REACTORS
330
10
102
}
330
10
100
AcDbMaterial
  1
Global
 72
     0
 43
0.0208333333333333
 43
0.0
 43
0.0
 43
0.0
 43
0.0
 43
0.0208333333333333
 43
0.0
 43
0.0
 43
0.0
 43
0.0
 43
1.0
 43
0.0
 43
0.0
 43
0.0
 43
0.0
 43
1.0
 77
     0
 47
0.0208333333333333
 47
0.0
 47
0.0
 47
0.0
 47
0.0
 47
0.0208333333333333
 47
0.0
 47
0.0
 47
0.0
 47
0.0
 47
1.0
 47
0.0
 47
0.0
 47
0.0
 47
0.0
 47
1.0
171
     0
 49
0.0208333333333333
 49
0.0
 49
0.0
 49
0.0
 49
0.0
 49
0.0208333333333333
 49
0.0
 49
0.0
 49
0.0
 49
0.0
 49
1.0
 49
0.0
 49
0.0
 49
0.0
 49
0.0
 49
1.0
175
     0
142
0.0208333333333333
142
0.0
142
0.0
142
0.0
142
0.0
142
0.0208333333333333
142
0.0
142
0.0
142
0.0
142
0.0
142
1.0
142
0.0
142
0.0
142
0.0
142
0.0
142
1.0
179
     0
144
0.0208333333333333
144
0.0
144
0.0
144
0.0
144
0.0
144
0.0208333333333333
144
0.0
144
0.0
144
0.0
144
0.0
144
1.0
144
0.0
144
0.0
144
0.0
144
0.0
144
1.0
147
0.0208333333333333
147
0.0
147
0.0
147
0.0
147
0.0
147
0.0208333333333333
147
0.0
147
0.0
147
0.0
147
0.0
147
1.0
147
0.0
147
0.0
147
0.0
147
0.0
147
1.0
  0
MLEADERSTYLE
  5
6F
102
{ACAD_REACTORS
330
6E
102
}
330
6E
100
AcDbMLeaderStyle
170
     2
171
     1
172
     0
 90
        2
 40
0.0
 41
0.0
173
     1
 91
-1056964608
340
63
 92
       -2
290
     1
 42
0.09
291
     1
 43
0.36
  3
Standard
 44
0.18
300

342
5D
174
     1
178
     6
175
     1
176
     0
 93
-1056964608
 45
0.18
292
     0
297
     0
 46
0.18
 94
-1056964608
 47
1.0
 49
1.0
140
1.0
293
     1
141
0.0
294
     1
177
     0
142
1.0
295
     1
296
     0
143
0.125
1001
ACAD_MLEADERVER
1070
     2
  0
MLINESTYLE
  5
68
102
{ACAD_REACTORS
330
67
102
}
330
67
100
AcDbMlineStyle
  2
STANDARD
 70
     0
  3

 62
   256
 51
90.0
 52
90.0
 71
     2
 49
0.5
 62
   256
  6
BYLAYER
 49
-0.5
 62
   256
  6
BYLAYER
  0
ACDBPLACEHOLDER
  5
F
102
{ACAD_REACTORS
330
E
102
}
330
E
  0
SCALE
  5
3B
102
{ACAD_REACTORS
330
3A
102
}
330
3A
100
AcDbScale
 70
     0
300
1:1
140
1.0
141
1.0
290
     1
  0
SCALE
  5
3C
102
{ACAD_REACTORS
330
3A
102
}
330
3A
100
AcDbScale
 70
     0
300
1:2
140
1.0
141
2.0
290
     0
  0
SCALE
  5
3D
102
{ACAD_REACTORS
330
3A
102
}
330
3A
100
AcDbScale
 70
     0
300
1:4
140
1.0
141
4.0
290
     0
  0
SCALE
  5
3E
102
{ACAD_REACTORS
330
3A
102
}
330
3A
100
AcDbScale
 70
     0
300
1:5
140
1.0
141
5.0
290
     0
  0
SCALE
  5
3F
102
{ACAD_REACTORS
330
3A
102
}
330
3A
100
AcDbScale
 70
     0
300
1:8
140
1.0
141
8.0
290
     0
  0
SCALE
  5
40
102
{ACAD_REACTORS
330
3A
102
}
330
3A
100
AcDbScale
 70
     0
300
1:10
140
1.0
141
10.0
290
     0
  0
SCALE
  5
41
102
{ACAD_REACTORS
330
3A
102
}
330
3A
100
AcDbScale
 70
     0
300
1:16
140
1.0
141
16.0
290
     0
  0
SCALE
  5
42
102
{ACAD_REACTORS
330
3A
102
}
330
3A
100
AcDbScale
 70
     0
300
1:20
140
1.0
141
20.0
290
     0
  0
SCALE
  5
43
102
{ACAD_REACTORS
330
3A
102
}
330
3A
100
AcDbScale
 70
     0
300
1:30
140
1.0
141
30.0
290
     0
  0
SCALE
  5
44
102
{ACAD_REACTORS
330
3A
102
}
330
3A
100
AcDbScale
 70
     0
300
1:40
140
1.0
141
40.0
290
     0
  0
SCALE
  5
45
102
{ACAD_REACTORS
330
3A
102
}
330
3A
100
AcDbScale
 70
     0
300
1:50
140
1.0
141
50.0
290
     0
  0
SCALE
  5
46
102
{ACAD_REACTORS
330
3A
102
}
330
3A
100
AcDbScale
 70
     0
300
1:100
140
1.0
141
100.0
290
     0
  0
SCALE
  5
47
102
{ACAD_REACTORS
330
3A
102
}
330
3A
100
AcDbScale
 70
     0
300
2:1
140
2.0
141
1.0
290
     0
  0
SCALE
  5
48
102
{ACAD_REACTORS
330
3A
102
}
330
3A
100
AcDbScale
 70
     0
300
4:1
140
4.0
141
1.0
290
     0
  0
SCALE
  5
49
102
{ACAD_REACTORS
330
3A
102
}
330
3A
100
AcDbScale
 70
     0
300
8:1
140
8.0
141
1.0
290
     0
  0
SCALE
  5
4A
102
{ACAD_REACTORS
330
3A
102
}
330
3A
100
AcDbScale
 70
     0
300
10:1
140
10.0
141
1.0
290
     0
  0
SCALE
  5
4B
102
{ACAD_REACTORS
330
3A
102
}
330
3A
100
AcDbScale
 70
     0
300
100:1
140
100.0
141
1.0
290
     0
  0
SCALE
  5
4C
102
{ACAD_REACTORS
330
3A
102
}
330
3A
100
AcDbScale
 70
     0
300
1/128" = 1'-0"
140
0.0078125
141
12.0
290
     0
  0
SCALE
  5
4D
102
{ACAD_REACTORS
330
3A
102
}
330
3A
100
AcDbScale
 70
     0
300
1/64" = 1'-0"
140
0.015625
141
12.0
290
     0
  0
SCALE
  5
4E
102
{ACAD_REACTORS
330
3A
102
}
330
3A
100
AcDbScale
 70
     0
300
1/32" = 1'-0"
140
0.03125
141
12.0
290
     0
  0
SCALE
  5
4F
102
{ACAD_REACTORS
330
3A
102
}
330
3A
100
AcDbScale
 70
     0
300
1/16" = 1'-0"
140
0.0625
141
12.0
290
     0
  0
SCALE
  5
50
102
{ACAD_REACTORS
330
3A
102
}
330
3A
100
AcDbScale
 70
     0
300
3/32" = 1'-0"
140
0.09375
141
12.0
290
     0
  0
SCALE
  5
51
102
{ACAD_REACTORS
330
3A
102
}
330
3A
100
AcDbScale
 70
     0
300
1/8" = 1'-0"
140
0.125
141
12.0
290
     0
  0
SCALE
  5
52
102
{ACAD_REACTORS
330
3A
102
}
330
3A
100
AcDbScale
 70
     0
300
3/16" = 1'-0"
140
0.1875
141
12.0
290
     0
  0
SCALE
  5
53
102
{ACAD_REACTORS
330
3A
102
}
330
3A
100
AcDbScale
 70
     0
300
1/4" = 1'-0"
140
0.25
141
12.0
290
     0
  0
SCALE
  5
54
102
{ACAD_REACTORS
330
3A
102
}
330
3A
100
AcDbScale
 70
     0
300
3/8" = 1'-0"
140
0.375
141
12.0
290
     0
  0
SCALE
  5
55
102
{ACAD_REACTORS
330
3A
102
}
330
3A
100
AcDbScale
 70
     0
300
1/2" = 1'-0"
140
0.5
141
12.0
290
     0
  0
SCALE
  5
56
102
{ACAD_REACTORS
330
3A
102
}
330
3A
100
AcDbScale
 70
     0
300
3/4" = 1'-0"
140
0.75
141
12.0
290
     0
  0
SCALE
  5
57
102
{ACAD_REACTORS
330
3A
102
}
330
3A
100
AcDbScale
 70
     0
300
1" = 1'-0"
140
1.0
141
12.0
290
     0
  0
SCALE
  5
58
102
{ACAD_REACTORS
330
3A
102
}
330
3A
100
AcDbScale
 70
     0
300
1-1/2" = 1'-0"
140
1.5
141
12.0
290
     0
  0
SCALE
  5
59
102
{ACAD_REACTORS
330
3A
102
}
330
3A
100
AcDbScale
 70
     0
300
3" = 1'-0"
140
3.0
141
12.0
290
     0
  0
SCALE
  5
5A
102
{ACAD_REACTORS
330
3A
102
}
330
3A
100
AcDbScale
 70
     0
300
6" = 1'-0"
140
6.0
141
12.0
290
     0
  0
SCALE
  5
5B
102
{ACAD_REACTORS
330
3A
102
}
330
3A
100
AcDbScale
 70
     0
300
1'-0" = 1'-0"
140
12.0
141
12.0
290
     0
  0
TABLESTYLE
  5
6D
102
{ACAD_XDICTIONARY
360
2E0
102
}
102
{ACAD_REACTORS
330
6C
102
}
330
6C
100
AcDbTableStyle
  3
Standard
 70
     0
 71
     0
 40
0.06
 41
0.06
280
     0
281
     0
  7
Standard
140
0.18
170
     2
 62
     0
 63
     7
283
     0
 90
      512
 91
        0
  1

274
    -2
284
     1
 64
     0
275
    -2
285
     1
 65
     0
276
    -2
286
     1
 66
     0
277
    -2
287
     1
 67
     0
278
    -2
288
     1
 68
     0
279
    -2
289
     1
 69
     0
  7
Standard
140
0.25
170
     5
 62
     0
 63
     7
283
     0
 90
      512
 91
        0
  1

274
    -2
284
     1
 64
     0
275
    -2
285
     1
 65
     0
276
    -2
286
     1
 66
     0
277
    -2
287
     1
 67
     0
278
    -2
288
     1
 68
     0
279
    -2
289
     1
 69
     0
  7
Standard
140
0.18
170
     5
 62
     0
 63
     7
283
     0
 90
      512
 91
        0
  1

274
    -2
284
     1
 64
     0
275
    -2
285
     1
 65
     0
276
    -2
286
     1
 66
     0
277
    -2
287
     1
 67
     0
278
    -2
288
     1
 68
     0
279
    -2
289
     1
 69
     0
  0
VISUALSTYLE
  5
2F
102
{ACAD_REACTORS
330
29
102
}
330
29
100
AcDbVisualStyle
  2
2dWireframe
 70
     4
 71
     0
 72
     2
 73
     0
 90
        0
 40
-0.6
 41
-30.0
 62
     5
 63
     7
421
 16777215
 74
     1
 91
        4
 64
     7
 65
   257
 75
     1
175
     1
 42
1.0
 92
        0
 66
   257
 43
1.0
 76
     1
 77
     6
 78
     2
 67
     7
 79
     5
170
     0
171
     0
290
     0
174
     0
 93
        1
 44
0.0
173
     0
291
     0
 45
0.0
  0
VISUALSTYLE
  5
31
102
{ACAD_REACTORS
330
29
102
}
330
29
100
AcDbVisualStyle
  2
3D Hidden
 70
     6
 71
     1
 72
     2
 73
     2
 90
        0
 40
-0.6
 41
-30.0
 62
     5
 63
     7
421
 16777215
 74
     2
 91
        2
 64
     7
 65
   257
 75
     2
175
     1
 42
40.0
 92
        0
 66
   257
 43
1.0
 76
     1
 77
     6
 78
     2
 67
     7
 79
     3
170
     0
171
     0
290
     0
174
     0
 93
        1
 44
0.0
173
     0
291
     0
 45
0.0
  0
VISUALSTYLE
  5
30
102
{ACAD_REACTORS
330
29
102
}
330
29
100
AcDbVisualStyle
  2
3dWireframe
 70
     5
 71
     0
 72
     2
 73
     0
 90
        0
 40
-0.6
 41
-30.0
 62
     5
 63
     7
421
 16777215
 74
     1
 91
        4
 64
     7
 65
   257
 75
     1
175
     1
 42
1.0
 92
        0
 66
   257
 43
1.0
 76
     1
 77
     6
 78
     2
 67
     7
 79
     5
170
     0
171
     0
290
     0
174
     0
 93
        1
 44
0.0
173
     0
291
     0
 45
0.0
  0
VISUALSTYLE
  5
2E
102
{ACAD_REACTORS
330
29
102
}
330
29
100
AcDbVisualStyle
  2
Basic
 70
     7
 71
     1
 72
     0
 73
     1
 90
        0
 40
-0.6
 41
-30.0
 62
     5
 63
     7
421
 16777215
 74
     0
 91
        4
 64
     7
 65
   257
 75
     1
175
     1
 42
1.0
 92
        8
 66
     7
 43
1.0
 76
     1
 77
     6
 78
     2
 67
     7
 79
     5
170
     0
171
     0
290
     0
174
     0
 93
        1
 44
0.0
173
     0
291
     1
 45
0.0
  0
VISUALSTYLE
  5
35
102
{ACAD_REACTORS
330
29
102
}
330
29
100
AcDbVisualStyle
  2
Brighten
 70
    12
 71
     2
 72
     2
 73
     0
 90
        0
 40
-0.6
 41
-30.0
 62
     5
 63
     7
421
 16777215
 74
     1
 91
        4
 64
     7
 65
   257
 75
     1
175
     1
 42
1.0
 92
        8
 66
     7
 43
1.0
 76
     1
 77
     6
 78
     2
 67
     7
 79
     5
170
     0
171
     0
290
     0
174
     0
 93
        1
 44
50.0
173
     0
291
     1
 45
0.0
  0
VISUALSTYLE
  5
39
102
{ACAD_REACTORS
330
29
102
}
330
29
100
AcDbVisualStyle
  2
ColorChange
 70
    16
 71
     2
 72
     2
 73
     3
 90
        0
 40
-0.6
 41
-30.0
 62
     5
 63
     8
421
  8421504
 74
     1
 91
        4
 64
     7
 65
   257
 75
     1
175
     1
 42
1.0
 92
        8
 66
     8
424
  8421504
 43
1.0
 76
     1
 77
     6
 78
     2
 67
     7
 79
     5
170
     0
171
     0
290
     0
174
     0
 93
        1
 44
0.0
173
     0
291
     1
 45
0.0
  0
VISUALSTYLE
  5
32
102
{ACAD_REACTORS
330
29
102
}
330
29
100
AcDbVisualStyle
  2
Conceptual
 70
     9
 71
     3
 72
     2
 73
     0
 90
        0
 40
-0.6
 41
-30.0
 62
     5
 63
     7
421
 16777215
 74
     2
 91
        2
 64
     7
 65
   257
 75
     1
175
     1
 42
40.0
 92
        8
 66
     7
 43
1.0
 76
     1
 77
     6
 78
     2
 67
     7
 79
     3
170
     0
171
     0
290
     0
174
     0
 93
        1
 44
0.0
173
     0
291
     0
 45
0.0
  0
VISUALSTYLE
  5
34
102
{ACAD_REACTORS
330
29
102
}
330
29
100
AcDbVisualStyle
  2
Dim
 70
    11
 71
     2
 72
     2
 73
     0
 90
        0
 40
-0.6
 41
-30.0
 62
     5
 63
     7
421
 16777215
 74
     1
 91
        4
 64
     7
 65
   257
 75
     1
175
     1
 42
1.0
 92
        8
 66
     7
 43
1.0
 76
     1
 77
     6
 78
     2
 67
     7
 79
     5
170
     0
171
     0
290
     0
174
     0
 93
        1
 44
-50.0
173
     0
291
     1
 45
0.0
  0
VISUALSTYLE
  5
38
102
{ACAD_REACTORS
330
29
102
}
330
29
100
AcDbVisualStyle
  2
Facepattern
 70
    15
 71
     2
 72
     2
 73
     0
 90
        0
 40
-0.6
 41
-30.0
 62
     5
 63
     7
421
 16777215
 74
     1
 91
        4
 64
     7
 65
   257
 75
     1
175
     1
 42
1.0
 92
        8
 66
     7
 43
1.0
 76
     1
 77
     6
 78
     2
 67
     7
 79
     5
170
     0
171
     0
290
     0
174
     0
 93
        1
 44
0.0
173
     0
291
     1
 45
0.0
  0
VISUALSTYLE
  5
2A
102
{ACAD_REACTORS
330
29
102
}
330
29
100
AcDbVisualStyle
  2
Flat
 70
     0
 71
     2
 72
     1
 73
     1
 90
        2
 40
-0.6
 41
30.0
 62
     5
 63
     7
421
 16777215
 74
     0
 91
        4
 64
     7
 65
   257
 75
     1
175
     1
 42
1.0
 92
        8
 66
     7
 43
1.0
 76
     1
 77
     6
 78
     2
 67
     7
 79
     5
170
     0
171
     0
290
     0
174
     0
 93
       13
 44
0.0
173
     0
291
     1
 45
0.0
  0
VISUALSTYLE
  5
2B
102
{ACAD_REACTORS
330
29
102
}
330
29
100
AcDbVisualStyle
  2
FlatWithEdges
 70
     1
 71
     2
 72
     1
 73
     1
 90
        2
 40
-0.6
 41
30.0
 62
     5
 63
     7
421
 16777215
 74
     1
 91
        4
 64
     7
 65
   257
 75
     1
175
     1
 42
1.0
 92
        0
 66
   257
 43
1.0
 76
     1
 77
     6
 78
     2
 67
     7
 79
     5
170
     0
171
     0
290
     0
174
     0
 93
       13
 44
0.0
173
     0
291
     1
 45
0.0
  0
VISUALSTYLE
  5
2C
102
{ACAD_REACTORS
330
29
102
}
330
29
100
AcDbVisualStyle
  2
Gouraud
 70
     2
 71
     2
 72
     2
 73
     1
 90
        2
 40
-0.6
 41
30.0
 62
     5
 63
     7
421
 16777215
 74
     0
 91
        4
 64
     7
 65
   257
 75
     1
175
     1
 42
1.0
 92
        0
 66
     7
 43
1.0
 76
     1
 77
     6
 78
     2
 67
     7
 79
     5
170
     0
171
     0
290
     0
174
     0
 93
       13
 44
0.0
173
     0
291
     1
 45
0.0
  0
VISUALSTYLE
  5
2D
102
{ACAD_REACTORS
330
29
102
}
330
29
100
AcDbVisualStyle
  2
GouraudWithEdges
 70
     3
 71
     2
 72
     2
 73
     1
 90
        2
 40
-0.6
 41
30.0
 62
     5
 63
     7
421
 16777215
 74
     1
 91
        4
 64
     7
 65
   257
 75
     1
175
     1
 42
1.0
 92
        0
 66
   257
 43
1.0
 76
     1
 77
     6
 78
     2
 67
     7
 79
     5
170
     0
171
     0
290
     0
174
     0
 93
       13
 44
0.0
173
     0
291
     1
 45
0.0
  0
VISUALSTYLE
  5
37
102
{ACAD_REACTORS
330
29
102
}
330
29
100
AcDbVisualStyle
  2
Linepattern
 70
    14
 71
     2
 72
     2
 73
     0
 90
        0
 40
-0.6
 41
-30.0
 62
     5
 63
     7
421
 16777215
 74
     1
 91
        4
 64
     7
 65
   257
 75
     7
175
     7
 42
1.0
 92
        8
 66
     7
 43
1.0
 76
     1
 77
     6
 78
     2
 67
     7
 79
     5
170
     0
171
     0
290
     0
174
     0
 93
        1
 44
0.0
173
     0
291
     1
 45
0.0
  0
VISUALSTYLE
  5
33
102
{ACAD_REACTORS
330
29
102
}
330
29
100
AcDbVisualStyle
  2
Realistic
 70
     8
 71
     2
 72
     2
 73
     0
 90
        0
 40
-0.6
 41
-30.0
 62
     5
 63
     7
421
 16777215
 74
     1
 91
        0
 64
     7
 65
   257
 75
     1
175
     1
 42
1.0
 92
        8
 66
     8
424
  7895160
 43
1.0
 76
     1
 77
     6
 78
     2
 67
     7
 79
     5
170
     0
171
     0
290
     0
174
     0
 93
       13
 44
0.0
173
     0
291
     0
 45
0.0
  0
VISUALSTYLE
  5
36
102
{ACAD_REACTORS
330
29
102
}
330
29
100
AcDbVisualStyle
  2
Thicken
 70
    13
 71
     2
 72
     2
 73
     0
 90
        0
 40
-0.6
 41
-30.0
 62
     5
 63
     7
421
 16777215
 74
     1
 91
        4
 64
     7
 65
   257
 75
     1
175
     1
 42
1.0
 92
       12
 66
     7
 43
1.0
 76
     1
 77
     6
 78
     2
 67
     7
 79
     5
170
     0
171
     0
290
     0
174
     0
 93
        1
 44
0.0
173
     0
291
     1
 45
0.0
  0
DICTIONARYVAR
  5
2DF
102
{ACAD_REACTORS
330
2DC
102
}
330
2DC
100
DictionaryVariables
280
     0
  1
1:1
  0
DICTIONARYVAR
  5
2DE
102
{ACAD_REACTORS
330
2DC
102
}
330
2DC
100
DictionaryVariables
280
     0
  1
STANDARD
  0
DICTIONARYVAR
  5
2DD
102
{ACAD_REACTORS
330
2DC
102
}
330
2DC
100
DictionaryVariables
280
     0
  1
STANDARD
  0
DICTIONARY
  5
1A
330
19
100
AcDbDictionary
280
     1
281
     1
  3
BUMPTILE
360
1C
  3
DIFFUSETILE
360
1B
  3
OPACITYTILE
360
1F
  3
REFLECTIONTILE
360
1E
  3
REFRACTIONTILE
360
20
  3
SPECULARTILE
360
1D
  0
DICTIONARY
  5
12
330
11
100
AcDbDictionary
280
     1
281
     1
  3
BUMPTILE
360
14
  3
DIFFUSETILE
360
13
  3
OPACITYTILE
360
17
  3
REFLECTIONTILE
360
16
  3
REFRACTIONTILE
360
18
  3
SPECULARTILE
360
15
  0
DICTIONARY
  5
22
330
21
100
AcDbDictionary
280
     1
281
     1
  3
BUMPTILE
360
24
  3
DIFFUSETILE
360
23
  3
OPACITYTILE
360
27
  3
REFLECTIONTILE
360
26
  3
REFRACTIONTILE
360
28
  3
SPECULARTILE
360
25
  0
DICTIONARY
  5
2E0
330
6D
100
AcDbDictionary
280
     1
281
     1
  3
ACAD_ROUNDTRIP_2008_TABLESTYLE_CELLSTYLEMAP
360
2E1
  0
XRECORD
  5
1C
102
{ACAD_REACTORS
330
1A
102
}
330
1A
100
AcDbXrecord
280
     1
270
     1
271
     1
  0
XRECORD
  5
1B
102
{ACAD_REACTORS
330
1A
102
}
330
1A
100
AcDbXrecord
280
     1
270
     1
271
     1
  0
XRECORD
  5
1F
102
{ACAD_REACTORS
330
1A
102
}
330
1A
100
AcDbXrecord
280
     1
270
     1
271
     1
  0
XRECORD
  5
1E
102
{ACAD_REACTORS
330
1A
102
}
330
1A
100
AcDbXrecord
280
     1
270
     1
271
     1
  0
XRECORD
  5
20
102
{ACAD_REACTORS
330
1A
102
}
330
1A
100
AcDbXrecord
280
     1
270
     1
271
     1
  0
XRECORD
  5
1D
102
{ACAD_REACTORS
330
1A
102
}
330
1A
100
AcDbXrecord
280
     1
270
     1
271
     1
  0
XRECORD
  5
14
102
{ACAD_REACTORS
330
12
102
}
330
12
100
AcDbXrecord
280
     1
270
     1
271
     1
  0
XRECORD
  5
13
102
{ACAD_REACTORS
330
12
102
}
330
12
100
AcDbXrecord
280
     1
270
     1
271
     1
  0
XRECORD
  5
17
102
{ACAD_REACTORS
330
12
102
}
330
12
100
AcDbXrecord
280
     1
270
     1
271
     1
  0
XRECORD
  5
16
102
{ACAD_REACTORS
330
12
102
}
330
12
100
AcDbXrecord
280
     1
270
     1
271
     1
  0
XRECORD
  5
18
102
{ACAD_REACTORS
330
12
102
}
330
12
100
AcDbXrecord
280
     1
270
     1
271
     1
  0
XRECORD
  5
15
102
{ACAD_REACTORS
330
12
102
}
330
12
100
AcDbXrecord
280
     1
270
     1
271
     1
  0
XRECORD
  5
24
102
{ACAD_REACTORS
330
22
102
}
330
22
100
AcDbXrecord
280
     1
270
     1
271
     1
  0
XRECORD
  5
23
102
{ACAD_REACTORS
330
22
102
}
330
22
100
AcDbXrecord
280
     1
270
     1
271
     1
  0
XRECORD
  5
27
102
{ACAD_REACTORS
330
22
102
}
330
22
100
AcDbXrecord
280
     1
270
     1
271
     1
  0
XRECORD
  5
26
102
{ACAD_REACTORS
330
22
102
}
330
22
100
AcDbXrecord
280
     1
270
     1
271
     1
  0
XRECORD
  5
28
102
{ACAD_REACTORS
330
22
102
}
330
22
100
AcDbXrecord
280
     1
270
     1
271
     1
  0
XRECORD
  5
25
102
{ACAD_REACTORS
330
22
102
}
330
22
100
AcDbXrecord
280
     1
270
     1
271
     1
  0
CELLSTYLEMAP
  5
2E1
102
{ACAD_REACTORS
330
2E0
102
}
330
2E0
100
AcDbCellStyleMap
 90
        3
300
CELLSTYLE
  1
TABLEFORMAT_BEGIN
 90
        5
170
     1
 91
        0
 92
    32768
 62
   257
 93
        1
300
CONTENTFORMAT
  1
CONTENTFORMAT_BEGIN
 90
        0
 91
        0
 92
      512
 93
        0
300

 40
0.0
140
1.0
 94
        5
 62
     0
340
5D
144
0.25
309
CONTENTFORMAT_END
171
     0
 94
        0
309
TABLEFORMAT_END
  1
CELLSTYLE_BEGIN
 90
        1
 91
        1
300
_TITLE
309
CELLSTYLE_END
300
CELLSTYLE
  1
TABLEFORMAT_BEGIN
 90
        5
170
     1
 91
        0
 92
        0
 62
   257
 93
        1
300
CONTENTFORMAT
  1
CONTENTFORMAT_BEGIN
 90
        0
 91
        0
 92
      512
 93
        0
300

 40
0.0
140
1.0
 94
        5
 62
     0
340
5D
144
0.18
309
CONTENTFORMAT_END
171
     0
 94
        0
309
TABLEFORMAT_END
  1
CELLSTYLE_BEGIN
 90
        2
 91
        1
300
_HEADER
309
CELLSTYLE_END
300
CELLSTYLE
  1
TABLEFORMAT_BEGIN
 90
        5
170
     1
 91
        0
 92
        0
 62
   257
 93
        1
300
CONTENTFORMAT
  1
CONTENTFORMAT_BEGIN
 90
        0
 91
        0
 92
      512
 93
        0
300

 40
0.0
140
1.0
 94
        2
 62
     0
340
5D
144
0.18
309
CONTENTFORMAT_END
171
     0
 94
        0
309
TABLEFORMAT_END
  1
CELLSTYLE_BEGIN
 90
        3
 91
        2
300
_DATA
309
CELLSTYLE_END
  0
ENDSEC
  0
EOF
