  0
SECTION
  2
HEADER
  9
$ACADVER
  1
AC1015
  9
$ACADMAINTVER
 70
    18
  9
$DWGCODEPAGE
  3
ANSI_1252
  9
$INSBASE
 10
0.0
 20
0.0
 30
0.0
  9
$EXTMIN
 10
2.25306957708049
 20
2.424439810022986
 30
-0.00000001
  9
$EXTMAX
 10
69.21147748069282
 20
41.99034875268178
 30
0.00000001
  9
$LIMMIN
 10
0.0
 20
0.0
  9
$LIMMAX
 10
2923.228346456694
 20
2066.929133858268
  9
$ORTHOMODE
 70
     0
  9
$REGENMODE
 70
     1
  9
$FILLMODE
 70
     1
  9
$QTEXTMODE
 70
     0
  9
$MIRRTEXT
 70
     0
  9
$LTSCALE
 40
1.0
  9
$ATTMODE
 70
     1
  9
$TEXTSIZE
 40
0.5000000000000002
  9
$TRACEWID
 40
0.05
  9
$TEXTSTYLE
  7
Standard
  9
$CLAYER
  8
0
  9
$CELTYPE
  6
ByLayer
  9
$CECOLOR
 62
   256
  9
$CELTSCALE
 40
1.0
  9
$DISPSILH
 70
     0
  9
$DIMSCALE
 40
1.0
  9
$DIMASZ
 40
0.18
  9
$DIMEXO
 40
0.0625
  9
$DIMDLI
 40
0.38
  9
$DIMRND
 40
0.0
  9
$DIMDLE
 40
0.0
  9
$DIMEXE
 40
0.18
  9
$DIMTP
 40
0.0
  9
$DIMTM
 40
0.0
  9
$DIMTXT
 40
39.37007874015748
  9
$DIMCEN
 40
0.09
  9
$DIMTSZ
 40
0.0
  9
$DIMTOL
 70
     0
  9
$DIMLIM
 70
     0
  9
$DIMTIH
 70
     1
  9
$DIMTOH
 70
     1
  9
$DIMSE1
 70
     0
  9
$DIMSE2
 70
     0
  9
$DIMTAD
 70
     0
  9
$DIMZIN
 70
     0
  9
$DIMBLK
  1

  9
$DIMASO
 70
     1
  9
$DIMSHO
 70
     1
  9
$DIMPOST
  1

  9
$DIMAPOST
  1

  9
$DIMALT
 70
     0
  9
$DIMALTD
 70
     2
  9
$DIMALTF
 40
25.4
  9
$DIMLFAC
 40
1.0
  9
$DIMTOFL
 70
     0
  9
$DIMTVP
 40
0.0
  9
$DIMTIX
 70
     0
  9
$DIMSOXD
 70
     0
  9
$DIMSAH
 70
     0
  9
$DIMBLK1
  1

  9
$DIMBLK2
  1

  9
$DIMSTYLE
  2
Standard
  9
$DIMCLRD
 70
     0
  9
$DIMCLRE
 70
     0
  9
$DIMCLRT
 70
     0
  9
$DIMTFAC
 40
1.0
  9
$DIMGAP
 40
0.09
  9
$DIMJUST
 70
     0
  9
$DIMSD1
 70
     0
  9
$DIMSD2
 70
     0
  9
$DIMTOLJ
 70
     1
  9
$DIMTZIN
 70
     0
  9
$DIMALTZ
 70
     0
  9
$DIMALTTZ
 70
     0
  9
$DIMUPT
 70
     0
  9
$DIMDEC
 70
     2
  9
$DIMTDEC
 70
     4
  9
$DIMALTU
 70
     2
  9
$DIMALTTD
 70
     2
  9
$DIMTXSTY
  7
Standard
  9
$DIMAUNIT
 70
     1
  9
$DIMADEC
 70
     0
  9
$DIMALTRND
 40
0.0
  9
$DIMAZIN
 70
     0
  9
$DIMDSEP
 70
    46
  9
$DIMATFIT
 70
     3
  9
$DIMFRAC
 70
     0
  9
$DIMLDRBLK
  1

  9
$DIMLUNIT
 70
     4
  9
$DIMLWD
 70
    -2
  9
$DIMLWE
 70
    -2
  9
$DIMTMOVE
 70
     0
  9
$LUNITS
 70
     2
  9
$LUPREC
 70
     2
  9
$SKETCHINC
 40
0.1
  9
$FILLETRAD
 40
0.005
  9
$AUNITS
 70
     0
  9
$AUPREC
 70
     2
  9
$MENU
  1
.
  9
$ELEVATION
 40
0.0
  9
$PELEVATION
 40
0.0
  9
$THICKNESS
 40
0.0
  9
$LIMCHECK
 70
     0
  9
$CHAMFERA
 40
0.005
  9
$CHAMFERB
 40
0.005
  9
$CHAMFERC
 40
0.0
  9
$CHAMFERD
 40
0.0
  9
$SKPOLY
 70
     0
  9
$TDCREATE
 40
2453679.386312570
  9
$TDUCREATE
 40
2453679.344645903
  9
$TDUPDATE
 40
2453679.386312570
  9
$TDUUPDATE
 40
2453679.344645903
  9
$TDINDWG
 40
0.0000014468
  9
$TDUSRTIMER
 40
0.0000014468
  9
$USRTIMER
 70
     1
  9
$ANGBASE
 50
0.0
  9
$ANGDIR
 70
     0
  9
$PDMODE
 70
     0
  9
$PDSIZE
 40
0.0
  9
$PLINEWID
 40
0.0
  9
$SPLFRAME
 70
     0
  9
$SPLINETYPE
 70
     6
  9
$SPLINESEGS
 70
     8
  9
$HANDSEED
  5
604
  9
$SURFTAB1
 70
     6
  9
$SURFTAB2
 70
     6
  9
$SURFTYPE
 70
     6
  9
$SURFU
 70
     6
  9
$SURFV
 70
     6
  9
$UCSBASE
  2

  9
$UCSNAME
  2

  9
$UCSORG
 10
0.0
 20
0.0
 30
0.0
  9
$UCSXDIR
 10
1.0
 20
0.0
 30
0.0
  9
$UCSYDIR
 10
0.0
 20
1.0
 30
0.0
  9
$UCSORTHOREF
  2

  9
$UCSORTHOVIEW
 70
     0
  9
$UCSORGTOP
 10
0.0
 20
0.0
 30
0.0
  9
$UCSORGBOTTOM
 10
0.0
 20
0.0
 30
0.0
  9
$UCSORGLEFT
 10
0.0
 20
0.0
 30
0.0
  9
$UCSORGRIGHT
 10
0.0
 20
0.0
 30
0.0
  9
$UCSORGFRONT
 10
0.0
 20
0.0
 30
0.0
  9
$UCSORGBACK
 10
0.0
 20
0.0
 30
0.0
  9
$PUCSBASE
  2

  9
$PUCSNAME
  2

  9
$PUCSORG
 10
0.0
 20
0.0
 30
0.0
  9
$PUCSXDIR
 10
1.0
 20
0.0
 30
0.0
  9
$PUCSYDIR
 10
0.0
 20
1.0
 30
0.0
  9
$PUCSORTHOREF
  2

  9
$PUCSORTHOVIEW
 70
     0
  9
$PUCSORGTOP
 10
0.0
 20
0.0
 30
0.0
  9
$PUCSORGBOTTOM
 10
0.0
 20
0.0
 30
0.0
  9
$PUCSORGLEFT
 10
0.0
 20
0.0
 30
0.0
  9
$PUCSORGRIGHT
 10
0.0
 20
0.0
 30
0.0
  9
$PUCSORGFRONT
 10
0.0
 20
0.0
 30
0.0
  9
$PUCSORGBACK
 10
0.0
 20
0.0
 30
0.0
  9
$USERI1
 70
     0
  9
$USERI2
 70
     0
  9
$USERI3
 70
     0
  9
$USERI4
 70
     0
  9
$USERI5
 70
     0
  9
$USERR1
 40
0.0
  9
$USERR2
 40
0.0
  9
$USERR3
 40
0.0
  9
$USERR4
 40
0.0
  9
$USERR5
 40
0.0
  9
$WORLDVIEW
 70
     1
  9
$SHADEDGE
 70
     3
  9
$SHADEDIF
 70
    70
  9
$TILEMODE
 70
     1
  9
$MAXACTVP
 70
    64
  9
$PINSBASE
 10
0.0
 20
0.0
 30
0.0
  9
$PLIMCHECK
 70
     0
  9
$PEXTMIN
 10
1.000000000000000E+20
 20
1.000000000000000E+20
 30
1.000000000000000E+20
  9
$PEXTMAX
 10
-1.000000000000000E+20
 20
-1.000000000000000E+20
 30
-1.000000000000000E+20
  9
$PLIMMIN
 10
0.0
 20
0.0
  9
$PLIMMAX
 10
12.0
 20
9.0
  9
$UNITMODE
 70
     0
  9
$VISRETAIN
 70
     1
  9
$PLINEGEN
 70
     0
  9
$PSLTSCALE
 70
     1
  9
$TREEDEPTH
 70
  3020
  9
$CMLSTYLE
  2
Standard
  9
$CMLJUST
 70
     0
  9
$CMLSCALE
 40
1.0
  9
$PROXYGRAPHICS
 70
     1
  9
$MEASUREMENT
 70
     1
  9
$CELWEIGHT
370
    -1
  9
$ENDCAPS
280
     0
  9
$JOINSTYLE
280
     0
  9
$LWDISPLAY
290
     0
  9
$INSUNITS
 70
     0
  9
$HYPERLINKBASE
  1

  9
$STYLESHEET
  1

  9
$XEDIT
290
     1
  9
$CEPSNTYPE
380
     0
  9
$PSTYLEMODE
290
     1
  9
$FINGERPRINTGUID
  2
{B6F7673C-6ABD-4BEA-BD4A-D036D3941638}
  9
$VERSIONGUID
  2
{F3D0BEF6-92C0-4615-86A9-4DC691FE89C8}
  9
$EXTNAMES
290
     1
  9
$PSVPSCALE
 40
0.0
  9
$OLESTARTUP
290
     0
  0
ENDSEC
  0
SECTION
  2
CLASSES
  0
CLASS
  1
ACDBDICTIONARYWDFLT
  2
AcDbDictionaryWithDefault
  3
ObjectDBX Classes
 90
        0
280
     0
281
     0
  0
CLASS
  1
DICTIONARYVAR
  2
AcDbDictionaryVar
  3
ObjectDBX Classes
 90
        0
280
     0
281
     0
  0
CLASS
  1
ACDBPLACEHOLDER
  2
AcDbPlaceHolder
  3
ObjectDBX Classes
 90
        0
280
     0
281
     0
  0
CLASS
  1
LAYOUT
  2
AcDbLayout
  3
ObjectDBX Classes
 90
        0
280
     0
281
     0
  0
ENDSEC
  0
SECTION
  2
TABLES
  0
TABLE
  2
VPORT
  5
8
330
0
100
AcDbSymbolTable
 70
     1
  0
VPORT
  5
13
330
8
100
AcDbSymbolTableRecord
100
AcDbViewportTableRecord
  2
*Active
 70
     0
 10
0.0
 20
0.0
 11
1.0
 21
1.0
 12
1461.614173228347
 22
1033.464566929134
 13
0.0
 23
0.0
 14
1.0
 24
1.0
 15
0.0
 25
0.0
 16
0.0
 26
0.0
 36
1.0
 17
0.0
 27
0.0
 37
0.0
 40
2066.929133858268
 41
1.414285714285714
 42
50.0
 43
0.0
 44
0.0
 50
0.0
 51
0.0
 71
     0
 72
   100
 73
     1
 74
     1
 75
     0
 76
     0
 77
     0
 78
     0
281
     0
 65
     1
110
0.0
120
0.0
130
0.0
111
1.0
121
0.0
131
0.0
112
0.0
122
1.0
132
0.0
 79
     0
146
0.0
  0
ENDTAB
  0
TABLE
  2
LTYPE
  5
5
330
0
100
AcDbSymbolTable
 70
    47
  0
LTYPE
  5
14
330
5
100
AcDbSymbolTableRecord
100
AcDbLinetypeTableRecord
  2
ByBlock
 70
     0
  3

 72
    65
 73
     0
 40
0.0
  0
LTYPE
  5
15
330
5
100
AcDbSymbolTableRecord
100
AcDbLinetypeTableRecord
  2
ByLayer
 70
     0
  3

 72
    65
 73
     0
 40
0.0
  0
LTYPE
  5
16
330
5
100
AcDbSymbolTableRecord
100
AcDbLinetypeTableRecord
  2
Continuous
 70
     0
  3
Solid line
 72
    65
 73
     0
 40
0.0
  0
LTYPE
  5
2A
330
5
100
AcDbSymbolTableRecord
100
AcDbLinetypeTableRecord
  2
HIDDEN
 70
     0
  3
_ _ _ _ _ _ _ _ _ _ _ _ _ _ 
 72
    65
 73
     2
 40
0.009525
 49
0.00635
 74
     0
 49
-0.003175
 74
     0
  0
LTYPE
  5
2B
330
5
100
AcDbSymbolTableRecord
100
AcDbLinetypeTableRecord
  2
DASHED
 70
     0
  3
__ __ __ __ __ __ __ __ __ 
 72
    65
 73
     2
 40
0.01905
 49
0.0127
 74
     0
 49
-0.00635
 74
     0
  0
LTYPE
  5
2C
330
5
100
AcDbSymbolTableRecord
100
AcDbLinetypeTableRecord
  2
CENTER
 70
     0
  3
____ _ ____ _ ____ _ ____ _ 
 72
    65
 73
     4
 40
0.0508
 49
0.03175
 74
     0
 49
-0.00635
 74
     0
 49
0.00635
 74
     0
 49
-0.00635
 74
     0
  0
LTYPE
  5
2D
330
5
100
AcDbSymbolTableRecord
100
AcDbLinetypeTableRecord
  2
PHANTOM
 70
     0
  3
_____ _ _ _____ _ _ _____ _ _ 
 72
    65
 73
     6
 40
0.0635
 49
0.03175
 74
     0
 49
-0.00635
 74
     0
 49
0.00635
 74
     0
 49
-0.00635
 74
     0
 49
0.00635
 74
     0
 49
-0.00635
 74
     0
  0
LTYPE
  5
2E
330
5
100
AcDbSymbolTableRecord
100
AcDbLinetypeTableRecord
  2
DOT
 70
     0
  3
...........................
 72
    65
 73
     2
 40
0.00635
 49
0.0
 74
     0
 49
-0.00635
 74
     0
  0
LTYPE
  5
2F
330
5
100
AcDbSymbolTableRecord
100
AcDbLinetypeTableRecord
  2
DASHDOT
 70
     0
  3
__ . __ . __ . __ . __ . __ . 
 72
    65
 73
     4
 40
0.0254
 49
0.0127
 74
     0
 49
-0.00635
 74
     0
 49
0.0
 74
     0
 49
-0.00635
 74
     0
  0
LTYPE
  5
30
330
5
100
AcDbSymbolTableRecord
100
AcDbLinetypeTableRecord
  2
DIVIDE
 70
     0
  3
__ . . __ . . __ . . __ . . 
 72
    65
 73
     6
 40
0.03175
 49
0.0127
 74
     0
 49
-0.00635
 74
     0
 49
0.0
 74
     0
 49
-0.00635
 74
     0
 49
0.0
 74
     0
 49
-0.00635
 74
     0
  0
LTYPE
  5
31
330
5
100
AcDbSymbolTableRecord
100
AcDbLinetypeTableRecord
  2
BORDER
 70
     0
  3
__ __ . __ __ . __ __ . __ __ .
 72
    65
 73
     6
 40
0.04445
 49
0.0127
 74
     0
 49
-0.00635
 74
     0
 49
0.0127
 74
     0
 49
-0.00635
 74
     0
 49
0.0
 74
     0
 49
-0.00635
 74
     0
  0
LTYPE
  5
32
330
5
100
AcDbSymbolTableRecord
100
AcDbLinetypeTableRecord
  2
RAND
 70
     0
  3
Rand __ __ . __ __ . __ __ . __
 72
    65
 73
     6
 40
1.75
 49
0.5
 74
     0
 49
-0.25
 74
     0
 49
0.5
 74
     0
 49
-0.25
 74
     0
 49
0.0
 74
     0
 49
-0.25
 74
     0
  0
LTYPE
  5
33
330
5
100
AcDbSymbolTableRecord
100
AcDbLinetypeTableRecord
  2
RAND2
 70
     0
  3
Rand (.5x) __.__.__.__.__.__.__
 72
    65
 73
     6
 40
0.875
 49
0.25
 74
     0
 49
-0.125
 74
     0
 49
0.25
 74
     0
 49
-0.125
 74
     0
 49
0.0
 74
     0
 49
-0.125
 74
     0
  0
LTYPE
  5
34
330
5
100
AcDbSymbolTableRecord
100
AcDbLinetypeTableRecord
  2
RANDX2
 70
     0
  3
Rand (2x) ____  ____  .  ____  
 72
    65
 73
     6
 40
3.5
 49
1.0
 74
     0
 49
-0.5
 74
     0
 49
1.0
 74
     0
 49
-0.5
 74
     0
 49
0.0
 74
     0
 49
-0.5
 74
     0
  0
LTYPE
  5
35
330
5
100
AcDbSymbolTableRecord
100
AcDbLinetypeTableRecord
  2
MITTE
 70
     0
  3
Mitte ____ _ ____ _ ____ _ ____
 72
    65
 73
     4
 40
2.0
 49
1.25
 74
     0
 49
-0.25
 74
     0
 49
0.25
 74
     0
 49
-0.25
 74
     0
  0
LTYPE
  5
36
330
5
100
AcDbSymbolTableRecord
100
AcDbLinetypeTableRecord
  2
MITTE2
 70
     0
  3
Mitte (.5x) ___ _ ___ _ ___ _ _
 72
    65
 73
     4
 40
1.125
 49
0.7500000000000001
 74
     0
 49
-0.125
 74
     0
 49
0.125
 74
     0
 49
-0.125
 74
     0
  0
LTYPE
  5
37
330
5
100
AcDbSymbolTableRecord
100
AcDbLinetypeTableRecord
  2
MITTEX2
 70
     0
  3
Mitte (2x) ________  __  ______
 72
    65
 73
     4
 40
4.0
 49
2.5
 74
     0
 49
-0.5
 74
     0
 49
0.5
 74
     0
 49
-0.5
 74
     0
  0
LTYPE
  5
38
330
5
100
AcDbSymbolTableRecord
100
AcDbLinetypeTableRecord
  2
STRICHPUNKT
 70
     0
  3
Strichpunkt __ . __ . __ . __ .
 72
    65
 73
     4
 40
1.0
 49
0.5
 74
     0
 49
-0.25
 74
     0
 49
0.0
 74
     0
 49
-0.25
 74
     0
  0
LTYPE
  5
39
330
5
100
AcDbSymbolTableRecord
100
AcDbLinetypeTableRecord
  2
STRICHPUNKT2
 70
     0
  3
Strichpunkt (.5x) _._._._._._._
 72
    65
 73
     4
 40
0.5
 49
0.25
 74
     0
 49
-0.125
 74
     0
 49
0.0
 74
     0
 49
-0.125
 74
     0
  0
LTYPE
  5
3A
330
5
100
AcDbSymbolTableRecord
100
AcDbLinetypeTableRecord
  2
STRICHPUNKTX2
 70
     0
  3
Strichpunkt (2x) ____  .  ____ 
 72
    65
 73
     4
 40
2.0
 49
1.0
 74
     0
 49
-0.5
 74
     0
 49
0.0
 74
     0
 49
-0.5
 74
     0
  0
LTYPE
  5
3B
330
5
100
AcDbSymbolTableRecord
100
AcDbLinetypeTableRecord
  2
STRICHLINIE
 70
     0
  3
Strichlinie __ __ __ __ __ __ _
 72
    65
 73
     2
 40
0.75
 49
0.5
 74
     0
 49
-0.25
 74
     0
  0
LTYPE
  5
3C
330
5
100
AcDbSymbolTableRecord
100
AcDbLinetypeTableRecord
  2
STRICHLINIE2
 70
     0
  3
Strichlinie (.5x) _ _ _ _ _ _ _
 72
    65
 73
     2
 40
0.375
 49
0.25
 74
     0
 49
-0.125
 74
     0
  0
LTYPE
  5
3D
330
5
100
AcDbSymbolTableRecord
100
AcDbLinetypeTableRecord
  2
STRICHLINIEX2
 70
     0
  3
Strichlinie (2x) ____  ____  __
 72
    65
 73
     2
 40
1.5
 49
1.0
 74
     0
 49
-0.5
 74
     0
  0
LTYPE
  5
3E
330
5
100
AcDbSymbolTableRecord
100
AcDbLinetypeTableRecord
  2
GETRENNT
 70
     0
  3
Getrennt ____ . . ____ . . ____
 72
    65
 73
     6
 40
1.25
 49
0.5
 74
     0
 49
-0.25
 74
     0
 49
0.0
 74
     0
 49
-0.25
 74
     0
 49
0.0
 74
     0
 49
-0.25
 74
     0
  0
LTYPE
  5
3F
330
5
100
AcDbSymbolTableRecord
100
AcDbLinetypeTableRecord
  2
GETRENNT2
 70
     0
  3
Getrennt (.5x) __..__..__..__..
 72
    65
 73
     6
 40
0.625
 49
0.25
 74
     0
 49
-0.125
 74
     0
 49
0.0
 74
     0
 49
-0.125
 74
     0
 49
0.0
 74
     0
 49
-0.125
 74
     0
  0
LTYPE
  5
40
330
5
100
AcDbSymbolTableRecord
100
AcDbLinetypeTableRecord
  2
GETRENNTX2
 70
     0
  3
Getrennt (2x) ________  .  .  _
 72
    65
 73
     6
 40
2.5
 49
1.0
 74
     0
 49
-0.5
 74
     0
 49
0.0
 74
     0
 49
-0.5
 74
     0
 49
0.0
 74
     0
 49
-0.5
 74
     0
  0
LTYPE
  5
41
330
5
100
AcDbSymbolTableRecord
100
AcDbLinetypeTableRecord
  2
PUNKT
 70
     0
  3
Punkt . . . . . . . . . . . . .
 72
    65
 73
     2
 40
0.25
 49
0.0
 74
     0
 49
-0.25
 74
     0
  0
LTYPE
  5
42
330
5
100
AcDbSymbolTableRecord
100
AcDbLinetypeTableRecord
  2
PUNKT2
 70
     0
  3
Punkt (.5x) ...................
 72
    65
 73
     2
 40
0.125
 49
0.0
 74
     0
 49
-0.125
 74
     0
  0
LTYPE
  5
43
330
5
100
AcDbSymbolTableRecord
100
AcDbLinetypeTableRecord
  2
PUNKTX2
 70
     0
  3
Punkt (2x) .  .  .  .  .  .  . 
 72
    65
 73
     2
 40
0.5
 49
0.0
 74
     0
 49
-0.5
 74
     0
  0
LTYPE
  5
44
330
5
100
AcDbSymbolTableRecord
100
AcDbLinetypeTableRecord
  2
VERDECKT
 70
     0
  3
Verdeckt __ __ __ __ __ __ __ _
 72
    65
 73
     2
 40
0.375
 49
0.25
 74
     0
 49
-0.125
 74
     0
  0
LTYPE
  5
45
330
5
100
AcDbSymbolTableRecord
100
AcDbLinetypeTableRecord
  2
VERDECKT2
 70
     0
  3
Verdeckt (.5x) _ _ _ _ _ _ _ _ 
 72
    65
 73
     2
 40
0.1875
 49
0.125
 74
     0
 49
-0.0625
 74
     0
  0
LTYPE
  5
46
330
5
100
AcDbSymbolTableRecord
100
AcDbLinetypeTableRecord
  2
VERDECKTX2
 70
     0
  3
Verdeckt (2x) ____ ____ ____ __
 72
    65
 73
     2
 40
0.75
 49
0.5
 74
     0
 49
-0.25
 74
     0
  0
LTYPE
  5
47
330
5
100
AcDbSymbolTableRecord
100
AcDbLinetypeTableRecord
  2
PHANTOM2
 70
     0
  3
Phantom (.5x) ___ _ _ ___ _ _ _
 72
    65
 73
     6
 40
1.25
 49
0.6250000000000001
 74
     0
 49
-0.125
 74
     0
 49
0.125
 74
     0
 49
-0.125
 74
     0
 49
0.125
 74
     0
 49
-0.125
 74
     0
  0
LTYPE
  5
48
330
5
100
AcDbSymbolTableRecord
100
AcDbLinetypeTableRecord
  2
PHANTOMX2
 70
     0
  3
Phantom (2x) ____________    __
 72
    65
 73
     6
 40
5.0
 49
2.5
 74
     0
 49
-0.5
 74
     0
 49
0.5
 74
     0
 49
-0.5
 74
     0
 49
0.5
 74
     0
 49
-0.5
 74
     0
  0
LTYPE
  5
49
330
5
100
AcDbSymbolTableRecord
100
AcDbLinetypeTableRecord
  2
PUNKTE
 70
     0
  3
Punkte - - - - - - - - - - - - 
 72
    65
 73
     2
 40
0.1
 49
0.05
 74
     0
 49
-0.05
 74
     0
  0
LTYPE
  5
4A
330
5
100
AcDbSymbolTableRecord
100
AcDbLinetypeTableRecord
  2
ACAD_ISO02W100
 70
     0
  3
__ __ __ __ __ __ __ __ __ __ _
 72
    65
 73
     2
 40
15.0
 49
12.0
 74
     0
 49
-3.0
 74
     0
  0
LTYPE
  5
4B
330
5
100
AcDbSymbolTableRecord
100
AcDbLinetypeTableRecord
  2
ACAD_ISO03W100
 70
     0
  3
__    __    __    __    __    _
 72
    65
 73
     2
 40
30.0
 49
12.0
 74
     0
 49
-18.0
 74
     0
  0
LTYPE
  5
4C
330
5
100
AcDbSymbolTableRecord
100
AcDbLinetypeTableRecord
  2
ACAD_ISO04W100
 70
     0
  3
____ . ____ . ____ . ____ . ___
 72
    65
 73
     4
 40
30.5
 49
24.0
 74
     0
 49
-3.0
 74
     0
 49
0.5
 74
     0
 49
-3.0
 74
     0
  0
LTYPE
  5
4D
330
5
100
AcDbSymbolTableRecord
100
AcDbLinetypeTableRecord
  2
ACAD_ISO05W100
 70
     0
  3
____ .. ____ .. ____ .. ____ ..
 72
    65
 73
     6
 40
34.0
 49
24.0
 74
     0
 49
-3.0
 74
     0
 49
0.5
 74
     0
 49
-3.0
 74
     0
 49
0.5
 74
     0
 49
-3.0
 74
     0
  0
LTYPE
  5
4E
330
5
100
AcDbSymbolTableRecord
100
AcDbLinetypeTableRecord
  2
ACAD_ISO06W100
 70
     0
  3
____ ... ____ ... ____ ... ____
 72
    65
 73
     6
 40
34.0
 49
24.0
 74
     0
 49
-3.0
 74
     0
 49
0.5
 74
     0
 49
-3.0
 74
     0
 49
0.5
 74
     0
 49
-3.0
 74
     0
  0
LTYPE
  5
4F
330
5
100
AcDbSymbolTableRecord
100
AcDbLinetypeTableRecord
  2
ACAD_ISO07W100
 70
     0
  3
. . . . . . . . . . . . . . . .
 72
    65
 73
     2
 40
3.5
 49
0.5
 74
     0
 49
-3.0
 74
     0
  0
LTYPE
  5
50
330
5
100
AcDbSymbolTableRecord
100
AcDbLinetypeTableRecord
  2
ACAD_ISO08W100
 70
     0
  3
____ __ ____ __ ____ __ ____ __
 72
    65
 73
     4
 40
36.0
 49
24.0
 74
     0
 49
-3.0
 74
     0
 49
6.0
 74
     0
 49
-3.0
 74
     0
  0
LTYPE
  5
51
330
5
100
AcDbSymbolTableRecord
100
AcDbLinetypeTableRecord
  2
ACAD_ISO09W100
 70
     0
  3
____ __ __ ____ __ __ ____ __ _
 72
    65
 73
     6
 40
45.0
 49
24.0
 74
     0
 49
-3.0
 74
     0
 49
6.0
 74
     0
 49
-3.0
 74
     0
 49
6.0
 74
     0
 49
-3.0
 74
     0
  0
LTYPE
  5
52
330
5
100
AcDbSymbolTableRecord
100
AcDbLinetypeTableRecord
  2
ACAD_ISO10W100
 70
     0
  3
__ . __ . __ . __ . __ . __ . _
 72
    65
 73
     4
 40
18.5
 49
12.0
 74
     0
 49
-3.0
 74
     0
 49
0.5
 74
     0
 49
-3.0
 74
     0
  0
LTYPE
  5
53
330
5
100
AcDbSymbolTableRecord
100
AcDbLinetypeTableRecord
  2
ACAD_ISO11W100
 70
     0
  3
__ __ . __ __ . __ __ . __ __ .
 72
    65
 73
     6
 40
33.5
 49
12.0
 74
     0
 49
-3.0
 74
     0
 49
12.0
 74
     0
 49
-3.0
 74
     0
 49
0.5
 74
     0
 49
-3.0
 74
     0
  0
LTYPE
  5
54
330
5
100
AcDbSymbolTableRecord
100
AcDbLinetypeTableRecord
  2
ACAD_ISO12W100
 70
     0
  3
__ . . __ . . __ . . __ . . __ 
 72
    65
 73
     6
 40
22.0
 49
12.0
 74
     0
 49
-3.0
 74
     0
 49
0.5
 74
     0
 49
-3.0
 74
     0
 49
0.5
 74
     0
 49
-3.0
 74
     0
  0
LTYPE
  5
55
330
5
100
AcDbSymbolTableRecord
100
AcDbLinetypeTableRecord
  2
ACAD_ISO13W100
 70
     0
  3
__ __ . . __ __ . . __ __ . . _
 72
    65
 73
     6
 40
33.5
 49
12.0
 74
     0
 49
-3.0
 74
     0
 49
12.0
 74
     0
 49
-3.0
 74
     0
 49
0.5
 74
     0
 49
-3.0
 74
     0
  0
LTYPE
  5
56
330
5
100
AcDbSymbolTableRecord
100
AcDbLinetypeTableRecord
  2
ACAD_ISO14W100
 70
     0
  3
__ . . . __ . . . __ . . . __ .
 72
    65
 73
     6
 40
22.0
 49
12.0
 74
     0
 49
-3.0
 74
     0
 49
0.5
 74
     0
 49
-3.0
 74
     0
 49
0.5
 74
     0
 49
-3.0
 74
     0
  0
LTYPE
  5
57
330
5
100
AcDbSymbolTableRecord
100
AcDbLinetypeTableRecord
  2
ACAD_ISO15W100
 70
     0
  3
__ __ . . . __ __ . . . __ __ .
 72
    65
 73
     6
 40
33.5
 49
12.0
 74
     0
 49
-3.0
 74
     0
 49
12.0
 74
     0
 49
-3.0
 74
     0
 49
0.5
 74
     0
 49
-3.0
 74
     0
  0
ENDTAB
  0
TABLE
  2
LAYER
  5
2
330
0
100
AcDbSymbolTable
 70
    11
  0
LAYER
  5
10
330
2
100
AcDbSymbolTableRecord
100
AcDbLayerTableRecord
  2
0
 70
     0
 62
     7
  6
Continuous
370
    -3
390
F
  0
LAYER
  5
58
330
2
100
AcDbSymbolTableRecord
100
AcDbLayerTableRecord
  2
BESCHRIFTUNG
 70
     5
 62
     7
  6
Continuous
370
    -3
390
F
  0
LAYER
  5
59
330
2
100
AcDbSymbolTableRecord
100
AcDbLayerTableRecord
  2
GRUNDRISSHALLE2EG
 70
     0
 62
     7
  6
Continuous
370
    -3
390
F
  0
LAYER
  5
5A
330
2
100
AcDbSymbolTableRecord
100
AcDbLayerTableRecord
  2
HALLE_0_1_EG
 70
     0
 62
     7
  6
Continuous
370
    -3
390
F
  0
LAYER
  5
5B
330
2
100
AcDbSymbolTableRecord
100
AcDbLayerTableRecord
  2
KOMMUNIKATION
 70
     1
 62
     7
  6
Continuous
370
    -3
390
F
  0
LAYER
  5
5C
330
2
100
AcDbSymbolTableRecord
100
AcDbLayerTableRecord
  2
MALER
 70
     1
 62
     7
  6
Continuous
370
    -3
390
F
  0
LAYER
  5
5D
330
2
100
AcDbSymbolTableRecord
100
AcDbLayerTableRecord
  2
RUNDGANG
 70
     1
 62
     7
  6
Continuous
370
    -3
390
F
  0
LAYER
  5
5E
330
2
100
AcDbSymbolTableRecord
100
AcDbLayerTableRecord
  2
SANITÄR
 70
     1
 62
     7
  6
Continuous
370
    -3
390
F
  0
LAYER
  5
5F
330
2
100
AcDbSymbolTableRecord
100
AcDbLayerTableRecord
  2
STANDBAU
 70
     1
 62
     7
  6
Continuous
370
    -3
390
F
  0
LAYER
  5
60
330
2
100
AcDbSymbolTableRecord
100
AcDbLayerTableRecord
  2
STANDZUTEILUNG
 70
     1
 62
     7
  6
Continuous
370
    -3
390
F
  0
LAYER
  5
61
330
2
100
AcDbSymbolTableRecord
100
AcDbLayerTableRecord
  2
STOFFBESPANNUNG
 70
     1
 62
     7
  6
Continuous
370
    -3
390
F
  0
ENDTAB
  0
TABLE
  2
STYLE
  5
3
330
0
100
AcDbSymbolTable
 70
     5
  0
STYLE
  5
11
330
3
100
AcDbSymbolTableRecord
100
AcDbTextStyleTableRecord
  2
Standard
 70
     0
 40
0.0
 41
1.0
 50
0.0
 71
     0
 42
0.5000000000000002
  3
txt
  4

  0
STYLE
  5
62
330
3
100
AcDbSymbolTableRecord
100
AcDbTextStyleTableRecord
  2
ITALIC
 70
     0
 40
0.0
 41
1.0
 50
0.0
 71
     0
 42
0.5000000000000002
  3
ITALIC
  4

  0
STYLE
  5
63
330
3
100
AcDbSymbolTableRecord
100
AcDbTextStyleTableRecord
  2
SIMPLEX
 70
     0
 40
0.0
 41
1.0
 50
0.0
 71
     0
 42
0.5000000000000002
  3
SIMPLEX
  4

  0
STYLE
  5
64
330
3
100
AcDbSymbolTableRecord
100
AcDbTextStyleTableRecord
  2
COMPLEX
 70
     0
 40
0.0
 41
1.0
 50
0.0
 71
     0
 42
0.5000000000000002
  3
COMPLEX
  4

  0
STYLE
  5
4F1
330
3
100
AcDbSymbolTableRecord
100
AcDbTextStyleTableRecord
  2
ARIAL
 70
     0
 40
0.0
 41
1.0
 50
0.0
 71
     0
 42
0.5000000000000002
  3
ARIAL.TTF
  4

1001
ACAD
1000
Arial
1071
        0
  0
ENDTAB
  0
TABLE
  2
VIEW
  5
6
330
0
100
AcDbSymbolTable
 70
     0
  0
ENDTAB
  0
TABLE
  2
UCS
  5
7
330
0
100
AcDbSymbolTable
 70
     0
  0
ENDTAB
  0
TABLE
  2
APPID
  5
9
330
0
100
AcDbSymbolTable
 70
     1
  0
APPID
  5
12
330
9
100
AcDbSymbolTableRecord
100
AcDbRegAppTableRecord
  2
ACAD
 70
     0
  0
ENDTAB
  0
TABLE
  2
DIMSTYLE
  5
A
330
0
100
AcDbSymbolTable
 70
     1
100
AcDbDimStyleTable
 71
     0
  0
DIMSTYLE
105
29
330
A
100
AcDbSymbolTableRecord
100
AcDbDimStyleTableRecord
  2
Standard
 70
     0
340
11
  0
ENDTAB
  0
TABLE
  2
BLOCK_RECORD
  5
1
330
0
100
AcDbSymbolTable
 70
     1
  0
BLOCK_RECORD
  5
21
330
1
100
AcDbSymbolTableRecord
100
AcDbBlockTableRecord
  2
*Model_Space
340
24
  0
BLOCK_RECORD
  5
1D
330
1
100
AcDbSymbolTableRecord
100
AcDbBlockTableRecord
  2
*Paper_Space
340
20
  0
BLOCK_RECORD
  5
25
330
1
100
AcDbSymbolTableRecord
100
AcDbBlockTableRecord
  2
*Paper_Space0
340
28
  0
ENDTAB
  0
ENDSEC
  0
SECTION
  2
BLOCKS
  0
BLOCK
  5
22
330
21
100
AcDbEntity
  8
0
100
AcDbBlockBegin
  2
*Model_Space
 70
     0
 10
0.0
 20
0.0
 30
0.0
  3
*Model_Space
  1

  0
ENDBLK
  5
23
330
21
100
AcDbEntity
  8
0
100
AcDbBlockEnd
  0
BLOCK
  5
1E
330
1D
100
AcDbEntity
 67
     1
  8
0
100
AcDbBlockBegin
  2
*Paper_Space
 70
     0
 10
0.0
 20
0.0
 30
0.0
  3
*Paper_Space
  1

  0
ENDBLK
  5
1F
330
1D
100
AcDbEntity
 67
     1
  8
0
100
AcDbBlockEnd
  0
BLOCK
  5
26
330
25
100
AcDbEntity
  8
0
100
AcDbBlockBegin
  2
*Paper_Space0
 70
     0
 10
0.0
 20
0.0
 30
0.0
  3
*Paper_Space0
  1

  0
ENDBLK
  5
27
330
25
100
AcDbEntity
  8
0
100
AcDbBlockEnd
  0
ENDSEC
  0
SECTION
  2
ENTITIES
  0
LINE
  5
65
330
21
100
AcDbEntity
  8
STANDZUTEILUNG
  6
Continuous
 62
     0
100
AcDbLine
 10
63.0
 20
26.24999999999999
 30
0.0
 11
63.0
 21
23.24999999999999
 31
0.0
  0
LINE
  5
66
330
21
100
AcDbEntity
  8
RUNDGANG
  6
Continuous
 62
     0
100
AcDbLine
 10
34.00000000000001
 20
20.0
 30
0.0
 11
33.99999999999999
 21
30.0
 31
0.0
  0
LINE
  5
67
330
21
100
AcDbEntity
  8
RUNDGANG
  6
Continuous
 62
     0
100
AcDbLine
 10
4.0
 20
20.0
 30
0.0
 11
43.74999999999999
 21
20.0
 31
0.0
  0
LINE
  5
68
330
21
100
AcDbEntity
  8
RUNDGANG
  6
Continuous
 62
     0
100
AcDbLine
 10
4.0
 20
20.0
 30
0.0
 11
3.999999999999983
 21
35.5
 31
0.0
  0
LINE
  5
69
330
21
100
AcDbEntity
  8
RUNDGANG
  6
Continuous
 62
     0
100
AcDbLine
 10
4.0
 20
21.0
 30
0.0
 11
43.74999999999999
 21
21.0
 31
0.0
  0
LINE
  5
6A
330
21
100
AcDbEntity
  8
RUNDGANG
  6
Continuous
 62
     0
100
AcDbLine
 10
4.0
 20
22.0
 30
0.0
 11
43.74999999999999
 21
22.0
 31
0.0
  0
LINE
  5
6B
330
21
100
AcDbEntity
  8
RUNDGANG
  6
Continuous
 62
     0
100
AcDbLine
 10
4.0
 20
23.0
 30
0.0
 11
43.74999999999999
 21
23.0
 31
0.0
  0
LINE
  5
6C
330
21
100
AcDbEntity
  8
RUNDGANG
  6
Continuous
 62
     0
100
AcDbLine
 10
5.0
 20
20.0
 30
0.0
 11
4.999999999999983
 21
35.5
 31
0.0
  0
LINE
  5
6D
330
21
100
AcDbEntity
  8
RUNDGANG
  6
Continuous
 62
     0
100
AcDbLine
 10
6.0
 20
20.0
 30
0.0
 11
5.999999999999983
 21
35.5
 31
0.0
  0
LINE
  5
6E
330
21
100
AcDbEntity
  8
RUNDGANG
  6
Continuous
 62
     0
100
AcDbLine
 10
6.999999999999999
 20
20.0
 30
0.0
 11
6.999999999999999
 21
23.0
 31
0.0
  0
LINE
  5
6F
330
21
100
AcDbEntity
  8
RUNDGANG
  6
Continuous
 62
     0
100
AcDbLine
 10
8.0
 20
20.0
 30
0.0
 11
8.0
 21
23.0
 31
0.0
  0
LINE
  5
70
330
21
100
AcDbEntity
  8
RUNDGANG
  6
Continuous
 62
     0
100
AcDbLine
 10
9.0
 20
20.0
 30
0.0
 11
9.0
 21
23.0
 31
0.0
  0
LINE
  5
71
330
21
100
AcDbEntity
  8
RUNDGANG
  6
Continuous
 62
     0
100
AcDbLine
 10
10.0
 20
20.0
 30
0.0
 11
10.0
 21
23.0
 31
0.0
  0
LINE
  5
72
330
21
100
AcDbEntity
  8
RUNDGANG
  6
Continuous
 62
     0
100
AcDbLine
 10
11.0
 20
20.0
 30
0.0
 11
11.0
 21
23.0
 31
0.0
  0
LINE
  5
73
330
21
100
AcDbEntity
  8
RUNDGANG
  6
Continuous
 62
     0
100
AcDbLine
 10
12.0
 20
20.0
 30
0.0
 11
12.0
 21
23.0
 31
0.0
  0
LINE
  5
74
330
21
100
AcDbEntity
  8
RUNDGANG
  6
Continuous
 62
     0
100
AcDbLine
 10
13.0
 20
20.0
 30
0.0
 11
13.0
 21
23.0
 31
0.0
  0
LINE
  5
75
330
21
100
AcDbEntity
  8
RUNDGANG
  6
Continuous
 62
     0
100
AcDbLine
 10
14.0
 20
20.0
 30
0.0
 11
14.0
 21
23.0
 31
0.0
  0
LINE
  5
76
330
21
100
AcDbEntity
  8
RUNDGANG
  6
Continuous
 62
     0
100
AcDbLine
 10
15.0
 20
20.0
 30
0.0
 11
15.0
 21
23.0
 31
0.0
  0
LINE
  5
77
330
21
100
AcDbEntity
  8
RUNDGANG
  6
Continuous
 62
     0
100
AcDbLine
 10
16.0
 20
20.0
 30
0.0
 11
16.0
 21
23.0
 31
0.0
  0
LINE
  5
78
330
21
100
AcDbEntity
  8
RUNDGANG
  6
Continuous
 62
     0
100
AcDbLine
 10
17.0
 20
20.0
 30
0.0
 11
16.99999999999999
 21
30.0
 31
0.0
  0
LINE
  5
79
330
21
100
AcDbEntity
  8
RUNDGANG
  6
Continuous
 62
     0
100
AcDbLine
 10
24.00000000000001
 20
20.0
 30
0.0
 11
24.00000000000001
 21
23.0
 31
0.0
  0
LINE
  5
7A
330
21
100
AcDbEntity
  8
RUNDGANG
  6
Continuous
 62
     0
100
AcDbLine
 10
25.00000000000001
 20
20.0
 30
0.0
 11
25.00000000000001
 21
23.0
 31
0.0
  0
LINE
  5
7B
330
21
100
AcDbEntity
  8
RUNDGANG
  6
Continuous
 62
     0
100
AcDbLine
 10
26.00000000000001
 20
20.0
 30
0.0
 11
26.00000000000001
 21
23.0
 31
0.0
  0
LINE
  5
7C
330
21
100
AcDbEntity
  8
RUNDGANG
  6
Continuous
 62
     0
100
AcDbLine
 10
27.00000000000001
 20
20.0
 30
0.0
 11
27.00000000000001
 21
23.0
 31
0.0
  0
LINE
  5
7D
330
21
100
AcDbEntity
  8
RUNDGANG
  6
Continuous
 62
     0
100
AcDbLine
 10
28.00000000000001
 20
20.0
 30
0.0
 11
28.00000000000001
 21
23.0
 31
0.0
  0
LINE
  5
7E
330
21
100
AcDbEntity
  8
RUNDGANG
  6
Continuous
 62
     0
100
AcDbLine
 10
29.00000000000001
 20
20.0
 30
0.0
 11
29.00000000000001
 21
23.0
 31
0.0
  0
LINE
  5
7F
330
21
100
AcDbEntity
  8
RUNDGANG
  6
Continuous
 62
     0
100
AcDbLine
 10
30.00000000000002
 20
20.0
 30
0.0
 11
30.00000000000002
 21
23.0
 31
0.0
  0
LINE
  5
80
330
21
100
AcDbEntity
  8
RUNDGANG
  6
Continuous
 62
     0
100
AcDbLine
 10
31.00000000000001
 20
20.0
 30
0.0
 11
31.00000000000001
 21
23.0
 31
0.0
  0
LINE
  5
81
330
21
100
AcDbEntity
  8
RUNDGANG
  6
Continuous
 62
     0
100
AcDbLine
 10
32.00000000000001
 20
20.0
 30
0.0
 11
32.00000000000001
 21
23.0
 31
0.0
  0
LINE
  5
82
330
21
100
AcDbEntity
  8
RUNDGANG
  6
Continuous
 62
     0
100
AcDbLine
 10
33.0
 20
20.0
 30
0.0
 11
33.0
 21
23.0
 31
0.0
  0
LINE
  5
83
330
21
100
AcDbEntity
  8
RUNDGANG
  6
Continuous
 62
     0
100
AcDbLine
 10
40.0
 20
20.0
 30
0.0
 11
40.0
 21
23.0
 31
0.0
  0
LINE
  5
84
330
21
100
AcDbEntity
  8
RUNDGANG
  6
Continuous
 62
     0
100
AcDbLine
 10
40.99999999999998
 20
20.0
 30
0.0
 11
40.99999999999998
 21
23.0
 31
0.0
  0
LINE
  5
85
330
21
100
AcDbEntity
  8
RUNDGANG
  6
Continuous
 62
     0
100
AcDbLine
 10
41.99999999999999
 20
20.0
 30
0.0
 11
41.99999999999999
 21
23.0
 31
0.0
  0
LINE
  5
86
330
21
100
AcDbEntity
  8
RUNDGANG
  6
Continuous
 62
     0
100
AcDbLine
 10
42.99999999999998
 20
20.0
 30
0.0
 11
42.99999999999998
 21
23.0
 31
0.0
  0
LINE
  5
87
330
21
100
AcDbEntity
  8
RUNDGANG
  6
Continuous
 62
     0
100
AcDbLine
 10
43.74999999999999
 20
20.0
 30
0.0
 11
43.74999999999999
 21
23.0
 31
0.0
  0
LINE
  5
88
330
21
100
AcDbEntity
  8
RUNDGANG
  6
Continuous
 62
     0
100
AcDbLine
 10
4.0
 20
24.0
 30
0.0
 11
6.0
 21
24.0
 31
0.0
  0
LINE
  5
89
330
21
100
AcDbEntity
  8
RUNDGANG
  6
Continuous
 62
     0
100
AcDbLine
 10
4.0
 20
25.0
 30
0.0
 11
6.0
 21
25.0
 31
0.0
  0
LINE
  5
8A
330
21
100
AcDbEntity
  8
RUNDGANG
  6
Continuous
 62
     0
100
AcDbLine
 10
4.0
 20
26.0
 30
0.0
 11
6.0
 21
26.0
 31
0.0
  0
LINE
  5
8B
330
21
100
AcDbEntity
  8
RUNDGANG
  6
Continuous
 62
     0
100
AcDbLine
 10
4.0
 20
27.0
 30
0.0
 11
6.0
 21
27.0
 31
0.0
  0
LINE
  5
8C
330
21
100
AcDbEntity
  8
RUNDGANG
  6
Continuous
 62
     0
100
AcDbLine
 10
4.0
 20
28.0
 30
0.0
 11
6.0
 21
28.0
 31
0.0
  0
LINE
  5
8D
330
21
100
AcDbEntity
  8
RUNDGANG
  6
Continuous
 62
     0
100
AcDbLine
 10
4.0
 20
29.0
 30
0.0
 11
6.0
 21
29.0
 31
0.0
  0
LINE
  5
8E
330
21
100
AcDbEntity
  8
RUNDGANG
  6
Continuous
 62
     0
100
AcDbLine
 10
4.0
 20
30.0
 30
0.0
 11
6.0
 21
30.0
 31
0.0
  0
LINE
  5
8F
330
21
100
AcDbEntity
  8
RUNDGANG
  6
Continuous
 62
     0
100
AcDbLine
 10
4.0
 20
31.0
 30
0.0
 11
6.0
 21
31.0
 31
0.0
  0
LINE
  5
90
330
21
100
AcDbEntity
  8
RUNDGANG
  6
Continuous
 62
     0
100
AcDbLine
 10
4.0
 20
32.0
 30
0.0
 11
6.0
 21
32.0
 31
0.0
  0
LINE
  5
91
330
21
100
AcDbEntity
  8
RUNDGANG
  6
Continuous
 62
     0
100
AcDbLine
 10
4.0
 20
33.0
 30
0.0
 11
6.0
 21
33.0
 31
0.0
  0
LINE
  5
92
330
21
100
AcDbEntity
  8
RUNDGANG
  6
Continuous
 62
     0
100
AcDbLine
 10
4.0
 20
34.0
 30
0.0
 11
6.0
 21
34.0
 31
0.0
  0
LINE
  5
93
330
21
100
AcDbEntity
  8
RUNDGANG
  6
Continuous
 62
     0
100
AcDbLine
 10
4.0
 20
35.0
 30
0.0
 11
6.0
 21
35.0
 31
0.0
  0
LINE
  5
94
330
21
100
AcDbEntity
  8
RUNDGANG
  6
Continuous
 62
     0
100
AcDbLine
 10
4.0
 20
35.5
 30
0.0
 11
6.0
 21
35.5
 31
0.0
  0
LINE
  5
95
330
21
100
AcDbEntity
  8
RUNDGANG
  6
Continuous
 62
     0
100
AcDbLine
 10
18.0
 20
20.0
 30
0.0
 11
17.99999999999999
 21
30.0
 31
0.0
  0
LINE
  5
96
330
21
100
AcDbEntity
  8
RUNDGANG
  6
Continuous
 62
     0
100
AcDbLine
 10
19.0
 20
20.0
 30
0.0
 11
18.99999999999999
 21
30.0
 31
0.0
  0
LINE
  5
97
330
21
100
AcDbEntity
  8
RUNDGANG
  6
Continuous
 62
     0
100
AcDbLine
 10
20.0
 20
20.0
 30
0.0
 11
19.99999999999999
 21
30.0
 31
0.0
  0
LINE
  5
98
330
21
100
AcDbEntity
  8
RUNDGANG
  6
Continuous
 62
     0
100
AcDbLine
 10
21.0
 20
20.0
 30
0.0
 11
20.99999999999999
 21
30.0
 31
0.0
  0
LINE
  5
99
330
21
100
AcDbEntity
  8
RUNDGANG
  6
Continuous
 62
     0
100
AcDbLine
 10
22.00000000000001
 20
20.0
 30
0.0
 11
21.99999999999999
 21
30.0
 31
0.0
  0
LINE
  5
9A
330
21
100
AcDbEntity
  8
RUNDGANG
  6
Continuous
 62
     0
100
AcDbLine
 10
23.0
 20
20.0
 30
0.0
 11
22.99999999999999
 21
30.0
 31
0.0
  0
LINE
  5
9B
330
21
100
AcDbEntity
  8
RUNDGANG
  6
Continuous
 62
     0
100
AcDbLine
 10
35.00000000000001
 20
20.0
 30
0.0
 11
35.0
 21
30.0
 31
0.0
  0
LINE
  5
9C
330
21
100
AcDbEntity
  8
RUNDGANG
  6
Continuous
 62
     0
100
AcDbLine
 10
36.00000000000001
 20
20.0
 30
0.0
 11
36.0
 21
30.0
 31
0.0
  0
LINE
  5
9D
330
21
100
AcDbEntity
  8
RUNDGANG
  6
Continuous
 62
     0
100
AcDbLine
 10
37.00000000000001
 20
20.0
 30
0.0
 11
36.99999999999999
 21
30.0
 31
0.0
  0
LINE
  5
9E
330
21
100
AcDbEntity
  8
RUNDGANG
  6
Continuous
 62
     0
100
AcDbLine
 10
38.00000000000001
 20
20.0
 30
0.0
 11
38.0
 21
30.0
 31
0.0
  0
LINE
  5
9F
330
21
100
AcDbEntity
  8
RUNDGANG
  6
Continuous
 62
     0
100
AcDbLine
 10
39.00000000000001
 20
20.0
 30
0.0
 11
39.0
 21
30.0
 31
0.0
  0
LINE
  5
A0
330
21
100
AcDbEntity
  8
RUNDGANG
  6
Continuous
 62
     0
100
AcDbLine
 10
17.0
 20
24.0
 30
0.0
 11
23.0
 21
24.0
 31
0.0
  0
LINE
  5
A1
330
21
100
AcDbEntity
  8
RUNDGANG
  6
Continuous
 62
     0
100
AcDbLine
 10
34.0
 20
24.0
 30
0.0
 11
39.0
 21
24.0
 31
0.0
  0
LINE
  5
A2
330
21
100
AcDbEntity
  8
RUNDGANG
  6
Continuous
 62
     0
100
AcDbLine
 10
17.0
 20
25.0
 30
0.0
 11
23.0
 21
25.0
 31
0.0
  0
LINE
  5
A3
330
21
100
AcDbEntity
  8
RUNDGANG
  6
Continuous
 62
     0
100
AcDbLine
 10
17.0
 20
26.0
 30
0.0
 11
23.0
 21
26.0
 31
0.0
  0
LINE
  5
A4
330
21
100
AcDbEntity
  8
RUNDGANG
  6
Continuous
 62
     0
100
AcDbLine
 10
17.0
 20
27.0
 30
0.0
 11
23.0
 21
27.0
 31
0.0
  0
LINE
  5
A5
330
21
100
AcDbEntity
  8
RUNDGANG
  6
Continuous
 62
     0
100
AcDbLine
 10
17.0
 20
28.0
 30
0.0
 11
23.0
 21
28.0
 31
0.0
  0
LINE
  5
A6
330
21
100
AcDbEntity
  8
RUNDGANG
  6
Continuous
 62
     0
100
AcDbLine
 10
17.0
 20
29.0
 30
0.0
 11
23.0
 21
29.0
 31
0.0
  0
LINE
  5
A7
330
21
100
AcDbEntity
  8
RUNDGANG
  6
Continuous
 62
     0
100
AcDbLine
 10
17.0
 20
30.0
 30
0.0
 11
23.0
 21
30.0
 31
0.0
  0
LINE
  5
A8
330
21
100
AcDbEntity
  8
RUNDGANG
  6
Continuous
 62
     0
100
AcDbLine
 10
34.0
 20
25.0
 30
0.0
 11
39.0
 21
25.0
 31
0.0
  0
LINE
  5
A9
330
21
100
AcDbEntity
  8
RUNDGANG
  6
Continuous
 62
     0
100
AcDbLine
 10
34.0
 20
26.0
 30
0.0
 11
39.0
 21
26.0
 31
0.0
  0
LINE
  5
AA
330
21
100
AcDbEntity
  8
RUNDGANG
  6
Continuous
 62
     0
100
AcDbLine
 10
34.0
 20
27.0
 30
0.0
 11
39.0
 21
27.0
 31
0.0
  0
LINE
  5
AB
330
21
100
AcDbEntity
  8
RUNDGANG
  6
Continuous
 62
     0
100
AcDbLine
 10
34.0
 20
28.0
 30
0.0
 11
39.0
 21
28.0
 31
0.0
  0
LINE
  5
AC
330
21
100
AcDbEntity
  8
RUNDGANG
  6
Continuous
 62
     0
100
AcDbLine
 10
34.0
 20
29.0
 30
0.0
 11
39.0
 21
29.0
 31
0.0
  0
LINE
  5
AD
330
21
100
AcDbEntity
  8
RUNDGANG
  6
Continuous
 62
     0
100
AcDbLine
 10
34.0
 20
30.0
 30
0.0
 11
39.0
 21
30.0
 31
0.0
  0
LINE
  5
AE
330
21
100
AcDbEntity
  8
RUNDGANG
  6
Continuous
 62
     0
100
AcDbLine
 10
44.24999999999999
 20
26.5
 30
0.0
 11
47.25
 21
26.5
 31
0.0
  0
LINE
  5
AF
330
21
100
AcDbEntity
  8
RUNDGANG
  6
Continuous
 62
     0
100
AcDbLine
 10
44.24999999999999
 20
27.5
 30
0.0
 11
47.25
 21
27.5
 31
0.0
  0
LINE
  5
B0
330
21
100
AcDbEntity
  8
RUNDGANG
  6
Continuous
 62
     0
100
AcDbLine
 10
44.24999999999999
 20
28.50000000000001
 30
0.0
 11
47.25
 21
28.50000000000001
 31
0.0
  0
LINE
  5
B1
330
21
100
AcDbEntity
  8
RUNDGANG
  6
Continuous
 62
     0
100
AcDbLine
 10
44.24999999999999
 20
29.50000000000001
 30
0.0
 11
47.25
 21
29.50000000000001
 31
0.0
  0
LINE
  5
B2
330
21
100
AcDbEntity
  8
RUNDGANG
  6
Continuous
 62
     0
100
AcDbLine
 10
44.24999999999999
 20
30.5
 30
0.0
 11
47.25
 21
30.5
 31
0.0
  0
LINE
  5
B3
330
21
100
AcDbEntity
  8
RUNDGANG
  6
Continuous
 62
     0
100
AcDbLine
 10
44.24999999999999
 20
31.5
 30
0.0
 11
47.25
 21
31.5
 31
0.0
  0
LINE
  5
B4
330
21
100
AcDbEntity
  8
RUNDGANG
  6
Continuous
 62
     0
100
AcDbLine
 10
44.24999999999999
 20
32.5
 30
0.0
 11
64.25
 21
32.5
 31
0.0
  0
LINE
  5
B5
330
21
100
AcDbEntity
  8
RUNDGANG
  6
Continuous
 62
     0
100
AcDbLine
 10
44.24999999999999
 20
33.50000000000001
 30
0.0
 11
64.25
 21
33.50000000000001
 31
0.0
  0
LINE
  5
B6
330
21
100
AcDbEntity
  8
RUNDGANG
  6
Continuous
 62
     0
100
AcDbLine
 10
44.24999999999999
 20
34.5
 30
0.0
 11
64.25
 21
34.5
 31
0.0
  0
LINE
  5
B7
330
21
100
AcDbEntity
  8
RUNDGANG
  6
Continuous
 62
     0
100
AcDbLine
 10
44.24999999999999
 20
35.50000000000001
 30
0.0
 11
44.24999999999999
 21
26.5
 31
0.0
  0
LINE
  5
B8
330
21
100
AcDbEntity
  8
RUNDGANG
  6
Continuous
 62
     0
100
AcDbLine
 10
47.25
 20
32.0
 30
0.0
 11
57.75
 21
32.0
 31
0.0
  0
LINE
  5
B9
330
21
100
AcDbEntity
  8
RUNDGANG
  6
Continuous
 62
     0
100
AcDbLine
 10
57.75
 20
31.5
 30
0.0
 11
64.25
 21
31.5
 31
0.0
  0
LINE
  5
BA
330
21
100
AcDbEntity
  8
RUNDGANG
  6
Continuous
 62
     0
100
AcDbLine
 10
57.75
 20
30.5
 30
0.0
 11
64.25
 21
30.5
 31
0.0
  0
LINE
  5
BB
330
21
100
AcDbEntity
  8
RUNDGANG
  6
Continuous
 62
     0
100
AcDbLine
 10
57.75
 20
29.50000000000001
 30
0.0
 11
64.25
 21
29.50000000000001
 31
0.0
  0
LINE
  5
BC
330
21
100
AcDbEntity
  8
RUNDGANG
  6
Continuous
 62
     0
100
AcDbLine
 10
57.75
 20
29.0
 30
0.0
 11
64.25
 21
29.0
 31
0.0
  0
LINE
  5
BD
330
21
100
AcDbEntity
  8
RUNDGANG
  6
Continuous
 62
     0
100
AcDbLine
 10
57.75
 20
32.0
 30
0.0
 11
57.75
 21
29.0
 31
0.0
  0
LINE
  5
BE
330
21
100
AcDbEntity
  8
RUNDGANG
  6
Continuous
 62
     0
100
AcDbLine
 10
50.00000000000001
 20
23.24999999999999
 30
0.0
 11
69.00000000000002
 21
23.24999999999999
 31
0.0
  0
LINE
  5
BF
330
21
100
AcDbEntity
  8
RUNDGANG
  6
Continuous
 62
     0
100
AcDbLine
 10
50.00000000000001
 20
24.24999999999999
 30
0.0
 11
69.00000000000002
 21
24.24999999999999
 31
0.0
  0
LINE
  5
C0
330
21
100
AcDbEntity
  8
RUNDGANG
  6
Continuous
 62
     0
100
AcDbLine
 10
50.00000000000001
 20
23.24999999999999
 30
0.0
 11
50.0
 21
29.25000000000001
 31
0.0
  0
LINE
  5
C1
330
21
100
AcDbEntity
  8
RUNDGANG
  6
Continuous
 62
     0
100
AcDbLine
 10
51.00000000000001
 20
23.24999999999999
 30
0.0
 11
51.00000000000001
 21
29.25000000000001
 31
0.0
  0
LINE
  5
C2
330
21
100
AcDbEntity
  8
RUNDGANG
  6
Continuous
 62
     0
100
AcDbLine
 10
52.00000000000001
 20
23.24999999999999
 30
0.0
 11
52.00000000000001
 21
29.25000000000001
 31
0.0
  0
LINE
  5
C3
330
21
100
AcDbEntity
  8
RUNDGANG
  6
Continuous
 62
     0
100
AcDbLine
 10
53.0
 20
23.24999999999999
 30
0.0
 11
53.0
 21
29.25000000000001
 31
0.0
  0
LINE
  5
C4
330
21
100
AcDbEntity
  8
RUNDGANG
  6
Continuous
 62
     0
100
AcDbLine
 10
54.00000000000001
 20
23.24999999999999
 30
0.0
 11
54.00000000000001
 21
29.25000000000001
 31
0.0
  0
LINE
  5
C5
330
21
100
AcDbEntity
  8
RUNDGANG
  6
Continuous
 62
     0
100
AcDbLine
 10
55.00000000000001
 20
23.24999999999999
 30
0.0
 11
55.0
 21
29.25000000000001
 31
0.0
  0
LINE
  5
C6
330
21
100
AcDbEntity
  8
RUNDGANG
  6
Continuous
 62
     0
100
AcDbLine
 10
56.00000000000001
 20
23.24999999999999
 30
0.0
 11
56.00000000000001
 21
26.24999999999999
 31
0.0
  0
LINE
  5
C7
330
21
100
AcDbEntity
  8
RUNDGANG
  6
Continuous
 62
     0
100
AcDbLine
 10
57.00000000000001
 20
23.24999999999999
 30
0.0
 11
57.00000000000001
 21
26.24999999999999
 31
0.0
  0
LINE
  5
C8
330
21
100
AcDbEntity
  8
RUNDGANG
  6
Continuous
 62
     0
100
AcDbLine
 10
58.0
 20
23.24999999999999
 30
0.0
 11
58.0
 21
26.24999999999999
 31
0.0
  0
LINE
  5
C9
330
21
100
AcDbEntity
  8
RUNDGANG
  6
Continuous
 62
     0
100
AcDbLine
 10
59.00000000000001
 20
23.24999999999999
 30
0.0
 11
59.00000000000001
 21
26.24999999999999
 31
0.0
  0
LINE
  5
CA
330
21
100
AcDbEntity
  8
RUNDGANG
  6
Continuous
 62
     0
100
AcDbLine
 10
60.0
 20
23.24999999999999
 30
0.0
 11
60.0
 21
26.24999999999999
 31
0.0
  0
LINE
  5
CB
330
21
100
AcDbEntity
  8
RUNDGANG
  6
Continuous
 62
     0
100
AcDbLine
 10
61.0
 20
23.24999999999999
 30
0.0
 11
61.0
 21
26.24999999999999
 31
0.0
  0
LINE
  5
CC
330
21
100
AcDbEntity
  8
RUNDGANG
  6
Continuous
 62
     0
100
AcDbLine
 10
62.00000000000001
 20
23.24999999999999
 30
0.0
 11
62.00000000000001
 21
26.24999999999999
 31
0.0
  0
LINE
  5
CD
330
21
100
AcDbEntity
  8
RUNDGANG
  6
Continuous
 62
     0
100
AcDbLine
 10
63.0
 20
23.24999999999999
 30
0.0
 11
63.0
 21
26.24999999999999
 31
0.0
  0
LINE
  5
CE
330
21
100
AcDbEntity
  8
RUNDGANG
  6
Continuous
 62
     0
100
AcDbLine
 10
64.0
 20
23.24999999999999
 30
0.0
 11
64.0
 21
26.24999999999999
 31
0.0
  0
LINE
  5
CF
330
21
100
AcDbEntity
  8
RUNDGANG
  6
Continuous
 62
     0
100
AcDbLine
 10
65.0
 20
23.24999999999999
 30
0.0
 11
65.0
 21
26.24999999999999
 31
0.0
  0
LINE
  5
D0
330
21
100
AcDbEntity
  8
RUNDGANG
  6
Continuous
 62
     0
100
AcDbLine
 10
66.0
 20
23.24999999999999
 30
0.0
 11
66.0
 21
26.24999999999999
 31
0.0
  0
LINE
  5
D1
330
21
100
AcDbEntity
  8
RUNDGANG
  6
Continuous
 62
     0
100
AcDbLine
 10
67.00000000000001
 20
23.24999999999999
 30
0.0
 11
67.0
 21
35.24999999999999
 31
0.0
  0
LINE
  5
D2
330
21
100
AcDbEntity
  8
RUNDGANG
  6
Continuous
 62
     0
100
AcDbLine
 10
68.00000000000001
 20
23.24999999999999
 30
0.0
 11
68.0
 21
35.24999999999999
 31
0.0
  0
LINE
  5
D3
330
21
100
AcDbEntity
  8
RUNDGANG
  6
Continuous
 62
     0
100
AcDbLine
 10
69.0
 20
23.24999999999999
 30
0.0
 11
69.0
 21
35.24999999999999
 31
0.0
  0
LINE
  5
D4
330
21
100
AcDbEntity
  8
RUNDGANG
  6
Continuous
 62
     0
100
AcDbLine
 10
50.00000000000001
 20
25.24999999999999
 30
0.0
 11
69.0
 21
25.24999999999999
 31
0.0
  0
LINE
  5
D5
330
21
100
AcDbEntity
  8
RUNDGANG
  6
Continuous
 62
     0
100
AcDbLine
 10
50.00000000000001
 20
26.24999999999999
 30
0.0
 11
69.0
 21
26.24999999999999
 31
0.0
  0
LINE
  5
D6
330
21
100
AcDbEntity
  8
RUNDGANG
  6
Continuous
 62
     0
100
AcDbLine
 10
50.00000000000001
 20
27.24999999999999
 30
0.0
 11
55.00000000000001
 21
27.24999999999999
 31
0.0
  0
LINE
  5
D7
330
21
100
AcDbEntity
  8
RUNDGANG
  6
Continuous
 62
     0
100
AcDbLine
 10
50.00000000000001
 20
28.24999999999999
 30
0.0
 11
55.00000000000001
 21
28.24999999999999
 31
0.0
  0
LINE
  5
D8
330
21
100
AcDbEntity
  8
RUNDGANG
  6
Continuous
 62
     0
100
AcDbLine
 10
50.00000000000001
 20
29.25
 30
0.0
 11
55.00000000000001
 21
29.25
 31
0.0
  0
LINE
  5
D9
330
21
100
AcDbEntity
  8
RUNDGANG
  6
Continuous
 62
     0
100
AcDbLine
 10
67.00000000000001
 20
27.24999999999999
 30
0.0
 11
69.0
 21
27.24999999999999
 31
0.0
  0
LINE
  5
DA
330
21
100
AcDbEntity
  8
RUNDGANG
  6
Continuous
 62
     0
100
AcDbLine
 10
67.00000000000001
 20
28.24999999999999
 30
0.0
 11
69.0
 21
28.24999999999999
 31
0.0
  0
LINE
  5
DB
330
21
100
AcDbEntity
  8
RUNDGANG
  6
Continuous
 62
     0
100
AcDbLine
 10
67.00000000000001
 20
29.25
 30
0.0
 11
69.0
 21
29.25
 31
0.0
  0
LINE
  5
DC
330
21
100
AcDbEntity
  8
RUNDGANG
  6
Continuous
 62
     0
100
AcDbLine
 10
67.00000000000001
 20
30.25
 30
0.0
 11
69.0
 21
30.25
 31
0.0
  0
LINE
  5
DD
330
21
100
AcDbEntity
  8
RUNDGANG
  6
Continuous
 62
     0
100
AcDbLine
 10
67.00000000000001
 20
31.25000000000001
 30
0.0
 11
69.0
 21
31.25000000000001
 31
0.0
  0
LINE
  5
DE
330
21
100
AcDbEntity
  8
RUNDGANG
  6
Continuous
 62
     0
100
AcDbLine
 10
67.00000000000001
 20
32.25000000000002
 30
0.0
 11
69.0
 21
32.25000000000002
 31
0.0
  0
LINE
  5
DF
330
21
100
AcDbEntity
  8
RUNDGANG
  6
Continuous
 62
     0
100
AcDbLine
 10
67.00000000000001
 20
33.25000000000002
 30
0.0
 11
69.0
 21
33.25000000000002
 31
0.0
  0
LINE
  5
E0
330
21
100
AcDbEntity
  8
RUNDGANG
  6
Continuous
 62
     0
100
AcDbLine
 10
67.00000000000001
 20
34.25000000000003
 30
0.0
 11
69.0
 21
34.25000000000003
 31
0.0
  0
LINE
  5
E1
330
21
100
AcDbEntity
  8
RUNDGANG
  6
Continuous
 62
     0
100
AcDbLine
 10
67.00000000000001
 20
35.25000000000003
 30
0.0
 11
69.0
 21
35.25000000000003
 31
0.0
  0
LINE
  5
E2
330
21
100
AcDbEntity
  8
RUNDGANG
  6
Continuous
 62
     0
100
AcDbLine
 10
44.24999999999999
 20
35.5
 30
0.0
 11
64.25
 21
35.5
 31
0.0
  0
LINE
  5
E3
330
21
100
AcDbEntity
  8
RUNDGANG
  6
Continuous
 62
     0
100
AcDbLine
 10
45.24999999999999
 20
35.50000000000001
 30
0.0
 11
45.24999999999999
 21
26.5
 31
0.0
  0
LINE
  5
E4
330
21
100
AcDbEntity
  8
RUNDGANG
  6
Continuous
 62
     0
100
AcDbLine
 10
46.25
 20
35.50000000000001
 30
0.0
 11
46.25
 21
26.5
 31
0.0
  0
LINE
  5
E5
330
21
100
AcDbEntity
  8
RUNDGANG
  6
Continuous
 62
     0
100
AcDbLine
 10
47.25
 20
35.50000000000001
 30
0.0
 11
47.25
 21
26.5
 31
0.0
  0
LINE
  5
E6
330
21
100
AcDbEntity
  8
RUNDGANG
  6
Continuous
 62
     0
100
AcDbLine
 10
48.25
 20
35.5
 30
0.0
 11
48.25
 21
32.0
 31
0.0
  0
LINE
  5
E7
330
21
100
AcDbEntity
  8
RUNDGANG
  6
Continuous
 62
     0
100
AcDbLine
 10
49.25
 20
35.5
 30
0.0
 11
49.25
 21
32.0
 31
0.0
  0
LINE
  5
E8
330
21
100
AcDbEntity
  8
RUNDGANG
  6
Continuous
 62
     0
100
AcDbLine
 10
50.25
 20
35.5
 30
0.0
 11
50.25
 21
32.0
 31
0.0
  0
LINE
  5
E9
330
21
100
AcDbEntity
  8
RUNDGANG
  6
Continuous
 62
     0
100
AcDbLine
 10
51.25
 20
35.5
 30
0.0
 11
51.25
 21
32.0
 31
0.0
  0
LINE
  5
EA
330
21
100
AcDbEntity
  8
RUNDGANG
  6
Continuous
 62
     0
100
AcDbLine
 10
52.25
 20
35.5
 30
0.0
 11
52.25
 21
32.0
 31
0.0
  0
LINE
  5
EB
330
21
100
AcDbEntity
  8
RUNDGANG
  6
Continuous
 62
     0
100
AcDbLine
 10
53.24999999999999
 20
35.5
 30
0.0
 11
53.24999999999999
 21
32.0
 31
0.0
  0
LINE
  5
EC
330
21
100
AcDbEntity
  8
RUNDGANG
  6
Continuous
 62
     0
100
AcDbLine
 10
54.25
 20
35.5
 30
0.0
 11
54.25
 21
32.0
 31
0.0
  0
LINE
  5
ED
330
21
100
AcDbEntity
  8
RUNDGANG
  6
Continuous
 62
     0
100
AcDbLine
 10
55.25
 20
35.5
 30
0.0
 11
55.25
 21
32.0
 31
0.0
  0
LINE
  5
EE
330
21
100
AcDbEntity
  8
RUNDGANG
  6
Continuous
 62
     0
100
AcDbLine
 10
56.25
 20
35.5
 30
0.0
 11
56.25
 21
32.0
 31
0.0
  0
LINE
  5
EF
330
21
100
AcDbEntity
  8
RUNDGANG
  6
Continuous
 62
     0
100
AcDbLine
 10
57.25
 20
35.5
 30
0.0
 11
57.25
 21
32.0
 31
0.0
  0
LINE
  5
F0
330
21
100
AcDbEntity
  8
RUNDGANG
  6
Continuous
 62
     0
100
AcDbLine
 10
58.25
 20
35.5
 30
0.0
 11
58.25
 21
29.0
 31
0.0
  0
LINE
  5
F1
330
21
100
AcDbEntity
  8
RUNDGANG
  6
Continuous
 62
     0
100
AcDbLine
 10
59.25
 20
35.5
 30
0.0
 11
59.25
 21
29.0
 31
0.0
  0
LINE
  5
F2
330
21
100
AcDbEntity
  8
RUNDGANG
  6
Continuous
 62
     0
100
AcDbLine
 10
60.25000000000001
 20
35.5
 30
0.0
 11
60.25000000000001
 21
29.0
 31
0.0
  0
LINE
  5
F3
330
21
100
AcDbEntity
  8
RUNDGANG
  6
Continuous
 62
     0
100
AcDbLine
 10
61.25
 20
35.5
 30
0.0
 11
61.25
 21
29.0
 31
0.0
  0
LINE
  5
F4
330
21
100
AcDbEntity
  8
RUNDGANG
  6
Continuous
 62
     0
100
AcDbLine
 10
62.25000000000001
 20
35.5
 30
0.0
 11
62.25000000000001
 21
29.0
 31
0.0
  0
LINE
  5
F5
330
21
100
AcDbEntity
  8
RUNDGANG
  6
Continuous
 62
     0
100
AcDbLine
 10
63.25000000000001
 20
35.5
 30
0.0
 11
63.25000000000001
 21
29.0
 31
0.0
  0
LINE
  5
F6
330
21
100
AcDbEntity
  8
RUNDGANG
  6
Continuous
 62
     0
100
AcDbLine
 10
64.25
 20
35.5
 30
0.0
 11
64.25
 21
29.0
 31
0.0
  0
ARC
  5
F8
102
{ACAD_REACTORS
330
F7
102
}
330
21
100
AcDbEntity
  8
GRUNDRISSHALLE2EG
  6
Continuous
 62
     0
100
AcDbCircle
 10
21.30449957079824
 20
34.36426981968509
 30
0.0
 40
1.346282354600051
100
AcDbArc
 50
0.0
 51
180.0
  0
LINE
  5
F9
102
{ACAD_REACTORS
330
F7
102
}
330
21
100
AcDbEntity
  8
GRUNDRISSHALLE2EG
  6
Continuous
 62
     0
100
AcDbLine
 10
21.31441042920454
 20
34.35128659207517
 30
0.0
 11
21.31441042920454
 21
35.69810587792009
 31
0.0
  0
LINE
  5
FA
102
{ACAD_REACTORS
330
F7
102
}
330
21
100
AcDbEntity
  8
GRUNDRISSHALLE2EG
  6
Continuous
 62
     0
100
AcDbLine
 10
21.27706900836361
 20
34.35128659207517
 30
0.0
 11
21.27706900836361
 21
35.69810587792009
 31
0.0
  0
LINE
  5
FB
102
{ACAD_REACTORS
330
F7
102
}
330
21
100
AcDbEntity
  8
GRUNDRISSHALLE2EG
  6
Continuous
 62
     0
100
AcDbLine
 10
21.31441042920454
 20
34.35128659207517
 30
0.0
 11
21.27706900836361
 21
34.35128659207517
 31
0.0
  0
LINE
  5
FC
102
{ACAD_REACTORS
330
F7
102
}
330
21
100
AcDbEntity
  8
GRUNDRISSHALLE2EG
  6
Continuous
 62
     0
100
AcDbLine
 10
21.31441042920454
 20
35.69810587792009
 30
0.0
 11
21.27706900836361
 21
35.69810587792009
 31
0.0
  0
ARC
  5
FD
102
{ACAD_REACTORS
330
F7
102
}
330
21
100
AcDbEntity
  8
GRUNDRISSHALLE2EG
  6
Continuous
 62
     0
100
AcDbCircle
 10
18.61161464334418
 20
34.36443729282358
 30
0.0
 40
1.346282354600051
100
AcDbArc
 50
0.0
 51
180.0
  0
LINE
  5
FE
102
{ACAD_REACTORS
330
F7
102
}
330
21
100
AcDbEntity
  8
GRUNDRISSHALLE2EG
  6
Continuous
 62
     0
100
AcDbLine
 10
18.62152550175048
 20
34.35145406521364
 30
0.0
 11
18.62152550175048
 21
35.69827335105858
 31
0.0
  0
LINE
  5
FF
102
{ACAD_REACTORS
330
F7
102
}
330
21
100
AcDbEntity
  8
GRUNDRISSHALLE2EG
  6
Continuous
 62
     0
100
AcDbLine
 10
18.58418408090955
 20
34.35145406521364
 30
0.0
 11
18.58418408090955
 21
35.69827335105858
 31
0.0
  0
LINE
  5
100
102
{ACAD_REACTORS
330
F7
102
}
330
21
100
AcDbEntity
  8
GRUNDRISSHALLE2EG
  6
Continuous
 62
     0
100
AcDbLine
 10
18.62152550175048
 20
34.35145406521364
 30
0.0
 11
18.58418408090955
 21
34.35145406521364
 31
0.0
  0
LINE
  5
101
102
{ACAD_REACTORS
330
F7
102
}
330
21
100
AcDbEntity
  8
GRUNDRISSHALLE2EG
  6
Continuous
 62
     0
100
AcDbLine
 10
18.62152550175048
 20
35.69827335105858
 30
0.0
 11
18.58418408090955
 21
35.69827335105858
 31
0.0
  0
LINE
  5
103
102
{ACAD_REACTORS
330
102
102
}
330
21
100
AcDbEntity
  8
GRUNDRISSHALLE2EG
  6
Continuous
 62
     7
100
AcDbLine
 10
16.51156229663888
 20
18.60335785814292
 30
0.0
 11
17.51156229663888
 21
18.60335785814292
 31
0.0
  0
LINE
  5
104
102
{ACAD_REACTORS
330
102
102
}
330
21
100
AcDbEntity
  8
GRUNDRISSHALLE2EG
  6
Continuous
 62
     7
100
AcDbLine
 10
16.51156229663888
 20
18.63335785814292
 30
0.0
 11
17.51156229663888
 21
18.63335785814292
 31
0.0
  0
LINE
  5
105
102
{ACAD_REACTORS
330
102
102
}
330
21
100
AcDbEntity
  8
GRUNDRISSHALLE2EG
  6
Continuous
 62
     7
100
AcDbLine
 10
16.51149164693051
 20
18.63342858395154
 30
0.0
 11
16.51149164693051
 21
18.60339768891079
 31
0.0
  0
LINE
  5
106
102
{ACAD_REACTORS
330
102
102
}
330
21
100
AcDbEntity
  8
GRUNDRISSHALLE2EG
  6
Continuous
 62
     7
100
AcDbLine
 10
17.51154413066179
 20
18.63342858395154
 30
0.0
 11
17.51162421304856
 21
18.60339768891079
 31
0.0
  0
LINE
  5
108
102
{ACAD_REACTORS
330
107
102
}
330
21
100
AcDbEntity
  8
GRUNDRISSHALLE2EG
  6
Continuous
 62
     7
100
AcDbLine
 10
16.36253796384299
 20
18.35232461864874
 30
0.0
 11
16.36253796384299
 21
18.59236789483291
 31
0.0
  0
LINE
  5
109
102
{ACAD_REACTORS
330
107
102
}
330
21
100
AcDbEntity
  8
GRUNDRISSHALLE2EG
  6
Continuous
 62
     7
100
AcDbLine
 10
16.47690414654916
 20
18.34732461864874
 30
0.0
 11
16.36753796384298
 21
18.34732461864874
 31
0.0
  0
LINE
  5
10A
102
{ACAD_REACTORS
330
107
102
}
330
21
100
AcDbEntity
  8
GRUNDRISSHALLE2EG
  6
Continuous
 62
     7
100
AcDbLine
 10
16.48190414654916
 20
18.59236789483292
 30
0.0
 11
16.48190414654916
 21
18.35232461864874
 31
0.0
  0
LINE
  5
10B
102
{ACAD_REACTORS
330
107
102
}
330
21
100
AcDbEntity
  8
GRUNDRISSHALLE2EG
  6
Continuous
 62
     7
100
AcDbLine
 10
16.36753796384298
 20
18.59736789483292
 30
0.0
 11
16.47690414654916
 21
18.59736789483292
 31
0.0
  0
ARC
  5
10C
102
{ACAD_REACTORS
330
107
102
}
330
21
100
AcDbEntity
  8
GRUNDRISSHALLE2EG
  6
Continuous
 62
     7
100
AcDbCircle
 10
16.36753796384298
 20
18.35232461864874
 30
0.0
 40
0.005
100
AcDbArc
 50
180.0
 51
270.0
  0
ARC
  5
10D
102
{ACAD_REACTORS
330
107
102
}
330
21
100
AcDbEntity
  8
GRUNDRISSHALLE2EG
  6
Continuous
 62
     7
100
AcDbCircle
 10
16.47690414654916
 20
18.35232461864874
 30
0.0
 40
0.005
100
AcDbArc
 50
270.0
 51
0.0000000000000799
  0
ARC
  5
10E
102
{ACAD_REACTORS
330
107
102
}
330
21
100
AcDbEntity
  8
GRUNDRISSHALLE2EG
  6
Continuous
 62
     7
100
AcDbCircle
 10
16.47690414654916
 20
18.59236789483292
 30
0.0
 40
0.005
100
AcDbArc
 50
0.0000000000000509
 51
90.0
  0
ARC
  5
10F
102
{ACAD_REACTORS
330
107
102
}
330
21
100
AcDbEntity
  8
GRUNDRISSHALLE2EG
  6
Continuous
 62
     7
100
AcDbCircle
 10
16.36753796384298
 20
18.59236789483291
 30
0.0
 40
0.005
100
AcDbArc
 50
90.0
 51
180.0
  0
CIRCLE
  5
110
102
{ACAD_REACTORS
330
107
102
}
330
21
100
AcDbEntity
  8
GRUNDRISSHALLE2EG
  6
Continuous
 62
     7
100
AcDbCircle
 10
16.37026924193417
 20
18.35474898217068
 30
0.0
 40
0.007677562727336
  0
CIRCLE
  5
111
102
{ACAD_REACTORS
330
107
102
}
330
21
100
AcDbEntity
  8
GRUNDRISSHALLE2EG
  6
Continuous
 62
     7
100
AcDbCircle
 10
16.474404583465
 20
18.35425544974637
 30
0.0
 40
0.007677562727336
  0
CIRCLE
  5
112
102
{ACAD_REACTORS
330
107
102
}
330
21
100
AcDbEntity
  8
GRUNDRISSHALLE2EG
  6
Continuous
 62
     7
100
AcDbCircle
 10
16.47489811588933
 20
18.59016394856977
 30
0.0
 40
0.007677562727336
  0
CIRCLE
  5
113
102
{ACAD_REACTORS
330
107
102
}
330
21
100
AcDbEntity
  8
GRUNDRISSHALLE2EG
  6
Continuous
 62
     7
100
AcDbCircle
 10
16.37026924193417
 20
18.58967041614545
 30
0.0
 40
0.007677562727336
  0
LINE
  5
115
102
{ACAD_REACTORS
330
114
102
}
330
21
100
AcDbEntity
  8
GRUNDRISSHALLE2EG
  6
Continuous
 62
     7
100
AcDbLine
 10
21.36967818988924
 20
18.35575045373684
 30
0.0
 11
21.36967818988924
 21
18.59579372992102
 31
0.0
  0
LINE
  5
116
102
{ACAD_REACTORS
330
114
102
}
330
21
100
AcDbEntity
  8
GRUNDRISSHALLE2EG
  6
Continuous
 62
     7
100
AcDbLine
 10
21.48404437259542
 20
18.35075045373684
 30
0.0
 11
21.37467818988923
 21
18.35075045373684
 31
0.0
  0
LINE
  5
117
102
{ACAD_REACTORS
330
114
102
}
330
21
100
AcDbEntity
  8
GRUNDRISSHALLE2EG
  6
Continuous
 62
     7
100
AcDbLine
 10
21.48904437259542
 20
18.59579372992102
 30
0.0
 11
21.48904437259542
 21
18.35575045373684
 31
0.0
  0
LINE
  5
118
102
{ACAD_REACTORS
330
114
102
}
330
21
100
AcDbEntity
  8
GRUNDRISSHALLE2EG
  6
Continuous
 62
     7
100
AcDbLine
 10
21.37467818988923
 20
18.60079372992102
 30
0.0
 11
21.48404437259542
 21
18.60079372992102
 31
0.0
  0
ARC
  5
119
102
{ACAD_REACTORS
330
114
102
}
330
21
100
AcDbEntity
  8
GRUNDRISSHALLE2EG
  6
Continuous
 62
     7
100
AcDbCircle
 10
21.37467818988924
 20
18.35575045373684
 30
0.0
 40
0.005
100
AcDbArc
 50
180.0
 51
270.0
  0
ARC
  5
11A
102
{ACAD_REACTORS
330
114
102
}
330
21
100
AcDbEntity
  8
GRUNDRISSHALLE2EG
  6
Continuous
 62
     7
100
AcDbCircle
 10
21.48404437259542
 20
18.35575045373684
 30
0.0
 40
0.005
100
AcDbArc
 50
270.0
 51
0.0000000000000799
  0
ARC
  5
11B
102
{ACAD_REACTORS
330
114
102
}
330
21
100
AcDbEntity
  8
GRUNDRISSHALLE2EG
  6
Continuous
 62
     7
100
AcDbCircle
 10
21.48404437259542
 20
18.59579372992102
 30
0.0
 40
0.005
100
AcDbArc
 50
0.0000000000000509
 51
90.0
  0
ARC
  5
11C
102
{ACAD_REACTORS
330
114
102
}
330
21
100
AcDbEntity
  8
GRUNDRISSHALLE2EG
  6
Continuous
 62
     7
100
AcDbCircle
 10
21.37467818988923
 20
18.59579372992101
 30
0.0
 40
0.005
100
AcDbArc
 50
90.0
 51
180.0
  0
CIRCLE
  5
11D
102
{ACAD_REACTORS
330
114
102
}
330
21
100
AcDbEntity
  8
GRUNDRISSHALLE2EG
  6
Continuous
 62
     7
100
AcDbCircle
 10
21.37740946798043
 20
18.35817481725878
 30
0.0
 40
0.007677562727336
  0
CIRCLE
  5
11E
102
{ACAD_REACTORS
330
114
102
}
330
21
100
AcDbEntity
  8
GRUNDRISSHALLE2EG
  6
Continuous
 62
     7
100
AcDbCircle
 10
21.48154480951126
 20
18.35768128483447
 30
0.0
 40
0.007677562727336
  0
CIRCLE
  5
11F
102
{ACAD_REACTORS
330
114
102
}
330
21
100
AcDbEntity
  8
GRUNDRISSHALLE2EG
  6
Continuous
 62
     7
100
AcDbCircle
 10
21.48203834193558
 20
18.59358978365787
 30
0.0
 40
0.007677562727336
  0
CIRCLE
  5
120
102
{ACAD_REACTORS
330
114
102
}
330
21
100
AcDbEntity
  8
GRUNDRISSHALLE2EG
  6
Continuous
 62
     7
100
AcDbCircle
 10
21.37740946798043
 20
18.59309625123355
 30
0.0
 40
0.007677562727336
  0
LINE
  5
122
102
{ACAD_REACTORS
330
121
102
}
330
21
100
AcDbEntity
  8
GRUNDRISSHALLE2EG
  6
Continuous
 62
     7
100
AcDbLine
 10
26.36967818988924
 20
18.35575045373684
 30
0.0
 11
26.36967818988924
 21
18.59579372992102
 31
0.0
  0
LINE
  5
123
102
{ACAD_REACTORS
330
121
102
}
330
21
100
AcDbEntity
  8
GRUNDRISSHALLE2EG
  6
Continuous
 62
     7
100
AcDbLine
 10
26.48404437259542
 20
18.35075045373684
 30
0.0
 11
26.37467818988924
 21
18.35075045373684
 31
0.0
  0
LINE
  5
124
102
{ACAD_REACTORS
330
121
102
}
330
21
100
AcDbEntity
  8
GRUNDRISSHALLE2EG
  6
Continuous
 62
     7
100
AcDbLine
 10
26.48904437259542
 20
18.59579372992102
 30
0.0
 11
26.48904437259542
 21
18.35575045373684
 31
0.0
  0
LINE
  5
125
102
{ACAD_REACTORS
330
121
102
}
330
21
100
AcDbEntity
  8
GRUNDRISSHALLE2EG
  6
Continuous
 62
     7
100
AcDbLine
 10
26.37467818988924
 20
18.60079372992102
 30
0.0
 11
26.48404437259542
 21
18.60079372992102
 31
0.0
  0
ARC
  5
126
102
{ACAD_REACTORS
330
121
102
}
330
21
100
AcDbEntity
  8
GRUNDRISSHALLE2EG
  6
Continuous
 62
     7
100
AcDbCircle
 10
26.37467818988924
 20
18.35575045373684
 30
0.0
 40
0.005
100
AcDbArc
 50
180.0
 51
270.0
  0
ARC
  5
127
102
{ACAD_REACTORS
330
121
102
}
330
21
100
AcDbEntity
  8
GRUNDRISSHALLE2EG
  6
Continuous
 62
     7
100
AcDbCircle
 10
26.48404437259542
 20
18.35575045373684
 30
0.0
 40
0.005
100
AcDbArc
 50
270.0
 51
0.0000000000000799
  0
ARC
  5
128
102
{ACAD_REACTORS
330
121
102
}
330
21
100
AcDbEntity
  8
GRUNDRISSHALLE2EG
  6
Continuous
 62
     7
100
AcDbCircle
 10
26.48404437259542
 20
18.59579372992102
 30
0.0
 40
0.005
100
AcDbArc
 50
0.0000000000000509
 51
90.0
  0
ARC
  5
129
102
{ACAD_REACTORS
330
121
102
}
330
21
100
AcDbEntity
  8
GRUNDRISSHALLE2EG
  6
Continuous
 62
     7
100
AcDbCircle
 10
26.37467818988924
 20
18.59579372992101
 30
0.0
 40
0.005
100
AcDbArc
 50
90.0
 51
180.0
  0
CIRCLE
  5
12A
102
{ACAD_REACTORS
330
121
102
}
330
21
100
AcDbEntity
  8
GRUNDRISSHALLE2EG
  6
Continuous
 62
     7
100
AcDbCircle
 10
26.37740946798043
 20
18.35817481725878
 30
0.0
 40
0.007677562727336
  0
CIRCLE
  5
12B
102
{ACAD_REACTORS
330
121
102
}
330
21
100
AcDbEntity
  8
GRUNDRISSHALLE2EG
  6
Continuous
 62
     7
100
AcDbCircle
 10
26.48154480951126
 20
18.35768128483447
 30
0.0
 40
0.007677562727336
  0
CIRCLE
  5
12C
102
{ACAD_REACTORS
330
121
102
}
330
21
100
AcDbEntity
  8
GRUNDRISSHALLE2EG
  6
Continuous
 62
     7
100
AcDbCircle
 10
26.48203834193557
 20
18.59358978365787
 30
0.0
 40
0.007677562727336
  0
CIRCLE
  5
12D
102
{ACAD_REACTORS
330
121
102
}
330
21
100
AcDbEntity
  8
GRUNDRISSHALLE2EG
  6
Continuous
 62
     7
100
AcDbCircle
 10
26.37740946798043
 20
18.59309625123355
 30
0.0
 40
0.007677562727336
  0
LINE
  5
12F
102
{ACAD_REACTORS
330
12E
102
}
330
21
100
AcDbEntity
  8
GRUNDRISSHALLE2EG
  6
Continuous
 62
     7
100
AcDbLine
 10
31.36967818988924
 20
18.35575045373684
 30
0.0
 11
31.36967818988924
 21
18.59579372992102
 31
0.0
  0
LINE
  5
130
102
{ACAD_REACTORS
330
12E
102
}
330
21
100
AcDbEntity
  8
GRUNDRISSHALLE2EG
  6
Continuous
 62
     7
100
AcDbLine
 10
31.48404437259542
 20
18.35075045373684
 30
0.0
 11
31.37467818988924
 21
18.35075045373684
 31
0.0
  0
LINE
  5
131
102
{ACAD_REACTORS
330
12E
102
}
330
21
100
AcDbEntity
  8
GRUNDRISSHALLE2EG
  6
Continuous
 62
     7
100
AcDbLine
 10
31.48904437259541
 20
18.59579372992102
 30
0.0
 11
31.48904437259541
 21
18.35575045373684
 31
0.0
  0
LINE
  5
132
102
{ACAD_REACTORS
330
12E
102
}
330
21
100
AcDbEntity
  8
GRUNDRISSHALLE2EG
  6
Continuous
 62
     7
100
AcDbLine
 10
31.37467818988924
 20
18.60079372992102
 30
0.0
 11
31.48404437259542
 21
18.60079372992102
 31
0.0
  0
ARC
  5
133
102
{ACAD_REACTORS
330
12E
102
}
330
21
100
AcDbEntity
  8
GRUNDRISSHALLE2EG
  6
Continuous
 62
     7
100
AcDbCircle
 10
31.37467818988924
 20
18.35575045373684
 30
0.0
 40
0.005
100
AcDbArc
 50
180.0
 51
270.0
  0
ARC
  5
134
102
{ACAD_REACTORS
330
12E
102
}
330
21
100
AcDbEntity
  8
GRUNDRISSHALLE2EG
  6
Continuous
 62
     7
100
AcDbCircle
 10
31.48404437259542
 20
18.35575045373684
 30
0.0
 40
0.005
100
AcDbArc
 50
270.0
 51
0.0000000000000799
  0
ARC
  5
135
102
{ACAD_REACTORS
330
12E
102
}
330
21
100
AcDbEntity
  8
GRUNDRISSHALLE2EG
  6
Continuous
 62
     7
100
AcDbCircle
 10
31.48404437259542
 20
18.59579372992102
 30
0.0
 40
0.005
100
AcDbArc
 50
0.0000000000000509
 51
90.0
  0
ARC
  5
136
102
{ACAD_REACTORS
330
12E
102
}
330
21
100
AcDbEntity
  8
GRUNDRISSHALLE2EG
  6
Continuous
 62
     7
100
AcDbCircle
 10
31.37467818988924
 20
18.59579372992101
 30
0.0
 40
0.005
100
AcDbArc
 50
90.0
 51
180.0
  0
CIRCLE
  5
137
102
{ACAD_REACTORS
330
12E
102
}
330
21
100
AcDbEntity
  8
GRUNDRISSHALLE2EG
  6
Continuous
 62
     7
100
AcDbCircle
 10
31.37740946798042
 20
18.35817481725878
 30
0.0
 40
0.007677562727336
  0
CIRCLE
  5
138
102
{ACAD_REACTORS
330
12E
102
}
330
21
100
AcDbEntity
  8
GRUNDRISSHALLE2EG
  6
Continuous
 62
     7
100
AcDbCircle
 10
31.48154480951126
 20
18.35768128483447
 30
0.0
 40
0.007677562727336
  0
CIRCLE
  5
139
102
{ACAD_REACTORS
330
12E
102
}
330
21
100
AcDbEntity
  8
GRUNDRISSHALLE2EG
  6
Continuous
 62
     7
100
AcDbCircle
 10
31.48203834193557
 20
18.59358978365787
 30
0.0
 40
0.007677562727336
  0
CIRCLE
  5
13A
102
{ACAD_REACTORS
330
12E
102
}
330
21
100
AcDbEntity
  8
GRUNDRISSHALLE2EG
  6
Continuous
 62
     7
100
AcDbCircle
 10
31.37740946798042
 20
18.59309625123355
 30
0.0
 40
0.007677562727336
  0
LINE
  5
13C
102
{ACAD_REACTORS
330
13B
102
}
330
21
100
AcDbEntity
  8
GRUNDRISSHALLE2EG
  6
Continuous
 62
     7
100
AcDbLine
 10
36.36967818988923
 20
18.35575045373684
 30
0.0
 11
36.36967818988923
 21
18.59579372992102
 31
0.0
  0
LINE
  5
13D
102
{ACAD_REACTORS
330
13B
102
}
330
21
100
AcDbEntity
  8
GRUNDRISSHALLE2EG
  6
Continuous
 62
     7
100
AcDbLine
 10
36.48404437259542
 20
18.35075045373684
 30
0.0
 11
36.37467818988924
 21
18.35075045373684
 31
0.0
  0
LINE
  5
13E
102
{ACAD_REACTORS
330
13B
102
}
330
21
100
AcDbEntity
  8
GRUNDRISSHALLE2EG
  6
Continuous
 62
     7
100
AcDbLine
 10
36.48904437259542
 20
18.59579372992102
 30
0.0
 11
36.48904437259542
 21
18.35575045373684
 31
0.0
  0
LINE
  5
13F
102
{ACAD_REACTORS
330
13B
102
}
330
21
100
AcDbEntity
  8
GRUNDRISSHALLE2EG
  6
Continuous
 62
     7
100
AcDbLine
 10
36.37467818988924
 20
18.60079372992102
 30
0.0
 11
36.48404437259542
 21
18.60079372992102
 31
0.0
  0
ARC
  5
140
102
{ACAD_REACTORS
330
13B
102
}
330
21
100
AcDbEntity
  8
GRUNDRISSHALLE2EG
  6
Continuous
 62
     7
100
AcDbCircle
 10
36.37467818988924
 20
18.35575045373684
 30
0.0
 40
0.005
100
AcDbArc
 50
180.0
 51
270.0
  0
ARC
  5
141
102
{ACAD_REACTORS
330
13B
102
}
330
21
100
AcDbEntity
  8
GRUNDRISSHALLE2EG
  6
Continuous
 62
     7
100
AcDbCircle
 10
36.48404437259542
 20
18.35575045373684
 30
0.0
 40
0.005
100
AcDbArc
 50
270.0
 51
0.0000000000000799
  0
ARC
  5
142
102
{ACAD_REACTORS
330
13B
102
}
330
21
100
AcDbEntity
  8
GRUNDRISSHALLE2EG
  6
Continuous
 62
     7
100
AcDbCircle
 10
36.48404437259542
 20
18.59579372992102
 30
0.0
 40
0.005
100
AcDbArc
 50
0.0000000000000509
 51
90.0
  0
ARC
  5
143
102
{ACAD_REACTORS
330
13B
102
}
330
21
100
AcDbEntity
  8
GRUNDRISSHALLE2EG
  6
Continuous
 62
     7
100
AcDbCircle
 10
36.37467818988924
 20
18.59579372992101
 30
0.0
 40
0.005
100
AcDbArc
 50
90.0
 51
180.0
  0
CIRCLE
  5
144
102
{ACAD_REACTORS
330
13B
102
}
330
21
100
AcDbEntity
  8
GRUNDRISSHALLE2EG
  6
Continuous
 62
     7
100
AcDbCircle
 10
36.37740946798043
 20
18.35817481725878
 30
0.0
 40
0.007677562727336
  0
CIRCLE
  5
145
102
{ACAD_REACTORS
330
13B
102
}
330
21
100
AcDbEntity
  8
GRUNDRISSHALLE2EG
  6
Continuous
 62
     7
100
AcDbCircle
 10
36.48154480951126
 20
18.35768128483447
 30
0.0
 40
0.007677562727336
  0
CIRCLE
  5
146
102
{ACAD_REACTORS
330
13B
102
}
330
21
100
AcDbEntity
  8
GRUNDRISSHALLE2EG
  6
Continuous
 62
     7
100
AcDbCircle
 10
36.48203834193558
 20
18.59358978365787
 30
0.0
 40
0.007677562727336
  0
CIRCLE
  5
147
102
{ACAD_REACTORS
330
13B
102
}
330
21
100
AcDbEntity
  8
GRUNDRISSHALLE2EG
  6
Continuous
 62
     7
100
AcDbCircle
 10
36.37740946798043
 20
18.59309625123355
 30
0.0
 40
0.007677562727336
  0
LINE
  5
149
102
{ACAD_REACTORS
330
148
102
}
330
21
100
AcDbEntity
  8
GRUNDRISSHALLE2EG
  6
Continuous
 62
     7
100
AcDbLine
 10
41.36967818988924
 20
18.35575045373684
 30
0.0
 11
41.36967818988924
 21
18.59579372992102
 31
0.0
  0
LINE
  5
14A
102
{ACAD_REACTORS
330
148
102
}
330
21
100
AcDbEntity
  8
GRUNDRISSHALLE2EG
  6
Continuous
 62
     7
100
AcDbLine
 10
41.48404437259541
 20
18.35075045373684
 30
0.0
 11
41.37467818988922
 21
18.35075045373684
 31
0.0
  0
LINE
  5
14B
102
{ACAD_REACTORS
330
148
102
}
330
21
100
AcDbEntity
  8
GRUNDRISSHALLE2EG
  6
Continuous
 62
     7
100
AcDbLine
 10
41.48904437259541
 20
18.59579372992102
 30
0.0
 11
41.48904437259541
 21
18.35575045373684
 31
0.0
  0
LINE
  5
14C
102
{ACAD_REACTORS
330
148
102
}
330
21
100
AcDbEntity
  8
GRUNDRISSHALLE2EG
  6
Continuous
 62
     7
100
AcDbLine
 10
41.37467818988922
 20
18.60079372992102
 30
0.0
 11
41.48404437259541
 21
18.60079372992102
 31
0.0
  0
ARC
  5
14D
102
{ACAD_REACTORS
330
148
102
}
330
21
100
AcDbEntity
  8
GRUNDRISSHALLE2EG
  6
Continuous
 62
     7
100
AcDbCircle
 10
41.37467818988923
 20
18.35575045373684
 30
0.0
 40
0.005
100
AcDbArc
 50
180.0
 51
270.0
  0
ARC
  5
14E
102
{ACAD_REACTORS
330
148
102
}
330
21
100
AcDbEntity
  8
GRUNDRISSHALLE2EG
  6
Continuous
 62
     7
100
AcDbCircle
 10
41.48404437259541
 20
18.35575045373684
 30
0.0
 40
0.005
100
AcDbArc
 50
270.0
 51
0.0000000000000799
  0
ARC
  5
14F
102
{ACAD_REACTORS
330
148
102
}
330
21
100
AcDbEntity
  8
GRUNDRISSHALLE2EG
  6
Continuous
 62
     7
100
AcDbCircle
 10
41.48404437259541
 20
18.59579372992102
 30
0.0
 40
0.005
100
AcDbArc
 50
0.0000000000000509
 51
90.0
  0
ARC
  5
150
102
{ACAD_REACTORS
330
148
102
}
330
21
100
AcDbEntity
  8
GRUNDRISSHALLE2EG
  6
Continuous
 62
     7
100
AcDbCircle
 10
41.37467818988922
 20
18.59579372992101
 30
0.0
 40
0.005
100
AcDbArc
 50
90.0
 51
180.0
  0
CIRCLE
  5
151
102
{ACAD_REACTORS
330
148
102
}
330
21
100
AcDbEntity
  8
GRUNDRISSHALLE2EG
  6
Continuous
 62
     7
100
AcDbCircle
 10
41.37740946798042
 20
18.35817481725878
 30
0.0
 40
0.007677562727336
  0
CIRCLE
  5
152
102
{ACAD_REACTORS
330
148
102
}
330
21
100
AcDbEntity
  8
GRUNDRISSHALLE2EG
  6
Continuous
 62
     7
100
AcDbCircle
 10
41.48154480951125
 20
18.35768128483447
 30
0.0
 40
0.007677562727336
  0
CIRCLE
  5
153
102
{ACAD_REACTORS
330
148
102
}
330
21
100
AcDbEntity
  8
GRUNDRISSHALLE2EG
  6
Continuous
 62
     7
100
AcDbCircle
 10
41.48203834193557
 20
18.59358978365787
 30
0.0
 40
0.007677562727336
  0
CIRCLE
  5
154
102
{ACAD_REACTORS
330
148
102
}
330
21
100
AcDbEntity
  8
GRUNDRISSHALLE2EG
  6
Continuous
 62
     7
100
AcDbCircle
 10
41.37740946798042
 20
18.59309625123355
 30
0.0
 40
0.007677562727336
  0
LINE
  5
156
102
{ACAD_REACTORS
330
155
102
}
330
21
100
AcDbEntity
  8
GRUNDRISSHALLE2EG
  6
Continuous
 62
     7
100
AcDbLine
 10
46.36967818988923
 20
18.35575045373684
 30
0.0
 11
46.36967818988923
 21
18.59579372992102
 31
0.0
  0
LINE
  5
157
102
{ACAD_REACTORS
330
155
102
}
330
21
100
AcDbEntity
  8
GRUNDRISSHALLE2EG
  6
Continuous
 62
     7
100
AcDbLine
 10
46.48404437259542
 20
18.35075045373684
 30
0.0
 11
46.37467818988922
 21
18.35075045373684
 31
0.0
  0
LINE
  5
158
102
{ACAD_REACTORS
330
155
102
}
330
21
100
AcDbEntity
  8
GRUNDRISSHALLE2EG
  6
Continuous
 62
     7
100
AcDbLine
 10
46.48904437259541
 20
18.59579372992102
 30
0.0
 11
46.48904437259541
 21
18.35575045373684
 31
0.0
  0
LINE
  5
159
102
{ACAD_REACTORS
330
155
102
}
330
21
100
AcDbEntity
  8
GRUNDRISSHALLE2EG
  6
Continuous
 62
     7
100
AcDbLine
 10
46.37467818988922
 20
18.60079372992102
 30
0.0
 11
46.48404437259541
 21
18.60079372992102
 31
0.0
  0
ARC
  5
15A
102
{ACAD_REACTORS
330
155
102
}
330
21
100
AcDbEntity
  8
GRUNDRISSHALLE2EG
  6
Continuous
 62
     7
100
AcDbCircle
 10
46.37467818988923
 20
18.35575045373684
 30
0.0
 40
0.005
100
AcDbArc
 50
180.0
 51
270.0
  0
ARC
  5
15B
102
{ACAD_REACTORS
330
155
102
}
330
21
100
AcDbEntity
  8
GRUNDRISSHALLE2EG
  6
Continuous
 62
     7
100
AcDbCircle
 10
46.48404437259541
 20
18.35575045373684
 30
0.0
 40
0.005
100
AcDbArc
 50
270.0
 51
0.0000000000000799
  0
ARC
  5
15C
102
{ACAD_REACTORS
330
155
102
}
330
21
100
AcDbEntity
  8
GRUNDRISSHALLE2EG
  6
Continuous
 62
     7
100
AcDbCircle
 10
46.48404437259542
 20
18.59579372992102
 30
0.0
 40
0.005
100
AcDbArc
 50
0.0000000000000509
 51
90.0
  0
ARC
  5
15D
102
{ACAD_REACTORS
330
155
102
}
330
21
100
AcDbEntity
  8
GRUNDRISSHALLE2EG
  6
Continuous
 62
     7
100
AcDbCircle
 10
46.37467818988922
 20
18.59579372992101
 30
0.0
 40
0.005
100
AcDbArc
 50
90.0
 51
180.0
  0
CIRCLE
  5
15E
102
{ACAD_REACTORS
330
155
102
}
330
21
100
AcDbEntity
  8
GRUNDRISSHALLE2EG
  6
Continuous
 62
     7
100
AcDbCircle
 10
46.37740946798041
 20
18.35817481725878
 30
0.0
 40
0.007677562727336
  0
CIRCLE
  5
15F
102
{ACAD_REACTORS
330
155
102
}
330
21
100
AcDbEntity
  8
GRUNDRISSHALLE2EG
  6
Continuous
 62
     7
100
AcDbCircle
 10
46.48154480951125
 20
18.35768128483447
 30
0.0
 40
0.007677562727336
  0
CIRCLE
  5
160
102
{ACAD_REACTORS
330
155
102
}
330
21
100
AcDbEntity
  8
GRUNDRISSHALLE2EG
  6
Continuous
 62
     7
100
AcDbCircle
 10
46.48203834193557
 20
18.59358978365787
 30
0.0
 40
0.007677562727336
  0
CIRCLE
  5
161
102
{ACAD_REACTORS
330
155
102
}
330
21
100
AcDbEntity
  8
GRUNDRISSHALLE2EG
  6
Continuous
 62
     7
100
AcDbCircle
 10
46.37740946798041
 20
18.59309625123355
 30
0.0
 40
0.007677562727336
  0
LINE
  5
163
102
{ACAD_REACTORS
330
162
102
}
330
21
100
AcDbEntity
  8
GRUNDRISSHALLE2EG
  6
Continuous
 62
     7
100
AcDbLine
 10
51.36967818988924
 20
18.35575045373684
 30
0.0
 11
51.36967818988924
 21
18.59579372992102
 31
0.0
  0
LINE
  5
164
102
{ACAD_REACTORS
330
162
102
}
330
21
100
AcDbEntity
  8
GRUNDRISSHALLE2EG
  6
Continuous
 62
     7
100
AcDbLine
 10
51.48404437259541
 20
18.35075045373684
 30
0.0
 11
51.37467818988923
 21
18.35075045373684
 31
0.0
  0
LINE
  5
165
102
{ACAD_REACTORS
330
162
102
}
330
21
100
AcDbEntity
  8
GRUNDRISSHALLE2EG
  6
Continuous
 62
     7
100
AcDbLine
 10
51.48904437259542
 20
18.59579372992102
 30
0.0
 11
51.48904437259542
 21
18.35575045373684
 31
0.0
  0
LINE
  5
166
102
{ACAD_REACTORS
330
162
102
}
330
21
100
AcDbEntity
  8
GRUNDRISSHALLE2EG
  6
Continuous
 62
     7
100
AcDbLine
 10
51.37467818988923
 20
18.60079372992102
 30
0.0
 11
51.48404437259541
 21
18.60079372992102
 31
0.0
  0
ARC
  5
167
102
{ACAD_REACTORS
330
162
102
}
330
21
100
AcDbEntity
  8
GRUNDRISSHALLE2EG
  6
Continuous
 62
     7
100
AcDbCircle
 10
51.37467818988923
 20
18.35575045373684
 30
0.0
 40
0.005
100
AcDbArc
 50
180.0
 51
270.0
  0
ARC
  5
168
102
{ACAD_REACTORS
330
162
102
}
330
21
100
AcDbEntity
  8
GRUNDRISSHALLE2EG
  6
Continuous
 62
     7
100
AcDbCircle
 10
51.48404437259541
 20
18.35575045373684
 30
0.0
 40
0.005
100
AcDbArc
 50
270.0
 51
0.0000000000000799
  0
ARC
  5
169
102
{ACAD_REACTORS
330
162
102
}
330
21
100
AcDbEntity
  8
GRUNDRISSHALLE2EG
  6
Continuous
 62
     7
100
AcDbCircle
 10
51.48404437259541
 20
18.59579372992102
 30
0.0
 40
0.005
100
AcDbArc
 50
0.0000000000000509
 51
90.0
  0
ARC
  5
16A
102
{ACAD_REACTORS
330
162
102
}
330
21
100
AcDbEntity
  8
GRUNDRISSHALLE2EG
  6
Continuous
 62
     7
100
AcDbCircle
 10
51.37467818988923
 20
18.59579372992101
 30
0.0
 40
0.005
100
AcDbArc
 50
90.0
 51
180.0
  0
CIRCLE
  5
16B
102
{ACAD_REACTORS
330
162
102
}
330
21
100
AcDbEntity
  8
GRUNDRISSHALLE2EG
  6
Continuous
 62
     7
100
AcDbCircle
 10
51.37740946798042
 20
18.35817481725878
 30
0.0
 40
0.007677562727336
  0
CIRCLE
  5
16C
102
{ACAD_REACTORS
330
162
102
}
330
21
100
AcDbEntity
  8
GRUNDRISSHALLE2EG
  6
Continuous
 62
     7
100
AcDbCircle
 10
51.48154480951125
 20
18.35768128483447
 30
0.0
 40
0.007677562727336
  0
CIRCLE
  5
16D
102
{ACAD_REACTORS
330
162
102
}
330
21
100
AcDbEntity
  8
GRUNDRISSHALLE2EG
  6
Continuous
 62
     7
100
AcDbCircle
 10
51.48203834193557
 20
18.59358978365787
 30
0.0
 40
0.007677562727336
  0
CIRCLE
  5
16E
102
{ACAD_REACTORS
330
162
102
}
330
21
100
AcDbEntity
  8
GRUNDRISSHALLE2EG
  6
Continuous
 62
     7
100
AcDbCircle
 10
51.37740946798042
 20
18.59309625123355
 30
0.0
 40
0.007677562727336
  0
LINE
  5
170
102
{ACAD_REACTORS
330
16F
102
}
330
21
100
AcDbEntity
  8
GRUNDRISSHALLE2EG
  6
Continuous
 62
     7
100
AcDbLine
 10
56.36967818988924
 20
18.35575045373684
 30
0.0
 11
56.36967818988924
 21
18.59579372992102
 31
0.0
  0
LINE
  5
171
102
{ACAD_REACTORS
330
16F
102
}
330
21
100
AcDbEntity
  8
GRUNDRISSHALLE2EG
  6
Continuous
 62
     7
100
AcDbLine
 10
56.48404437259542
 20
18.35075045373684
 30
0.0
 11
56.37467818988923
 21
18.35075045373684
 31
0.0
  0
LINE
  5
172
102
{ACAD_REACTORS
330
16F
102
}
330
21
100
AcDbEntity
  8
GRUNDRISSHALLE2EG
  6
Continuous
 62
     7
100
AcDbLine
 10
56.48904437259541
 20
18.59579372992102
 30
0.0
 11
56.48904437259541
 21
18.35575045373684
 31
0.0
  0
LINE
  5
173
102
{ACAD_REACTORS
330
16F
102
}
330
21
100
AcDbEntity
  8
GRUNDRISSHALLE2EG
  6
Continuous
 62
     7
100
AcDbLine
 10
56.37467818988923
 20
18.60079372992102
 30
0.0
 11
56.48404437259542
 21
18.60079372992102
 31
0.0
  0
ARC
  5
174
102
{ACAD_REACTORS
330
16F
102
}
330
21
100
AcDbEntity
  8
GRUNDRISSHALLE2EG
  6
Continuous
 62
     7
100
AcDbCircle
 10
56.37467818988923
 20
18.35575045373684
 30
0.0
 40
0.005
100
AcDbArc
 50
180.0
 51
270.0
  0
ARC
  5
175
102
{ACAD_REACTORS
330
16F
102
}
330
21
100
AcDbEntity
  8
GRUNDRISSHALLE2EG
  6
Continuous
 62
     7
100
AcDbCircle
 10
56.48404437259542
 20
18.35575045373684
 30
0.0
 40
0.005
100
AcDbArc
 50
270.0
 51
0.0000000000000799
  0
ARC
  5
176
102
{ACAD_REACTORS
330
16F
102
}
330
21
100
AcDbEntity
  8
GRUNDRISSHALLE2EG
  6
Continuous
 62
     7
100
AcDbCircle
 10
56.48404437259542
 20
18.59579372992102
 30
0.0
 40
0.005
100
AcDbArc
 50
0.0000000000000509
 51
90.0
  0
ARC
  5
177
102
{ACAD_REACTORS
330
16F
102
}
330
21
100
AcDbEntity
  8
GRUNDRISSHALLE2EG
  6
Continuous
 62
     7
100
AcDbCircle
 10
56.37467818988923
 20
18.59579372992101
 30
0.0
 40
0.005
100
AcDbArc
 50
90.0
 51
180.0
  0
CIRCLE
  5
178
102
{ACAD_REACTORS
330
16F
102
}
330
21
100
AcDbEntity
  8
GRUNDRISSHALLE2EG
  6
Continuous
 62
     7
100
AcDbCircle
 10
56.37740946798042
 20
18.35817481725878
 30
0.0
 40
0.007677562727336
  0
CIRCLE
  5
179
102
{ACAD_REACTORS
330
16F
102
}
330
21
100
AcDbEntity
  8
GRUNDRISSHALLE2EG
  6
Continuous
 62
     7
100
AcDbCircle
 10
56.48154480951125
 20
18.35768128483447
 30
0.0
 40
0.007677562727336
  0
CIRCLE
  5
17A
102
{ACAD_REACTORS
330
16F
102
}
330
21
100
AcDbEntity
  8
GRUNDRISSHALLE2EG
  6
Continuous
 62
     7
100
AcDbCircle
 10
56.48203834193557
 20
18.59358978365787
 30
0.0
 40
0.007677562727336
  0
CIRCLE
  5
17B
102
{ACAD_REACTORS
330
16F
102
}
330
21
100
AcDbEntity
  8
GRUNDRISSHALLE2EG
  6
Continuous
 62
     7
100
AcDbCircle
 10
56.37740946798042
 20
18.59309625123355
 30
0.0
 40
0.007677562727336
  0
LINE
  5
17D
102
{ACAD_REACTORS
330
17C
102
}
330
21
100
AcDbEntity
  8
GRUNDRISSHALLE2EG
  6
Continuous
 62
     7
100
AcDbLine
 10
16.36500562596457
 20
34.10307416305776
 30
0.0
 11
16.36500562596457
 21
34.34311743924194
 31
0.0
  0
LINE
  5
17E
102
{ACAD_REACTORS
330
17C
102
}
330
21
100
AcDbEntity
  8
GRUNDRISSHALLE2EG
  6
Continuous
 62
     7
100
AcDbLine
 10
16.47937180867075
 20
34.09807416305776
 30
0.0
 11
16.37000562596456
 21
34.09807416305776
 31
0.0
  0
LINE
  5
17F
102
{ACAD_REACTORS
330
17C
102
}
330
21
100
AcDbEntity
  8
GRUNDRISSHALLE2EG
  6
Continuous
 62
     7
100
AcDbLine
 10
16.48437180867075
 20
34.34311743924194
 30
0.0
 11
16.48437180867075
 21
34.10307416305776
 31
0.0
  0
LINE
  5
180
102
{ACAD_REACTORS
330
17C
102
}
330
21
100
AcDbEntity
  8
GRUNDRISSHALLE2EG
  6
Continuous
 62
     7
100
AcDbLine
 10
16.37000562596456
 20
34.34811743924194
 30
0.0
 11
16.47937180867075
 21
34.34811743924194
 31
0.0
  0
ARC
  5
181
102
{ACAD_REACTORS
330
17C
102
}
330
21
100
AcDbEntity
  8
GRUNDRISSHALLE2EG
  6
Continuous
 62
     7
100
AcDbCircle
 10
16.37000562596457
 20
34.10307416305776
 30
0.0
 40
0.005
100
AcDbArc
 50
180.0
 51
270.0
  0
ARC
  5
182
102
{ACAD_REACTORS
330
17C
102
}
330
21
100
AcDbEntity
  8
GRUNDRISSHALLE2EG
  6
Continuous
 62
     7
100
AcDbCircle
 10
16.47937180867075
 20
34.10307416305776
 30
0.0
 40
0.005
100
AcDbArc
 50
270.0
 51
0.0000000000000799
  0
ARC
  5
183
102
{ACAD_REACTORS
330
17C
102
}
330
21
100
AcDbEntity
  8
GRUNDRISSHALLE2EG
  6
Continuous
 62
     7
100
AcDbCircle
 10
16.47937180867075
 20
34.34311743924194
 30
0.0
 40
0.005
100
AcDbArc
 50
0.0000000000000509
 51
90.0
  0
ARC
  5
184
102
{ACAD_REACTORS
330
17C
102
}
330
21
100
AcDbEntity
  8
GRUNDRISSHALLE2EG
  6
Continuous
 62
     7
100
AcDbCircle
 10
16.37000562596456
 20
34.34311743924194
 30
0.0
 40
0.005
100
AcDbArc
 50
90.0
 51
180.0
  0
CIRCLE
  5
185
102
{ACAD_REACTORS
330
17C
102
}
330
21
100
AcDbEntity
  8
GRUNDRISSHALLE2EG
  6
Continuous
 62
     7
100
AcDbCircle
 10
16.37273690405575
 20
34.10549852657971
 30
0.0
 40
0.007677562727336
  0
CIRCLE
  5
186
102
{ACAD_REACTORS
330
17C
102
}
330
21
100
AcDbEntity
  8
GRUNDRISSHALLE2EG
  6
Continuous
 62
     7
100
AcDbCircle
 10
16.47687224558659
 20
34.10500499415539
 30
0.0
 40
0.007677562727336
  0
CIRCLE
  5
187
102
{ACAD_REACTORS
330
17C
102
}
330
21
100
AcDbEntity
  8
GRUNDRISSHALLE2EG
  6
Continuous
 62
     7
100
AcDbCircle
 10
16.47736577801091
 20
34.34091349297879
 30
0.0
 40
0.007677562727336
  0
CIRCLE
  5
188
102
{ACAD_REACTORS
330
17C
102
}
330
21
100
AcDbEntity
  8
GRUNDRISSHALLE2EG
  6
Continuous
 62
     7
100
AcDbCircle
 10
16.37273690405575
 20
34.34041996055447
 30
0.0
 40
0.007677562727336
  0
LINE
  5
189
102
{ACAD_REACTORS
330
17C
102
}
330
21
100
AcDbEntity
  8
GRUNDRISSHALLE2EG
  6
Continuous
 62
     7
100
AcDbLine
 10
21.37214585201082
 20
34.11049999814586
 30
0.0
 11
21.37214585201082
 21
34.35054327433004
 31
0.0
  0
LINE
  5
18A
102
{ACAD_REACTORS
330
17C
102
}
330
21
100
AcDbEntity
  8
GRUNDRISSHALLE2EG
  6
Continuous
 62
     7
100
AcDbLine
 10
21.486512034717
 20
34.10549999814586
 30
0.0
 11
21.37714585201082
 21
34.10549999814587
 31
0.0
  0
LINE
  5
18B
102
{ACAD_REACTORS
330
17C
102
}
330
21
100
AcDbEntity
  8
GRUNDRISSHALLE2EG
  6
Continuous
 62
     7
100
AcDbLine
 10
21.491512034717
 20
34.35054327433004
 30
0.0
 11
21.491512034717
 21
34.11049999814586
 31
0.0
  0
LINE
  5
18C
102
{ACAD_REACTORS
330
17C
102
}
330
21
100
AcDbEntity
  8
GRUNDRISSHALLE2EG
  6
Continuous
 62
     7
100
AcDbLine
 10
21.37714585201082
 20
34.35554327433004
 30
0.0
 11
21.486512034717
 21
34.35554327433004
 31
0.0
  0
ARC
  5
18D
102
{ACAD_REACTORS
330
17C
102
}
330
21
100
AcDbEntity
  8
GRUNDRISSHALLE2EG
  6
Continuous
 62
     7
100
AcDbCircle
 10
21.37714585201082
 20
34.11049999814586
 30
0.0
 40
0.005
100
AcDbArc
 50
180.0
 51
270.0
  0
ARC
  5
18E
102
{ACAD_REACTORS
330
17C
102
}
330
21
100
AcDbEntity
  8
GRUNDRISSHALLE2EG
  6
Continuous
 62
     7
100
AcDbCircle
 10
21.486512034717
 20
34.11049999814586
 30
0.0
 40
0.005
100
AcDbArc
 50
270.0
 51
0.0000000000000799
  0
ARC
  5
18F
102
{ACAD_REACTORS
330
17C
102
}
330
21
100
AcDbEntity
  8
GRUNDRISSHALLE2EG
  6
Continuous
 62
     7
100
AcDbCircle
 10
21.486512034717
 20
34.35054327433004
 30
0.0
 40
0.005
100
AcDbArc
 50
0.0000000000000509
 51
90.0
  0
ARC
  5
190
102
{ACAD_REACTORS
330
17C
102
}
330
21
100
AcDbEntity
  8
GRUNDRISSHALLE2EG
  6
Continuous
 62
     7
100
AcDbCircle
 10
21.37714585201082
 20
34.35054327433004
 30
0.0
 40
0.005
100
AcDbArc
 50
90.0
 51
180.0
  0
CIRCLE
  5
191
102
{ACAD_REACTORS
330
17C
102
}
330
21
100
AcDbEntity
  8
GRUNDRISSHALLE2EG
  6
Continuous
 62
     7
100
AcDbCircle
 10
21.379877130102
 20
34.11292436166781
 30
0.0
 40
0.007677562727336
  0
CIRCLE
  5
192
102
{ACAD_REACTORS
330
17C
102
}
330
21
100
AcDbEntity
  8
GRUNDRISSHALLE2EG
  6
Continuous
 62
     7
100
AcDbCircle
 10
21.48401247163284
 20
34.11243082924349
 30
0.0
 40
0.007677562727336
  0
CIRCLE
  5
193
102
{ACAD_REACTORS
330
17C
102
}
330
21
100
AcDbEntity
  8
GRUNDRISSHALLE2EG
  6
Continuous
 62
     7
100
AcDbCircle
 10
21.48450600405716
 20
34.3483393280669
 30
0.0
 40
0.007677562727336
  0
CIRCLE
  5
194
102
{ACAD_REACTORS
330
17C
102
}
330
21
100
AcDbEntity
  8
GRUNDRISSHALLE2EG
  6
Continuous
 62
     7
100
AcDbCircle
 10
21.379877130102
 20
34.34784579564258
 30
0.0
 40
0.007677562727336
  0
LINE
  5
195
102
{ACAD_REACTORS
330
17C
102
}
330
21
100
AcDbEntity
  8
GRUNDRISSHALLE2EG
  6
Continuous
 62
     7
100
AcDbLine
 10
26.37214585201082
 20
34.11049999814586
 30
0.0
 11
26.37214585201082
 21
34.35054327433004
 31
0.0
  0
LINE
  5
196
102
{ACAD_REACTORS
330
17C
102
}
330
21
100
AcDbEntity
  8
GRUNDRISSHALLE2EG
  6
Continuous
 62
     7
100
AcDbLine
 10
26.48651203471701
 20
34.10549999814586
 30
0.0
 11
26.37714585201083
 21
34.10549999814587
 31
0.0
  0
LINE
  5
197
102
{ACAD_REACTORS
330
17C
102
}
330
21
100
AcDbEntity
  8
GRUNDRISSHALLE2EG
  6
Continuous
 62
     7
100
AcDbLine
 10
26.491512034717
 20
34.35054327433004
 30
0.0
 11
26.491512034717
 21
34.11049999814586
 31
0.0
  0
LINE
  5
198
102
{ACAD_REACTORS
330
17C
102
}
330
21
100
AcDbEntity
  8
GRUNDRISSHALLE2EG
  6
Continuous
 62
     7
100
AcDbLine
 10
26.37714585201083
 20
34.35554327433004
 30
0.0
 11
26.48651203471701
 21
34.35554327433004
 31
0.0
  0
ARC
  5
199
102
{ACAD_REACTORS
330
17C
102
}
330
21
100
AcDbEntity
  8
GRUNDRISSHALLE2EG
  6
Continuous
 62
     7
100
AcDbCircle
 10
26.37714585201083
 20
34.11049999814586
 30
0.0
 40
0.005
100
AcDbArc
 50
180.0
 51
270.0
  0
ARC
  5
19A
102
{ACAD_REACTORS
330
17C
102
}
330
21
100
AcDbEntity
  8
GRUNDRISSHALLE2EG
  6
Continuous
 62
     7
100
AcDbCircle
 10
26.48651203471701
 20
34.11049999814586
 30
0.0
 40
0.005
100
AcDbArc
 50
270.0
 51
0.0000000000000799
  0
ARC
  5
19B
102
{ACAD_REACTORS
330
17C
102
}
330
21
100
AcDbEntity
  8
GRUNDRISSHALLE2EG
  6
Continuous
 62
     7
100
AcDbCircle
 10
26.48651203471701
 20
34.35054327433004
 30
0.0
 40
0.005
100
AcDbArc
 50
0.0000000000000509
 51
90.0
  0
ARC
  5
19C
102
{ACAD_REACTORS
330
17C
102
}
330
21
100
AcDbEntity
  8
GRUNDRISSHALLE2EG
  6
Continuous
 62
     7
100
AcDbCircle
 10
26.37714585201083
 20
34.35054327433004
 30
0.0
 40
0.005
100
AcDbArc
 50
90.0
 51
180.0
  0
CIRCLE
  5
19D
102
{ACAD_REACTORS
330
17C
102
}
330
21
100
AcDbEntity
  8
GRUNDRISSHALLE2EG
  6
Continuous
 62
     7
100
AcDbCircle
 10
26.379877130102
 20
34.11292436166781
 30
0.0
 40
0.007677562727336
  0
CIRCLE
  5
19E
102
{ACAD_REACTORS
330
17C
102
}
330
21
100
AcDbEntity
  8
GRUNDRISSHALLE2EG
  6
Continuous
 62
     7
100
AcDbCircle
 10
26.48401247163284
 20
34.11243082924349
 30
0.0
 40
0.007677562727336
  0
CIRCLE
  5
19F
102
{ACAD_REACTORS
330
17C
102
}
330
21
100
AcDbEntity
  8
GRUNDRISSHALLE2EG
  6
Continuous
 62
     7
100
AcDbCircle
 10
26.48450600405717
 20
34.3483393280669
 30
0.0
 40
0.007677562727336
  0
CIRCLE
  5
1A0
102
{ACAD_REACTORS
330
17C
102
}
330
21
100
AcDbEntity
  8
GRUNDRISSHALLE2EG
  6
Continuous
 62
     7
100
AcDbCircle
 10
26.379877130102
 20
34.34784579564258
 30
0.0
 40
0.007677562727336
  0
LINE
  5
1A1
102
{ACAD_REACTORS
330
17C
102
}
330
21
100
AcDbEntity
  8
GRUNDRISSHALLE2EG
  6
Continuous
 62
     7
100
AcDbLine
 10
31.37214585201081
 20
34.11049999814586
 30
0.0
 11
31.37214585201081
 21
34.35054327433004
 31
0.0
  0
LINE
  5
1A2
102
{ACAD_REACTORS
330
17C
102
}
330
21
100
AcDbEntity
  8
GRUNDRISSHALLE2EG
  6
Continuous
 62
     7
100
AcDbLine
 10
31.486512034717
 20
34.10549999814586
 30
0.0
 11
31.37714585201082
 21
34.10549999814587
 31
0.0
  0
LINE
  5
1A3
102
{ACAD_REACTORS
330
17C
102
}
330
21
100
AcDbEntity
  8
GRUNDRISSHALLE2EG
  6
Continuous
 62
     7
100
AcDbLine
 10
31.49151203471701
 20
34.35054327433004
 30
0.0
 11
31.49151203471701
 21
34.11049999814586
 31
0.0
  0
LINE
  5
1A4
102
{ACAD_REACTORS
330
17C
102
}
330
21
100
AcDbEntity
  8
GRUNDRISSHALLE2EG
  6
Continuous
 62
     7
100
AcDbLine
 10
31.37714585201082
 20
34.35554327433004
 30
0.0
 11
31.486512034717
 21
34.35554327433004
 31
0.0
  0
ARC
  5
1A5
102
{ACAD_REACTORS
330
17C
102
}
330
21
100
AcDbEntity
  8
GRUNDRISSHALLE2EG
  6
Continuous
 62
     7
100
AcDbCircle
 10
31.37714585201082
 20
34.11049999814586
 30
0.0
 40
0.005
100
AcDbArc
 50
180.0
 51
270.0
  0
ARC
  5
1A6
102
{ACAD_REACTORS
330
17C
102
}
330
21
100
AcDbEntity
  8
GRUNDRISSHALLE2EG
  6
Continuous
 62
     7
100
AcDbCircle
 10
31.486512034717
 20
34.11049999814586
 30
0.0
 40
0.005
100
AcDbArc
 50
270.0
 51
0.0000000000000799
  0
ARC
  5
1A7
102
{ACAD_REACTORS
330
17C
102
}
330
21
100
AcDbEntity
  8
GRUNDRISSHALLE2EG
  6
Continuous
 62
     7
100
AcDbCircle
 10
31.486512034717
 20
34.35054327433004
 30
0.0
 40
0.005
100
AcDbArc
 50
0.0000000000000509
 51
90.0
  0
ARC
  5
1A8
102
{ACAD_REACTORS
330
17C
102
}
330
21
100
AcDbEntity
  8
GRUNDRISSHALLE2EG
  6
Continuous
 62
     7
100
AcDbCircle
 10
31.37714585201082
 20
34.35054327433004
 30
0.0
 40
0.005
100
AcDbArc
 50
90.0
 51
180.0
  0
CIRCLE
  5
1A9
102
{ACAD_REACTORS
330
17C
102
}
330
21
100
AcDbEntity
  8
GRUNDRISSHALLE2EG
  6
Continuous
 62
     7
100
AcDbCircle
 10
31.37987713010201
 20
34.11292436166781
 30
0.0
 40
0.007677562727336
  0
CIRCLE
  5
1AA
102
{ACAD_REACTORS
330
17C
102
}
330
21
100
AcDbEntity
  8
GRUNDRISSHALLE2EG
  6
Continuous
 62
     7
100
AcDbCircle
 10
31.48401247163285
 20
34.11243082924349
 30
0.0
 40
0.007677562727336
  0
CIRCLE
  5
1AB
102
{ACAD_REACTORS
330
17C
102
}
330
21
100
AcDbEntity
  8
GRUNDRISSHALLE2EG
  6
Continuous
 62
     7
100
AcDbCircle
 10
31.48450600405716
 20
34.3483393280669
 30
0.0
 40
0.007677562727336
  0
CIRCLE
  5
1AC
102
{ACAD_REACTORS
330
17C
102
}
330
21
100
AcDbEntity
  8
GRUNDRISSHALLE2EG
  6
Continuous
 62
     7
100
AcDbCircle
 10
31.37987713010201
 20
34.34784579564258
 30
0.0
 40
0.007677562727336
  0
LINE
  5
1AD
102
{ACAD_REACTORS
330
17C
102
}
330
21
100
AcDbEntity
  8
GRUNDRISSHALLE2EG
  6
Continuous
 62
     7
100
AcDbLine
 10
36.37214585201082
 20
34.11049999814586
 30
0.0
 11
36.37214585201082
 21
34.35054327433004
 31
0.0
  0
LINE
  5
1AE
102
{ACAD_REACTORS
330
17C
102
}
330
21
100
AcDbEntity
  8
GRUNDRISSHALLE2EG
  6
Continuous
 62
     7
100
AcDbLine
 10
36.48651203471701
 20
34.10549999814586
 30
0.0
 11
36.37714585201083
 21
34.10549999814587
 31
0.0
  0
LINE
  5
1AF
102
{ACAD_REACTORS
330
17C
102
}
330
21
100
AcDbEntity
  8
GRUNDRISSHALLE2EG
  6
Continuous
 62
     7
100
AcDbLine
 10
36.491512034717
 20
34.35054327433004
 30
0.0
 11
36.491512034717
 21
34.11049999814586
 31
0.0
  0
LINE
  5
1B0
102
{ACAD_REACTORS
330
17C
102
}
330
21
100
AcDbEntity
  8
GRUNDRISSHALLE2EG
  6
Continuous
 62
     7
100
AcDbLine
 10
36.37714585201083
 20
34.35554327433004
 30
0.0
 11
36.48651203471701
 21
34.35554327433004
 31
0.0
  0
ARC
  5
1B1
102
{ACAD_REACTORS
330
17C
102
}
330
21
100
AcDbEntity
  8
GRUNDRISSHALLE2EG
  6
Continuous
 62
     7
100
AcDbCircle
 10
36.37714585201083
 20
34.11049999814586
 30
0.0
 40
0.005
100
AcDbArc
 50
180.0
 51
270.0
  0
ARC
  5
1B2
102
{ACAD_REACTORS
330
17C
102
}
330
21
100
AcDbEntity
  8
GRUNDRISSHALLE2EG
  6
Continuous
 62
     7
100
AcDbCircle
 10
36.48651203471701
 20
34.11049999814586
 30
0.0
 40
0.005
100
AcDbArc
 50
270.0
 51
0.0000000000000799
  0
ARC
  5
1B3
102
{ACAD_REACTORS
330
17C
102
}
330
21
100
AcDbEntity
  8
GRUNDRISSHALLE2EG
  6
Continuous
 62
     7
100
AcDbCircle
 10
36.48651203471701
 20
34.35054327433004
 30
0.0
 40
0.005
100
AcDbArc
 50
0.0000000000000509
 51
90.0
  0
ARC
  5
1B4
102
{ACAD_REACTORS
330
17C
102
}
330
21
100
AcDbEntity
  8
GRUNDRISSHALLE2EG
  6
Continuous
 62
     7
100
AcDbCircle
 10
36.37714585201083
 20
34.35054327433004
 30
0.0
 40
0.005
100
AcDbArc
 50
90.0
 51
180.0
  0
CIRCLE
  5
1B5
102
{ACAD_REACTORS
330
17C
102
}
330
21
100
AcDbEntity
  8
GRUNDRISSHALLE2EG
  6
Continuous
 62
     7
100
AcDbCircle
 10
36.379877130102
 20
34.11292436166781
 30
0.0
 40
0.007677562727336
  0
CIRCLE
  5
1B6
102
{ACAD_REACTORS
330
17C
102
}
330
21
100
AcDbEntity
  8
GRUNDRISSHALLE2EG
  6
Continuous
 62
     7
100
AcDbCircle
 10
36.48401247163284
 20
34.11243082924349
 30
0.0
 40
0.007677562727336
  0
CIRCLE
  5
1B7
102
{ACAD_REACTORS
330
17C
102
}
330
21
100
AcDbEntity
  8
GRUNDRISSHALLE2EG
  6
Continuous
 62
     7
100
AcDbCircle
 10
36.48450600405717
 20
34.3483393280669
 30
0.0
 40
0.007677562727336
  0
CIRCLE
  5
1B8
102
{ACAD_REACTORS
330
17C
102
}
330
21
100
AcDbEntity
  8
GRUNDRISSHALLE2EG
  6
Continuous
 62
     7
100
AcDbCircle
 10
36.379877130102
 20
34.34784579564258
 30
0.0
 40
0.007677562727336
  0
LINE
  5
1B9
102
{ACAD_REACTORS
330
17C
102
}
330
21
100
AcDbEntity
  8
GRUNDRISSHALLE2EG
  6
Continuous
 62
     7
100
AcDbLine
 10
41.37214585201082
 20
34.11049999814586
 30
0.0
 11
41.37214585201082
 21
34.35054327433004
 31
0.0
  0
LINE
  5
1BA
102
{ACAD_REACTORS
330
17C
102
}
330
21
100
AcDbEntity
  8
GRUNDRISSHALLE2EG
  6
Continuous
 62
     7
100
AcDbLine
 10
41.486512034717
 20
34.10549999814586
 30
0.0
 11
41.37714585201081
 21
34.10549999814587
 31
0.0
  0
LINE
  5
1BB
102
{ACAD_REACTORS
330
17C
102
}
330
21
100
AcDbEntity
  8
GRUNDRISSHALLE2EG
  6
Continuous
 62
     7
100
AcDbLine
 10
41.49151203471699
 20
34.35054327433004
 30
0.0
 11
41.49151203471699
 21
34.11049999814586
 31
0.0
  0
LINE
  5
1BC
102
{ACAD_REACTORS
330
17C
102
}
330
21
100
AcDbEntity
  8
GRUNDRISSHALLE2EG
  6
Continuous
 62
     7
100
AcDbLine
 10
41.37714585201081
 20
34.35554327433004
 30
0.0
 11
41.486512034717
 21
34.35554327433004
 31
0.0
  0
ARC
  5
1BD
102
{ACAD_REACTORS
330
17C
102
}
330
21
100
AcDbEntity
  8
GRUNDRISSHALLE2EG
  6
Continuous
 62
     7
100
AcDbCircle
 10
41.37714585201082
 20
34.11049999814586
 30
0.0
 40
0.005
100
AcDbArc
 50
180.0
 51
270.0
  0
ARC
  5
1BE
102
{ACAD_REACTORS
330
17C
102
}
330
21
100
AcDbEntity
  8
GRUNDRISSHALLE2EG
  6
Continuous
 62
     7
100
AcDbCircle
 10
41.486512034717
 20
34.11049999814586
 30
0.0
 40
0.005
100
AcDbArc
 50
270.0
 51
0.0000000000000799
  0
ARC
  5
1BF
102
{ACAD_REACTORS
330
17C
102
}
330
21
100
AcDbEntity
  8
GRUNDRISSHALLE2EG
  6
Continuous
 62
     7
100
AcDbCircle
 10
41.486512034717
 20
34.35054327433004
 30
0.0
 40
0.005
100
AcDbArc
 50
0.0000000000000509
 51
90.0
  0
ARC
  5
1C0
102
{ACAD_REACTORS
330
17C
102
}
330
21
100
AcDbEntity
  8
GRUNDRISSHALLE2EG
  6
Continuous
 62
     7
100
AcDbCircle
 10
41.37714585201081
 20
34.35054327433004
 30
0.0
 40
0.005
100
AcDbArc
 50
90.0
 51
180.0
  0
CIRCLE
  5
1C1
102
{ACAD_REACTORS
330
17C
102
}
330
21
100
AcDbEntity
  8
GRUNDRISSHALLE2EG
  6
Continuous
 62
     7
100
AcDbCircle
 10
41.379877130102
 20
34.11292436166781
 30
0.0
 40
0.007677562727336
  0
CIRCLE
  5
1C2
102
{ACAD_REACTORS
330
17C
102
}
330
21
100
AcDbEntity
  8
GRUNDRISSHALLE2EG
  6
Continuous
 62
     7
100
AcDbCircle
 10
41.48401247163284
 20
34.11243082924349
 30
0.0
 40
0.007677562727336
  0
CIRCLE
  5
1C3
102
{ACAD_REACTORS
330
17C
102
}
330
21
100
AcDbEntity
  8
GRUNDRISSHALLE2EG
  6
Continuous
 62
     7
100
AcDbCircle
 10
41.48450600405715
 20
34.3483393280669
 30
0.0
 40
0.007677562727336
  0
CIRCLE
  5
1C4
102
{ACAD_REACTORS
330
17C
102
}
330
21
100
AcDbEntity
  8
GRUNDRISSHALLE2EG
  6
Continuous
 62
     7
100
AcDbCircle
 10
41.379877130102
 20
34.34784579564258
 30
0.0
 40
0.007677562727336
  0
LINE
  5
1C5
102
{ACAD_REACTORS
330
17C
102
}
330
21
100
AcDbEntity
  8
GRUNDRISSHALLE2EG
  6
Continuous
 62
     7
100
AcDbLine
 10
46.37214585201081
 20
34.11049999814586
 30
0.0
 11
46.37214585201081
 21
34.35054327433004
 31
0.0
  0
LINE
  5
1C6
102
{ACAD_REACTORS
330
17C
102
}
330
21
100
AcDbEntity
  8
GRUNDRISSHALLE2EG
  6
Continuous
 62
     7
100
AcDbLine
 10
46.486512034717
 20
34.10549999814586
 30
0.0
 11
46.37714585201081
 21
34.10549999814587
 31
0.0
  0
LINE
  5
1C7
102
{ACAD_REACTORS
330
17C
102
}
330
21
100
AcDbEntity
  8
GRUNDRISSHALLE2EG
  6
Continuous
 62
     7
100
AcDbLine
 10
46.49151203471699
 20
34.35054327433004
 30
0.0
 11
46.49151203471699
 21
34.11049999814586
 31
0.0
  0
LINE
  5
1C8
102
{ACAD_REACTORS
330
17C
102
}
330
21
100
AcDbEntity
  8
GRUNDRISSHALLE2EG
  6
Continuous
 62
     7
100
AcDbLine
 10
46.37714585201081
 20
34.35554327433004
 30
0.0
 11
46.486512034717
 21
34.35554327433004
 31
0.0
  0
ARC
  5
1C9
102
{ACAD_REACTORS
330
17C
102
}
330
21
100
AcDbEntity
  8
GRUNDRISSHALLE2EG
  6
Continuous
 62
     7
100
AcDbCircle
 10
46.37714585201082
 20
34.11049999814586
 30
0.0
 40
0.005
100
AcDbArc
 50
180.0
 51
270.0
  0
ARC
  5
1CA
102
{ACAD_REACTORS
330
17C
102
}
330
21
100
AcDbEntity
  8
GRUNDRISSHALLE2EG
  6
Continuous
 62
     7
100
AcDbCircle
 10
46.486512034717
 20
34.11049999814586
 30
0.0
 40
0.005
100
AcDbArc
 50
270.0
 51
0.0000000000000799
  0
ARC
  5
1CB
102
{ACAD_REACTORS
330
17C
102
}
330
21
100
AcDbEntity
  8
GRUNDRISSHALLE2EG
  6
Continuous
 62
     7
100
AcDbCircle
 10
46.486512034717
 20
34.35054327433004
 30
0.0
 40
0.005
100
AcDbArc
 50
0.0000000000000509
 51
90.0
  0
ARC
  5
1CC
102
{ACAD_REACTORS
330
17C
102
}
330
21
100
AcDbEntity
  8
GRUNDRISSHALLE2EG
  6
Continuous
 62
     7
100
AcDbCircle
 10
46.37714585201081
 20
34.35054327433004
 30
0.0
 40
0.005
100
AcDbArc
 50
90.0
 51
180.0
  0
CIRCLE
  5
1CD
102
{ACAD_REACTORS
330
17C
102
}
330
21
100
AcDbEntity
  8
GRUNDRISSHALLE2EG
  6
Continuous
 62
     7
100
AcDbCircle
 10
46.379877130102
 20
34.11292436166781
 30
0.0
 40
0.007677562727336
  0
CIRCLE
  5
1CE
102
{ACAD_REACTORS
330
17C
102
}
330
21
100
AcDbEntity
  8
GRUNDRISSHALLE2EG
  6
Continuous
 62
     7
100
AcDbCircle
 10
46.48401247163284
 20
34.11243082924349
 30
0.0
 40
0.007677562727336
  0
CIRCLE
  5
1CF
102
{ACAD_REACTORS
330
17C
102
}
330
21
100
AcDbEntity
  8
GRUNDRISSHALLE2EG
  6
Continuous
 62
     7
100
AcDbCircle
 10
46.48450600405715
 20
34.3483393280669
 30
0.0
 40
0.007677562727336
  0
CIRCLE
  5
1D0
102
{ACAD_REACTORS
330
17C
102
}
330
21
100
AcDbEntity
  8
GRUNDRISSHALLE2EG
  6
Continuous
 62
     7
100
AcDbCircle
 10
46.379877130102
 20
34.34784579564258
 30
0.0
 40
0.007677562727336
  0
LINE
  5
1D1
102
{ACAD_REACTORS
330
17C
102
}
330
21
100
AcDbEntity
  8
GRUNDRISSHALLE2EG
  6
Continuous
 62
     7
100
AcDbLine
 10
51.37214585201082
 20
34.11049999814586
 30
0.0
 11
51.37214585201082
 21
34.35054327433004
 31
0.0
  0
LINE
  5
1D2
102
{ACAD_REACTORS
330
17C
102
}
330
21
100
AcDbEntity
  8
GRUNDRISSHALLE2EG
  6
Continuous
 62
     7
100
AcDbLine
 10
51.486512034717
 20
34.10549999814586
 30
0.0
 11
51.37714585201081
 21
34.10549999814587
 31
0.0
  0
LINE
  5
1D3
102
{ACAD_REACTORS
330
17C
102
}
330
21
100
AcDbEntity
  8
GRUNDRISSHALLE2EG
  6
Continuous
 62
     7
100
AcDbLine
 10
51.49151203471699
 20
34.35054327433004
 30
0.0
 11
51.49151203471699
 21
34.11049999814586
 31
0.0
  0
LINE
  5
1D4
102
{ACAD_REACTORS
330
17C
102
}
330
21
100
AcDbEntity
  8
GRUNDRISSHALLE2EG
  6
Continuous
 62
     7
100
AcDbLine
 10
51.37714585201081
 20
34.35554327433004
 30
0.0
 11
51.486512034717
 21
34.35554327433004
 31
0.0
  0
ARC
  5
1D5
102
{ACAD_REACTORS
330
17C
102
}
330
21
100
AcDbEntity
  8
GRUNDRISSHALLE2EG
  6
Continuous
 62
     7
100
AcDbCircle
 10
51.37714585201081
 20
34.11049999814586
 30
0.0
 40
0.005
100
AcDbArc
 50
180.0
 51
270.0
  0
ARC
  5
1D6
102
{ACAD_REACTORS
330
17C
102
}
330
21
100
AcDbEntity
  8
GRUNDRISSHALLE2EG
  6
Continuous
 62
     7
100
AcDbCircle
 10
51.486512034717
 20
34.11049999814586
 30
0.0
 40
0.005
100
AcDbArc
 50
270.0
 51
0.0000000000000799
  0
ARC
  5
1D7
102
{ACAD_REACTORS
330
17C
102
}
330
21
100
AcDbEntity
  8
GRUNDRISSHALLE2EG
  6
Continuous
 62
     7
100
AcDbCircle
 10
51.486512034717
 20
34.35054327433004
 30
0.0
 40
0.005
100
AcDbArc
 50
0.0000000000000509
 51
90.0
  0
ARC
  5
1D8
102
{ACAD_REACTORS
330
17C
102
}
330
21
100
AcDbEntity
  8
GRUNDRISSHALLE2EG
  6
Continuous
 62
     7
100
AcDbCircle
 10
51.37714585201081
 20
34.35054327433004
 30
0.0
 40
0.005
100
AcDbArc
 50
90.0
 51
180.0
  0
CIRCLE
  5
1D9
102
{ACAD_REACTORS
330
17C
102
}
330
21
100
AcDbEntity
  8
GRUNDRISSHALLE2EG
  6
Continuous
 62
     7
100
AcDbCircle
 10
51.379877130102
 20
34.11292436166781
 30
0.0
 40
0.007677562727336
  0
CIRCLE
  5
1DA
102
{ACAD_REACTORS
330
17C
102
}
330
21
100
AcDbEntity
  8
GRUNDRISSHALLE2EG
  6
Continuous
 62
     7
100
AcDbCircle
 10
51.48401247163284
 20
34.11243082924349
 30
0.0
 40
0.007677562727336
  0
CIRCLE
  5
1DB
102
{ACAD_REACTORS
330
17C
102
}
330
21
100
AcDbEntity
  8
GRUNDRISSHALLE2EG
  6
Continuous
 62
     7
100
AcDbCircle
 10
51.48450600405716
 20
34.3483393280669
 30
0.0
 40
0.007677562727336
  0
CIRCLE
  5
1DC
102
{ACAD_REACTORS
330
17C
102
}
330
21
100
AcDbEntity
  8
GRUNDRISSHALLE2EG
  6
Continuous
 62
     7
100
AcDbCircle
 10
51.379877130102
 20
34.34784579564258
 30
0.0
 40
0.007677562727336
  0
LINE
  5
1DD
102
{ACAD_REACTORS
330
17C
102
}
330
21
100
AcDbEntity
  8
GRUNDRISSHALLE2EG
  6
Continuous
 62
     7
100
AcDbLine
 10
56.37214585201082
 20
34.11049999814586
 30
0.0
 11
56.37214585201082
 21
34.35054327433004
 31
0.0
  0
LINE
  5
1DE
102
{ACAD_REACTORS
330
17C
102
}
330
21
100
AcDbEntity
  8
GRUNDRISSHALLE2EG
  6
Continuous
 62
     7
100
AcDbLine
 10
56.486512034717
 20
34.10549999814586
 30
0.0
 11
56.37714585201081
 21
34.10549999814587
 31
0.0
  0
LINE
  5
1DF
102
{ACAD_REACTORS
330
17C
102
}
330
21
100
AcDbEntity
  8
GRUNDRISSHALLE2EG
  6
Continuous
 62
     7
100
AcDbLine
 10
56.49151203471699
 20
34.35054327433004
 30
0.0
 11
56.49151203471699
 21
34.11049999814586
 31
0.0
  0
LINE
  5
1E0
102
{ACAD_REACTORS
330
17C
102
}
330
21
100
AcDbEntity
  8
GRUNDRISSHALLE2EG
  6
Continuous
 62
     7
100
AcDbLine
 10
56.37714585201081
 20
34.35554327433004
 30
0.0
 11
56.486512034717
 21
34.35554327433004
 31
0.0
  0
ARC
  5
1E1
102
{ACAD_REACTORS
330
17C
102
}
330
21
100
AcDbEntity
  8
GRUNDRISSHALLE2EG
  6
Continuous
 62
     7
100
AcDbCircle
 10
56.37714585201081
 20
34.11049999814586
 30
0.0
 40
0.005
100
AcDbArc
 50
180.0
 51
270.0
  0
ARC
  5
1E2
102
{ACAD_REACTORS
330
17C
102
}
330
21
100
AcDbEntity
  8
GRUNDRISSHALLE2EG
  6
Continuous
 62
     7
100
AcDbCircle
 10
56.486512034717
 20
34.11049999814586
 30
0.0
 40
0.005
100
AcDbArc
 50
270.0
 51
0.0000000000000799
  0
ARC
  5
1E3
102
{ACAD_REACTORS
330
17C
102
}
330
21
100
AcDbEntity
  8
GRUNDRISSHALLE2EG
  6
Continuous
 62
     7
100
AcDbCircle
 10
56.486512034717
 20
34.35054327433004
 30
0.0
 40
0.005
100
AcDbArc
 50
0.0000000000000509
 51
90.0
  0
ARC
  5
1E4
102
{ACAD_REACTORS
330
17C
102
}
330
21
100
AcDbEntity
  8
GRUNDRISSHALLE2EG
  6
Continuous
 62
     7
100
AcDbCircle
 10
56.37714585201081
 20
34.35054327433004
 30
0.0
 40
0.005
100
AcDbArc
 50
90.0
 51
180.0
  0
CIRCLE
  5
1E5
102
{ACAD_REACTORS
330
17C
102
}
330
21
100
AcDbEntity
  8
GRUNDRISSHALLE2EG
  6
Continuous
 62
     7
100
AcDbCircle
 10
56.379877130102
 20
34.11292436166781
 30
0.0
 40
0.007677562727336
  0
CIRCLE
  5
1E6
102
{ACAD_REACTORS
330
17C
102
}
330
21
100
AcDbEntity
  8
GRUNDRISSHALLE2EG
  6
Continuous
 62
     7
100
AcDbCircle
 10
56.48401247163283
 20
34.11243082924349
 30
0.0
 40
0.007677562727336
  0
CIRCLE
  5
1E7
102
{ACAD_REACTORS
330
17C
102
}
330
21
100
AcDbEntity
  8
GRUNDRISSHALLE2EG
  6
Continuous
 62
     7
100
AcDbCircle
 10
56.48450600405716
 20
34.3483393280669
 30
0.0
 40
0.007677562727336
  0
CIRCLE
  5
1E8
102
{ACAD_REACTORS
330
17C
102
}
330
21
100
AcDbEntity
  8
GRUNDRISSHALLE2EG
  6
Continuous
 62
     7
100
AcDbCircle
 10
56.379877130102
 20
34.34784579564258
 30
0.0
 40
0.007677562727336
  0
LINE
  5
1EA
102
{ACAD_REACTORS
330
1E9
102
}
330
21
100
AcDbEntity
  8
GRUNDRISSHALLE2EG
  6
Continuous
 62
     7
100
AcDbLine
 10
16.37014766147874
 20
21.73361321860639
 30
0.0
 11
16.5087002987739
 21
21.73361321860639
 31
0.0
  0
LINE
  5
1EB
102
{ACAD_REACTORS
330
1E9
102
}
330
21
100
AcDbEntity
  8
GRUNDRISSHALLE2EG
  6
Continuous
 62
     7
100
AcDbLine
 10
16.36514766147874
 20
21.61924703590021
 30
0.0
 11
16.36514766147874
 21
21.72861321860639
 31
0.0
  0
LINE
  5
1EC
102
{ACAD_REACTORS
330
1E9
102
}
330
21
100
AcDbEntity
  8
GRUNDRISSHALLE2EG
  6
Continuous
 62
     7
100
AcDbLine
 10
16.5087002987739
 20
21.61424703590021
 30
0.0
 11
16.37014766147874
 21
21.61424703590021
 31
0.0
  0
LINE
  5
1ED
102
{ACAD_REACTORS
330
1E9
102
}
330
21
100
AcDbEntity
  8
GRUNDRISSHALLE2EG
  6
Continuous
 62
     7
100
AcDbLine
 10
16.5137002987739
 20
21.72861321860639
 30
0.0
 11
16.5137002987739
 21
21.61924703590021
 31
0.0
  0
CIRCLE
  5
1EE
102
{ACAD_REACTORS
330
1E9
102
}
330
21
100
AcDbEntity
  8
GRUNDRISSHALLE2EG
  6
Continuous
 62
     7
100
AcDbCircle
 10
16.37113891125094
 20
21.72762586782189
 30
0.0
 40
0.0059177411728298
  0
CIRCLE
  5
1EF
102
{ACAD_REACTORS
330
1E9
102
}
330
21
100
AcDbEntity
  8
GRUNDRISSHALLE2EG
  6
Continuous
 62
     7
100
AcDbCircle
 10
16.3711222208521
 20
21.62029738201592
 30
0.0
 40
0.0059177411728298
  0
CIRCLE
  5
1F0
102
{ACAD_REACTORS
330
1E9
102
}
330
21
100
AcDbEntity
  8
GRUNDRISSHALLE2EG
  6
Continuous
 62
     7
100
AcDbCircle
 10
16.50774509200538
 20
21.62024566631543
 30
0.0
 40
0.0059177411728298
  0
CIRCLE
  5
1F1
102
{ACAD_REACTORS
330
1E9
102
}
330
21
100
AcDbEntity
  8
GRUNDRISSHALLE2EG
  6
Continuous
 62
     7
100
AcDbCircle
 10
16.50770305134607
 20
21.72766327515809
 30
0.0
 40
0.0059177411728298
  0
ARC
  5
1F2
102
{ACAD_REACTORS
330
1E9
102
}
330
21
100
AcDbEntity
  8
GRUNDRISSHALLE2EG
  6
Continuous
 62
     7
100
AcDbCircle
 10
16.37014766147874
 20
21.72861321860639
 30
0.0
 40
0.005
100
AcDbArc
 50
90.00000000000005
 51
180.0000000000165
  0
ARC
  5
1F3
102
{ACAD_REACTORS
330
1E9
102
}
330
21
100
AcDbEntity
  8
GRUNDRISSHALLE2EG
  6
Continuous
 62
     7
100
AcDbCircle
 10
16.37014766147874
 20
21.61924703590021
 30
0.0
 40
0.005
100
AcDbArc
 50
180.0000000000165
 51
270.0000000000001
  0
ARC
  5
1F4
102
{ACAD_REACTORS
330
1E9
102
}
330
21
100
AcDbEntity
  8
GRUNDRISSHALLE2EG
  6
Continuous
 62
     7
100
AcDbCircle
 10
16.5087002987739
 20
21.61924703590021
 30
0.0
 40
0.005
100
AcDbArc
 50
270.0000000000001
 51
0.0
  0
ARC
  5
1F5
102
{ACAD_REACTORS
330
1E9
102
}
330
21
100
AcDbEntity
  8
GRUNDRISSHALLE2EG
  6
Continuous
 62
     7
100
AcDbCircle
 10
16.5087002987739
 20
21.72861321860639
 30
0.0
 40
0.005
100
AcDbArc
 50
0.0
 51
90.00000000000005
  0
LINE
  5
1F7
102
{ACAD_REACTORS
330
1F6
102
}
330
21
100
AcDbEntity
  8
GRUNDRISSHALLE2EG
  6
Continuous
 62
     7
100
AcDbLine
 10
56.34514766147875
 20
24.84161321860639
 30
0.0
 11
56.48370029877391
 21
24.84161321860639
 31
0.0
  0
LINE
  5
1F8
102
{ACAD_REACTORS
330
1F6
102
}
330
21
100
AcDbEntity
  8
GRUNDRISSHALLE2EG
  6
Continuous
 62
     7
100
AcDbLine
 10
56.34014766147875
 20
24.72724703590021
 30
0.0
 11
56.34014766147875
 21
24.83661321860639
 31
0.0
  0
LINE
  5
1F9
102
{ACAD_REACTORS
330
1F6
102
}
330
21
100
AcDbEntity
  8
GRUNDRISSHALLE2EG
  6
Continuous
 62
     7
100
AcDbLine
 10
56.48370029877391
 20
24.72224703590021
 30
0.0
 11
56.34514766147875
 21
24.72224703590021
 31
0.0
  0
LINE
  5
1FA
102
{ACAD_REACTORS
330
1F6
102
}
330
21
100
AcDbEntity
  8
GRUNDRISSHALLE2EG
  6
Continuous
 62
     7
100
AcDbLine
 10
56.48870029877391
 20
24.83661321860639
 30
0.0
 11
56.48870029877391
 21
24.72724703590021
 31
0.0
  0
CIRCLE
  5
1FB
102
{ACAD_REACTORS
330
1F6
102
}
330
21
100
AcDbEntity
  8
GRUNDRISSHALLE2EG
  6
Continuous
 62
     7
100
AcDbCircle
 10
56.34613891125095
 20
24.8356258678219
 30
0.0
 40
0.0059177411728298
  0
CIRCLE
  5
1FC
102
{ACAD_REACTORS
330
1F6
102
}
330
21
100
AcDbEntity
  8
GRUNDRISSHALLE2EG
  6
Continuous
 62
     7
100
AcDbCircle
 10
56.3461222208521
 20
24.72829738201591
 30
0.0
 40
0.0059177411728298
  0
CIRCLE
  5
1FD
102
{ACAD_REACTORS
330
1F6
102
}
330
21
100
AcDbEntity
  8
GRUNDRISSHALLE2EG
  6
Continuous
 62
     7
100
AcDbCircle
 10
56.48274509200539
 20
24.72824566631543
 30
0.0
 40
0.0059177411728298
  0
CIRCLE
  5
1FE
102
{ACAD_REACTORS
330
1F6
102
}
330
21
100
AcDbEntity
  8
GRUNDRISSHALLE2EG
  6
Continuous
 62
     7
100
AcDbCircle
 10
56.48270305134607
 20
24.83566327515809
 30
0.0
 40
0.0059177411728298
  0
ARC
  5
1FF
102
{ACAD_REACTORS
330
1F6
102
}
330
21
100
AcDbEntity
  8
GRUNDRISSHALLE2EG
  6
Continuous
 62
     7
100
AcDbCircle
 10
56.34514766147875
 20
24.83661321860639
 30
0.0
 40
0.005
100
AcDbArc
 50
90.00000000000005
 51
180.0000000000165
  0
ARC
  5
200
102
{ACAD_REACTORS
330
1F6
102
}
330
21
100
AcDbEntity
  8
GRUNDRISSHALLE2EG
  6
Continuous
 62
     7
100
AcDbCircle
 10
56.34514766147875
 20
24.72724703590021
 30
0.0
 40
0.005
100
AcDbArc
 50
180.0000000000165
 51
270.0000000000001
  0
ARC
  5
201
102
{ACAD_REACTORS
330
1F6
102
}
330
21
100
AcDbEntity
  8
GRUNDRISSHALLE2EG
  6
Continuous
 62
     7
100
AcDbCircle
 10
56.48370029877391
 20
24.72724703590021
 30
0.0
 40
0.005
100
AcDbArc
 50
270.0000000000001
 51
0.0
  0
ARC
  5
202
102
{ACAD_REACTORS
330
1F6
102
}
330
21
100
AcDbEntity
  8
GRUNDRISSHALLE2EG
  6
Continuous
 62
     7
100
AcDbCircle
 10
56.48370029877391
 20
24.83661321860639
 30
0.0
 40
0.005
100
AcDbArc
 50
0.0
 51
90.00000000000005
  0
LINE
  5
204
102
{ACAD_REACTORS
330
203
102
}
330
21
100
AcDbEntity
  8
GRUNDRISSHALLE2EG
  6
Continuous
 62
     7
100
AcDbLine
 10
56.34514766147875
 20
27.96161321860639
 30
0.0
 11
56.48370029877391
 21
27.96161321860639
 31
0.0
  0
LINE
  5
205
102
{ACAD_REACTORS
330
203
102
}
330
21
100
AcDbEntity
  8
GRUNDRISSHALLE2EG
  6
Continuous
 62
     7
100
AcDbLine
 10
56.34014766147875
 20
27.84724703590021
 30
0.0
 11
56.34014766147875
 21
27.95661321860639
 31
0.0
  0
LINE
  5
206
102
{ACAD_REACTORS
330
203
102
}
330
21
100
AcDbEntity
  8
GRUNDRISSHALLE2EG
  6
Continuous
 62
     7
100
AcDbLine
 10
56.48370029877391
 20
27.84224703590022
 30
0.0
 11
56.34514766147875
 21
27.84224703590022
 31
0.0
  0
LINE
  5
207
102
{ACAD_REACTORS
330
203
102
}
330
21
100
AcDbEntity
  8
GRUNDRISSHALLE2EG
  6
Continuous
 62
     7
100
AcDbLine
 10
56.48870029877391
 20
27.95661321860639
 30
0.0
 11
56.48870029877391
 21
27.84724703590021
 31
0.0
  0
CIRCLE
  5
208
102
{ACAD_REACTORS
330
203
102
}
330
21
100
AcDbEntity
  8
GRUNDRISSHALLE2EG
  6
Continuous
 62
     7
100
AcDbCircle
 10
56.34613891125095
 20
27.95562586782189
 30
0.0
 40
0.0059177411728298
  0
CIRCLE
  5
209
102
{ACAD_REACTORS
330
203
102
}
330
21
100
AcDbEntity
  8
GRUNDRISSHALLE2EG
  6
Continuous
 62
     7
100
AcDbCircle
 10
56.3461222208521
 20
27.84829738201592
 30
0.0
 40
0.0059177411728298
  0
CIRCLE
  5
20A
102
{ACAD_REACTORS
330
203
102
}
330
21
100
AcDbEntity
  8
GRUNDRISSHALLE2EG
  6
Continuous
 62
     7
100
AcDbCircle
 10
56.48274509200539
 20
27.84824566631543
 30
0.0
 40
0.0059177411728298
  0
CIRCLE
  5
20B
102
{ACAD_REACTORS
330
203
102
}
330
21
100
AcDbEntity
  8
GRUNDRISSHALLE2EG
  6
Continuous
 62
     7
100
AcDbCircle
 10
56.48270305134607
 20
27.95566327515809
 30
0.0
 40
0.0059177411728298
  0
ARC
  5
20C
102
{ACAD_REACTORS
330
203
102
}
330
21
100
AcDbEntity
  8
GRUNDRISSHALLE2EG
  6
Continuous
 62
     7
100
AcDbCircle
 10
56.34514766147875
 20
27.95661321860639
 30
0.0
 40
0.005
100
AcDbArc
 50
90.00000000000005
 51
180.0000000000165
  0
ARC
  5
20D
102
{ACAD_REACTORS
330
203
102
}
330
21
100
AcDbEntity
  8
GRUNDRISSHALLE2EG
  6
Continuous
 62
     7
100
AcDbCircle
 10
56.34514766147875
 20
27.84724703590021
 30
0.0
 40
0.005
100
AcDbArc
 50
180.0000000000165
 51
270.0000000000001
  0
ARC
  5
20E
102
{ACAD_REACTORS
330
203
102
}
330
21
100
AcDbEntity
  8
GRUNDRISSHALLE2EG
  6
Continuous
 62
     7
100
AcDbCircle
 10
56.48370029877391
 20
27.84724703590021
 30
0.0
 40
0.005
100
AcDbArc
 50
270.0000000000001
 51
0.0
  0
ARC
  5
20F
102
{ACAD_REACTORS
330
203
102
}
330
21
100
AcDbEntity
  8
GRUNDRISSHALLE2EG
  6
Continuous
 62
     7
100
AcDbCircle
 10
56.48370029877391
 20
27.95661321860639
 30
0.0
 40
0.005
100
AcDbArc
 50
0.0
 51
90.00000000000005
  0
LINE
  5
211
102
{ACAD_REACTORS
330
210
102
}
330
21
100
AcDbEntity
  8
GRUNDRISSHALLE2EG
  6
Continuous
 62
     7
100
AcDbLine
 10
56.34514766147875
 20
31.08161321860639
 30
0.0
 11
56.48370029877391
 21
31.08161321860639
 31
0.0
  0
LINE
  5
212
102
{ACAD_REACTORS
330
210
102
}
330
21
100
AcDbEntity
  8
GRUNDRISSHALLE2EG
  6
Continuous
 62
     7
100
AcDbLine
 10
56.34014766147875
 20
30.96724703590022
 30
0.0
 11
56.34014766147875
 21
31.0766132186064
 31
0.0
  0
LINE
  5
213
102
{ACAD_REACTORS
330
210
102
}
330
21
100
AcDbEntity
  8
GRUNDRISSHALLE2EG
  6
Continuous
 62
     7
100
AcDbLine
 10
56.48370029877391
 20
30.96224703590021
 30
0.0
 11
56.34514766147875
 21
30.96224703590021
 31
0.0
  0
LINE
  5
214
102
{ACAD_REACTORS
330
210
102
}
330
21
100
AcDbEntity
  8
GRUNDRISSHALLE2EG
  6
Continuous
 62
     7
100
AcDbLine
 10
56.48870029877391
 20
31.0766132186064
 30
0.0
 11
56.48870029877391
 21
30.96724703590022
 31
0.0
  0
CIRCLE
  5
215
102
{ACAD_REACTORS
330
210
102
}
330
21
100
AcDbEntity
  8
GRUNDRISSHALLE2EG
  6
Continuous
 62
     7
100
AcDbCircle
 10
56.34613891125095
 20
31.07562586782189
 30
0.0
 40
0.0059177411728298
  0
CIRCLE
  5
216
102
{ACAD_REACTORS
330
210
102
}
330
21
100
AcDbEntity
  8
GRUNDRISSHALLE2EG
  6
Continuous
 62
     7
100
AcDbCircle
 10
56.3461222208521
 20
30.96829738201591
 30
0.0
 40
0.0059177411728298
  0
CIRCLE
  5
217
102
{ACAD_REACTORS
330
210
102
}
330
21
100
AcDbEntity
  8
GRUNDRISSHALLE2EG
  6
Continuous
 62
     7
100
AcDbCircle
 10
56.48274509200539
 20
30.96824566631543
 30
0.0
 40
0.0059177411728298
  0
CIRCLE
  5
218
102
{ACAD_REACTORS
330
210
102
}
330
21
100
AcDbEntity
  8
GRUNDRISSHALLE2EG
  6
Continuous
 62
     7
100
AcDbCircle
 10
56.48270305134607
 20
31.07566327515809
 30
0.0
 40
0.0059177411728298
  0
ARC
  5
219
102
{ACAD_REACTORS
330
210
102
}
330
21
100
AcDbEntity
  8
GRUNDRISSHALLE2EG
  6
Continuous
 62
     7
100
AcDbCircle
 10
56.34514766147875
 20
31.0766132186064
 30
0.0
 40
0.005
100
AcDbArc
 50
90.00000000000005
 51
180.0000000000165
  0
ARC
  5
21A
102
{ACAD_REACTORS
330
210
102
}
330
21
100
AcDbEntity
  8
GRUNDRISSHALLE2EG
  6
Continuous
 62
     7
100
AcDbCircle
 10
56.34514766147875
 20
30.96724703590022
 30
0.0
 40
0.005
100
AcDbArc
 50
180.0000000000165
 51
270.0000000000001
  0
ARC
  5
21B
102
{ACAD_REACTORS
330
210
102
}
330
21
100
AcDbEntity
  8
GRUNDRISSHALLE2EG
  6
Continuous
 62
     7
100
AcDbCircle
 10
56.48370029877391
 20
30.96724703590022
 30
0.0
 40
0.005
100
AcDbArc
 50
270.0000000000001
 51
0.0
  0
ARC
  5
21C
102
{ACAD_REACTORS
330
210
102
}
330
21
100
AcDbEntity
  8
GRUNDRISSHALLE2EG
  6
Continuous
 62
     7
100
AcDbCircle
 10
56.48370029877391
 20
31.0766132186064
 30
0.0
 40
0.005
100
AcDbArc
 50
0.0
 51
90.00000000000005
  0
LINE
  5
21E
102
{ACAD_REACTORS
330
21D
102
}
330
21
100
AcDbEntity
  8
GRUNDRISSHALLE2EG
  6
Continuous
 62
     7
100
AcDbLine
 10
16.37014766147874
 20
24.85361321860639
 30
0.0
 11
16.5087002987739
 21
24.85361321860639
 31
0.0
  0
LINE
  5
21F
102
{ACAD_REACTORS
330
21D
102
}
330
21
100
AcDbEntity
  8
GRUNDRISSHALLE2EG
  6
Continuous
 62
     7
100
AcDbLine
 10
16.36514766147874
 20
24.73924703590021
 30
0.0
 11
16.36514766147874
 21
24.84861321860639
 31
0.0
  0
LINE
  5
220
102
{ACAD_REACTORS
330
21D
102
}
330
21
100
AcDbEntity
  8
GRUNDRISSHALLE2EG
  6
Continuous
 62
     7
100
AcDbLine
 10
16.5087002987739
 20
24.7342470359002
 30
0.0
 11
16.37014766147874
 21
24.7342470359002
 31
0.0
  0
LINE
  5
221
102
{ACAD_REACTORS
330
21D
102
}
330
21
100
AcDbEntity
  8
GRUNDRISSHALLE2EG
  6
Continuous
 62
     7
100
AcDbLine
 10
16.5137002987739
 20
24.84861321860639
 30
0.0
 11
16.5137002987739
 21
24.73924703590021
 31
0.0
  0
CIRCLE
  5
222
102
{ACAD_REACTORS
330
21D
102
}
330
21
100
AcDbEntity
  8
GRUNDRISSHALLE2EG
  6
Continuous
 62
     7
100
AcDbCircle
 10
16.37113891125094
 20
24.84762586782189
 30
0.0
 40
0.0059177411728298
  0
CIRCLE
  5
223
102
{ACAD_REACTORS
330
21D
102
}
330
21
100
AcDbEntity
  8
GRUNDRISSHALLE2EG
  6
Continuous
 62
     7
100
AcDbCircle
 10
16.3711222208521
 20
24.74029738201591
 30
0.0
 40
0.0059177411728298
  0
CIRCLE
  5
224
102
{ACAD_REACTORS
330
21D
102
}
330
21
100
AcDbEntity
  8
GRUNDRISSHALLE2EG
  6
Continuous
 62
     7
100
AcDbCircle
 10
16.50774509200538
 20
24.74024566631542
 30
0.0
 40
0.0059177411728298
  0
CIRCLE
  5
225
102
{ACAD_REACTORS
330
21D
102
}
330
21
100
AcDbEntity
  8
GRUNDRISSHALLE2EG
  6
Continuous
 62
     7
100
AcDbCircle
 10
16.50770305134607
 20
24.84766327515809
 30
0.0
 40
0.0059177411728298
  0
ARC
  5
226
102
{ACAD_REACTORS
330
21D
102
}
330
21
100
AcDbEntity
  8
GRUNDRISSHALLE2EG
  6
Continuous
 62
     7
100
AcDbCircle
 10
16.37014766147874
 20
24.84861321860639
 30
0.0
 40
0.005
100
AcDbArc
 50
90.00000000000005
 51
180.0000000000165
  0
ARC
  5
227
102
{ACAD_REACTORS
330
21D
102
}
330
21
100
AcDbEntity
  8
GRUNDRISSHALLE2EG
  6
Continuous
 62
     7
100
AcDbCircle
 10
16.37014766147874
 20
24.73924703590021
 30
0.0
 40
0.005
100
AcDbArc
 50
180.0000000000165
 51
270.0000000000001
  0
ARC
  5
228
102
{ACAD_REACTORS
330
21D
102
}
330
21
100
AcDbEntity
  8
GRUNDRISSHALLE2EG
  6
Continuous
 62
     7
100
AcDbCircle
 10
16.5087002987739
 20
24.73924703590021
 30
0.0
 40
0.005
100
AcDbArc
 50
270.0000000000001
 51
0.0
  0
ARC
  5
229
102
{ACAD_REACTORS
330
21D
102
}
330
21
100
AcDbEntity
  8
GRUNDRISSHALLE2EG
  6
Continuous
 62
     7
100
AcDbCircle
 10
16.5087002987739
 20
24.84861321860639
 30
0.0
 40
0.005
100
AcDbArc
 50
0.0
 51
90.00000000000005
  0
LINE
  5
22B
102
{ACAD_REACTORS
330
22A
102
}
330
21
100
AcDbEntity
  8
GRUNDRISSHALLE2EG
  6
Continuous
 62
     7
100
AcDbLine
 10
16.37014766147874
 20
27.97361321860639
 30
0.0
 11
16.5087002987739
 21
27.97361321860639
 31
0.0
  0
LINE
  5
22C
102
{ACAD_REACTORS
330
22A
102
}
330
21
100
AcDbEntity
  8
GRUNDRISSHALLE2EG
  6
Continuous
 62
     7
100
AcDbLine
 10
16.36514766147874
 20
27.8592470359002
 30
0.0
 11
16.36514766147874
 21
27.96861321860639
 31
0.0
  0
LINE
  5
22D
102
{ACAD_REACTORS
330
22A
102
}
330
21
100
AcDbEntity
  8
GRUNDRISSHALLE2EG
  6
Continuous
 62
     7
100
AcDbLine
 10
16.5087002987739
 20
27.85424703590021
 30
0.0
 11
16.37014766147874
 21
27.85424703590021
 31
0.0
  0
LINE
  5
22E
102
{ACAD_REACTORS
330
22A
102
}
330
21
100
AcDbEntity
  8
GRUNDRISSHALLE2EG
  6
Continuous
 62
     7
100
AcDbLine
 10
16.5137002987739
 20
27.96861321860639
 30
0.0
 11
16.5137002987739
 21
27.8592470359002
 31
0.0
  0
CIRCLE
  5
22F
102
{ACAD_REACTORS
330
22A
102
}
330
21
100
AcDbEntity
  8
GRUNDRISSHALLE2EG
  6
Continuous
 62
     7
100
AcDbCircle
 10
16.37113891125094
 20
27.96762586782189
 30
0.0
 40
0.0059177411728298
  0
CIRCLE
  5
230
102
{ACAD_REACTORS
330
22A
102
}
330
21
100
AcDbEntity
  8
GRUNDRISSHALLE2EG
  6
Continuous
 62
     7
100
AcDbCircle
 10
16.3711222208521
 20
27.86029738201591
 30
0.0
 40
0.0059177411728298
  0
CIRCLE
  5
231
102
{ACAD_REACTORS
330
22A
102
}
330
21
100
AcDbEntity
  8
GRUNDRISSHALLE2EG
  6
Continuous
 62
     7
100
AcDbCircle
 10
16.50774509200538
 20
27.86024566631543
 30
0.0
 40
0.0059177411728298
  0
CIRCLE
  5
232
102
{ACAD_REACTORS
330
22A
102
}
330
21
100
AcDbEntity
  8
GRUNDRISSHALLE2EG
  6
Continuous
 62
     7
100
AcDbCircle
 10
16.50770305134607
 20
27.96766327515809
 30
0.0
 40
0.0059177411728298
  0
ARC
  5
233
102
{ACAD_REACTORS
330
22A
102
}
330
21
100
AcDbEntity
  8
GRUNDRISSHALLE2EG
  6
Continuous
 62
     7
100
AcDbCircle
 10
16.37014766147874
 20
27.96861321860639
 30
0.0
 40
0.005
100
AcDbArc
 50
90.00000000000005
 51
180.0000000000165
  0
ARC
  5
234
102
{ACAD_REACTORS
330
22A
102
}
330
21
100
AcDbEntity
  8
GRUNDRISSHALLE2EG
  6
Continuous
 62
     7
100
AcDbCircle
 10
16.37014766147874
 20
27.8592470359002
 30
0.0
 40
0.005
100
AcDbArc
 50
180.0000000000165
 51
270.0000000000001
  0
ARC
  5
235
102
{ACAD_REACTORS
330
22A
102
}
330
21
100
AcDbEntity
  8
GRUNDRISSHALLE2EG
  6
Continuous
 62
     7
100
AcDbCircle
 10
16.5087002987739
 20
27.8592470359002
 30
0.0
 40
0.005
100
AcDbArc
 50
270.0000000000001
 51
0.0
  0
ARC
  5
236
102
{ACAD_REACTORS
330
22A
102
}
330
21
100
AcDbEntity
  8
GRUNDRISSHALLE2EG
  6
Continuous
 62
     7
100
AcDbCircle
 10
16.5087002987739
 20
27.96861321860639
 30
0.0
 40
0.005
100
AcDbArc
 50
0.0
 51
90.00000000000005
  0
LINE
  5
238
102
{ACAD_REACTORS
330
237
102
}
330
21
100
AcDbEntity
  8
GRUNDRISSHALLE2EG
  6
Continuous
 62
     7
100
AcDbLine
 10
16.37014766147874
 20
31.09361321860639
 30
0.0
 11
16.5087002987739
 21
31.09361321860639
 31
0.0
  0
LINE
  5
239
102
{ACAD_REACTORS
330
237
102
}
330
21
100
AcDbEntity
  8
GRUNDRISSHALLE2EG
  6
Continuous
 62
     7
100
AcDbLine
 10
16.36514766147874
 20
30.97924703590021
 30
0.0
 11
16.36514766147874
 21
31.08861321860639
 31
0.0
  0
LINE
  5
23A
102
{ACAD_REACTORS
330
237
102
}
330
21
100
AcDbEntity
  8
GRUNDRISSHALLE2EG
  6
Continuous
 62
     7
100
AcDbLine
 10
16.5087002987739
 20
30.97424703590021
 30
0.0
 11
16.37014766147874
 21
30.97424703590021
 31
0.0
  0
LINE
  5
23B
102
{ACAD_REACTORS
330
237
102
}
330
21
100
AcDbEntity
  8
GRUNDRISSHALLE2EG
  6
Continuous
 62
     7
100
AcDbLine
 10
16.5137002987739
 20
31.08861321860639
 30
0.0
 11
16.5137002987739
 21
30.97924703590021
 31
0.0
  0
CIRCLE
  5
23C
102
{ACAD_REACTORS
330
237
102
}
330
21
100
AcDbEntity
  8
GRUNDRISSHALLE2EG
  6
Continuous
 62
     7
100
AcDbCircle
 10
16.37113891125094
 20
31.08762586782189
 30
0.0
 40
0.0059177411728298
  0
CIRCLE
  5
23D
102
{ACAD_REACTORS
330
237
102
}
330
21
100
AcDbEntity
  8
GRUNDRISSHALLE2EG
  6
Continuous
 62
     7
100
AcDbCircle
 10
16.3711222208521
 20
30.98029738201591
 30
0.0
 40
0.0059177411728298
  0
CIRCLE
  5
23E
102
{ACAD_REACTORS
330
237
102
}
330
21
100
AcDbEntity
  8
GRUNDRISSHALLE2EG
  6
Continuous
 62
     7
100
AcDbCircle
 10
16.50774509200538
 20
30.98024566631542
 30
0.0
 40
0.0059177411728298
  0
CIRCLE
  5
23F
102
{ACAD_REACTORS
330
237
102
}
330
21
100
AcDbEntity
  8
GRUNDRISSHALLE2EG
  6
Continuous
 62
     7
100
AcDbCircle
 10
16.50770305134607
 20
31.08766327515809
 30
0.0
 40
0.0059177411728298
  0
ARC
  5
240
102
{ACAD_REACTORS
330
237
102
}
330
21
100
AcDbEntity
  8
GRUNDRISSHALLE2EG
  6
Continuous
 62
     7
100
AcDbCircle
 10
16.37014766147874
 20
31.08861321860639
 30
0.0
 40
0.005
100
AcDbArc
 50
90.00000000000005
 51
180.0000000000165
  0
ARC
  5
241
102
{ACAD_REACTORS
330
237
102
}
330
21
100
AcDbEntity
  8
GRUNDRISSHALLE2EG
  6
Continuous
 62
     7
100
AcDbCircle
 10
16.37014766147874
 20
30.97924703590021
 30
0.0
 40
0.005
100
AcDbArc
 50
180.0000000000165
 51
270.0000000000001
  0
ARC
  5
242
102
{ACAD_REACTORS
330
237
102
}
330
21
100
AcDbEntity
  8
GRUNDRISSHALLE2EG
  6
Continuous
 62
     7
100
AcDbCircle
 10
16.5087002987739
 20
30.97924703590021
 30
0.0
 40
0.005
100
AcDbArc
 50
270.0000000000001
 51
0.0
  0
ARC
  5
243
102
{ACAD_REACTORS
330
237
102
}
330
21
100
AcDbEntity
  8
GRUNDRISSHALLE2EG
  6
Continuous
 62
     7
100
AcDbCircle
 10
16.5087002987739
 20
31.08861321860639
 30
0.0
 40
0.005
100
AcDbArc
 50
0.0
 51
90.00000000000005
  0
LINE
  5
245
102
{ACAD_REACTORS
330
244
102
}
330
21
100
AcDbEntity
  8
GRUNDRISSHALLE2EG
  6
Continuous
 62
     7
100
AcDbLine
 10
56.34514766147875
 20
21.73361321860639
 30
0.0
 11
56.48370029877391
 21
21.73361321860639
 31
0.0
  0
LINE
  5
246
102
{ACAD_REACTORS
330
244
102
}
330
21
100
AcDbEntity
  8
GRUNDRISSHALLE2EG
  6
Continuous
 62
     7
100
AcDbLine
 10
56.34014766147875
 20
21.61924703590021
 30
0.0
 11
56.34014766147875
 21
21.72861321860639
 31
0.0
  0
LINE
  5
247
102
{ACAD_REACTORS
330
244
102
}
330
21
100
AcDbEntity
  8
GRUNDRISSHALLE2EG
  6
Continuous
 62
     7
100
AcDbLine
 10
56.48370029877391
 20
21.61424703590021
 30
0.0
 11
56.34514766147875
 21
21.61424703590021
 31
0.0
  0
LINE
  5
248
102
{ACAD_REACTORS
330
244
102
}
330
21
100
AcDbEntity
  8
GRUNDRISSHALLE2EG
  6
Continuous
 62
     7
100
AcDbLine
 10
56.48870029877391
 20
21.72861321860639
 30
0.0
 11
56.48870029877391
 21
21.61924703590021
 31
0.0
  0
CIRCLE
  5
249
102
{ACAD_REACTORS
330
244
102
}
330
21
100
AcDbEntity
  8
GRUNDRISSHALLE2EG
  6
Continuous
 62
     7
100
AcDbCircle
 10
56.34613891125095
 20
21.72762586782189
 30
0.0
 40
0.0059177411728298
  0
CIRCLE
  5
24A
102
{ACAD_REACTORS
330
244
102
}
330
21
100
AcDbEntity
  8
GRUNDRISSHALLE2EG
  6
Continuous
 62
     7
100
AcDbCircle
 10
56.3461222208521
 20
21.62029738201592
 30
0.0
 40
0.0059177411728298
  0
CIRCLE
  5
24B
102
{ACAD_REACTORS
330
244
102
}
330
21
100
AcDbEntity
  8
GRUNDRISSHALLE2EG
  6
Continuous
 62
     7
100
AcDbCircle
 10
56.48274509200539
 20
21.62024566631543
 30
0.0
 40
0.0059177411728298
  0
CIRCLE
  5
24C
102
{ACAD_REACTORS
330
244
102
}
330
21
100
AcDbEntity
  8
GRUNDRISSHALLE2EG
  6
Continuous
 62
     7
100
AcDbCircle
 10
56.48270305134607
 20
21.72766327515809
 30
0.0
 40
0.0059177411728298
  0
ARC
  5
24D
102
{ACAD_REACTORS
330
244
102
}
330
21
100
AcDbEntity
  8
GRUNDRISSHALLE2EG
  6
Continuous
 62
     7
100
AcDbCircle
 10
56.34514766147875
 20
21.72861321860639
 30
0.0
 40
0.005
100
AcDbArc
 50
90.00000000000005
 51
180.0000000000165
  0
ARC
  5
24E
102
{ACAD_REACTORS
330
244
102
}
330
21
100
AcDbEntity
  8
GRUNDRISSHALLE2EG
  6
Continuous
 62
     7
100
AcDbCircle
 10
56.34514766147875
 20
21.61924703590021
 30
0.0
 40
0.005
100
AcDbArc
 50
180.0000000000165
 51
270.0000000000001
  0
ARC
  5
24F
102
{ACAD_REACTORS
330
244
102
}
330
21
100
AcDbEntity
  8
GRUNDRISSHALLE2EG
  6
Continuous
 62
     7
100
AcDbCircle
 10
56.48370029877391
 20
21.61924703590021
 30
0.0
 40
0.005
100
AcDbArc
 50
270.0000000000001
 51
0.0
  0
ARC
  5
250
102
{ACAD_REACTORS
330
244
102
}
330
21
100
AcDbEntity
  8
GRUNDRISSHALLE2EG
  6
Continuous
 62
     7
100
AcDbCircle
 10
56.48370029877391
 20
21.72861321860639
 30
0.0
 40
0.005
100
AcDbArc
 50
0.0
 51
90.00000000000005
  0
LINE
  5
252
102
{ACAD_REACTORS
330
251
102
}
330
21
100
AcDbEntity
  8
GRUNDRISSHALLE2EG
  6
Continuous
 62
     7
100
AcDbLine
 10
16.37002749111504
 20
34.09113927550676
 30
0.0
 11
16.37002749111504
 21
31.08113927550676
 31
0.0
  0
LINE
  5
253
102
{ACAD_REACTORS
330
251
102
}
330
21
100
AcDbEntity
  8
GRUNDRISSHALLE2EG
  6
Continuous
 62
     7
100
AcDbLine
 10
16.37002749111504
 20
30.9683922885979
 30
0.0
 11
16.37002749111504
 21
27.95839228859791
 31
0.0
  0
LINE
  5
254
102
{ACAD_REACTORS
330
251
102
}
330
21
100
AcDbEntity
  8
GRUNDRISSHALLE2EG
  6
Continuous
 62
     7
100
AcDbLine
 10
16.37002749111504
 20
27.85481276975087
 30
0.0
 11
16.37002749111504
 21
24.84481276975087
 31
0.0
  0
LINE
  5
255
102
{ACAD_REACTORS
330
251
102
}
330
21
100
AcDbEntity
  8
GRUNDRISSHALLE2EG
  6
Continuous
 62
     7
100
AcDbLine
 10
16.37002749111504
 20
24.7440753207297
 30
0.0
 11
16.37002749111504
 21
21.73407532072971
 31
0.0
  0
LINE
  5
256
102
{ACAD_REACTORS
330
251
102
}
330
21
100
AcDbEntity
  8
GRUNDRISSHALLE2EG
  6
Continuous
 62
     7
100
AcDbLine
 10
16.37002749111504
 20
21.60046630745842
 30
0.0
 11
16.36945645840265
 21
18.59046636162426
 31
0.0
  0
LINE
  5
258
102
{ACAD_REACTORS
330
257
102
}
330
21
100
AcDbEntity
  8
GRUNDRISSHALLE2EG
  6
Continuous
 62
     7
100
AcDbLine
 10
56.48997421769949
 20
34.08872538839359
 30
0.0
 11
56.48997421769949
 21
31.07872538839359
 31
0.0
  0
LINE
  5
259
102
{ACAD_REACTORS
330
257
102
}
330
21
100
AcDbEntity
  8
GRUNDRISSHALLE2EG
  6
Continuous
 62
     7
100
AcDbLine
 10
56.48997421769949
 20
30.96597840148474
 30
0.0
 11
56.48997421769949
 21
27.95597840148474
 31
0.0
  0
LINE
  5
25A
102
{ACAD_REACTORS
330
257
102
}
330
21
100
AcDbEntity
  8
GRUNDRISSHALLE2EG
  6
Continuous
 62
     7
100
AcDbLine
 10
56.48997421769949
 20
27.85239888263771
 30
0.0
 11
56.48997421769949
 21
24.84239888263771
 31
0.0
  0
LINE
  5
25B
102
{ACAD_REACTORS
330
257
102
}
330
21
100
AcDbEntity
  8
GRUNDRISSHALLE2EG
  6
Continuous
 62
     7
100
AcDbLine
 10
56.48997421769949
 20
24.74166143361653
 30
0.0
 11
56.48997421769949
 21
21.73166143361654
 31
0.0
  0
LINE
  5
25C
102
{ACAD_REACTORS
330
257
102
}
330
21
100
AcDbEntity
  8
GRUNDRISSHALLE2EG
  6
Continuous
 62
     7
100
AcDbLine
 10
56.48997421769949
 20
21.59805242034526
 30
0.0
 11
56.48940318498709
 21
18.58805247451111
 31
0.0
  0
LINE
  5
25E
102
{ACAD_REACTORS
330
25D
102
}
330
21
100
AcDbEntity
  8
GRUNDRISSHALLE2EG
  6
Continuous
 62
     7
100
AcDbLine
 10
21.49205749598694
 20
18.35012484516604
 30
0.0
 11
26.38205749598693
 21
18.35012484516604
 31
0.0
  0
LINE
  5
25F
102
{ACAD_REACTORS
330
25D
102
}
330
21
100
AcDbEntity
  8
GRUNDRISSHALLE2EG
  6
Continuous
 62
     7
100
AcDbLine
 10
26.48813410865536
 20
18.35012484516604
 30
0.0
 11
31.37813410865536
 21
18.35012484516604
 31
0.0
  0
LINE
  5
260
102
{ACAD_REACTORS
330
25D
102
}
330
21
100
AcDbEntity
  8
GRUNDRISSHALLE2EG
  6
Continuous
 62
     7
100
AcDbLine
 10
31.49354565744748
 20
18.35012484516604
 30
0.0
 11
36.38354565744747
 21
18.35012484516604
 31
0.0
  0
LINE
  5
261
102
{ACAD_REACTORS
330
25D
102
}
330
21
100
AcDbEntity
  8
GRUNDRISSHALLE2EG
  6
Continuous
 62
     7
100
AcDbLine
 10
36.4806222701159
 20
18.35012484516604
 30
0.0
 11
41.3706222701159
 21
18.35012484516604
 31
0.0
  0
LINE
  5
262
102
{ACAD_REACTORS
330
25D
102
}
330
21
100
AcDbEntity
  8
GRUNDRISSHALLE2EG
  6
Continuous
 62
     7
100
AcDbLine
 10
41.49020128696983
 20
18.35012484516604
 30
0.0
 11
46.38020128696983
 21
18.35012484516604
 31
0.0
  0
LINE
  5
263
102
{ACAD_REACTORS
330
25D
102
}
330
21
100
AcDbEntity
  8
GRUNDRISSHALLE2EG
  6
Continuous
 62
     7
100
AcDbLine
 10
51.48738739998845
 20
18.35012484516604
 30
0.0
 11
56.37738739998845
 21
18.35012484516604
 31
0.0
  0
LINE
  5
264
102
{ACAD_REACTORS
330
25D
102
}
330
21
100
AcDbEntity
  8
GRUNDRISSHALLE2EG
  6
Continuous
 62
     7
100
AcDbLine
 10
46.48194983822665
 20
18.35012484516604
 30
0.0
 11
51.37194983822666
 21
18.35012484516604
 31
0.0
  0
LINE
  5
265
102
{ACAD_REACTORS
330
25D
102
}
330
21
100
AcDbEntity
  8
GRUNDRISSHALLE2EG
  6
Continuous
 62
     7
100
AcDbLine
 10
16.47728499810193
 20
18.35012484516604
 30
0.0
 11
21.36728499810193
 21
18.35012484516604
 31
0.0
  0
LINE
  5
267
102
{ACAD_REACTORS
330
266
102
}
330
21
100
AcDbEntity
  8
GRUNDRISSHALLE2EG
  6
Continuous
 62
     7
100
AcDbLine
 10
17.51156229663888
 20
18.60335785814292
 30
0.0
 11
18.51156229663888
 21
18.60335785814292
 31
0.0
  0
LINE
  5
268
102
{ACAD_REACTORS
330
266
102
}
330
21
100
AcDbEntity
  8
GRUNDRISSHALLE2EG
  6
Continuous
 62
     7
100
AcDbLine
 10
17.51156229663888
 20
18.63335785814292
 30
0.0
 11
18.51156229663888
 21
18.63335785814292
 31
0.0
  0
LINE
  5
269
102
{ACAD_REACTORS
330
266
102
}
330
21
100
AcDbEntity
  8
GRUNDRISSHALLE2EG
  6
Continuous
 62
     7
100
AcDbLine
 10
17.5114916469305
 20
18.63342858395154
 30
0.0
 11
17.5114916469305
 21
18.60339768891079
 31
0.0
  0
LINE
  5
26A
102
{ACAD_REACTORS
330
266
102
}
330
21
100
AcDbEntity
  8
GRUNDRISSHALLE2EG
  6
Continuous
 62
     7
100
AcDbLine
 10
18.51154413066179
 20
18.63342858395154
 30
0.0
 11
18.51162421304857
 21
18.60339768891079
 31
0.0
  0
LINE
  5
26C
102
{ACAD_REACTORS
330
26B
102
}
330
21
100
AcDbEntity
  8
GRUNDRISSHALLE2EG
  6
Continuous
 62
     7
100
AcDbLine
 10
18.51156229663888
 20
18.60335785814292
 30
0.0
 11
19.51156229663888
 21
18.60335785814292
 31
0.0
  0
LINE
  5
26D
102
{ACAD_REACTORS
330
26B
102
}
330
21
100
AcDbEntity
  8
GRUNDRISSHALLE2EG
  6
Continuous
 62
     7
100
AcDbLine
 10
18.51156229663888
 20
18.63335785814292
 30
0.0
 11
19.51156229663888
 21
18.63335785814292
 31
0.0
  0
LINE
  5
26E
102
{ACAD_REACTORS
330
26B
102
}
330
21
100
AcDbEntity
  8
GRUNDRISSHALLE2EG
  6
Continuous
 62
     7
100
AcDbLine
 10
18.51149164693051
 20
18.63342858395154
 30
0.0
 11
18.51149164693051
 21
18.60339768891079
 31
0.0
  0
LINE
  5
26F
102
{ACAD_REACTORS
330
26B
102
}
330
21
100
AcDbEntity
  8
GRUNDRISSHALLE2EG
  6
Continuous
 62
     7
100
AcDbLine
 10
19.51154413066179
 20
18.63342858395154
 30
0.0
 11
19.51162421304857
 21
18.60339768891079
 31
0.0
  0
LINE
  5
271
102
{ACAD_REACTORS
330
270
102
}
330
21
100
AcDbEntity
  8
GRUNDRISSHALLE2EG
  6
Continuous
 62
     7
100
AcDbLine
 10
19.51156229663888
 20
18.60335785814292
 30
0.0
 11
20.51156229663888
 21
18.60335785814292
 31
0.0
  0
LINE
  5
272
102
{ACAD_REACTORS
330
270
102
}
330
21
100
AcDbEntity
  8
GRUNDRISSHALLE2EG
  6
Continuous
 62
     7
100
AcDbLine
 10
19.51156229663888
 20
18.63335785814292
 30
0.0
 11
20.51156229663888
 21
18.63335785814292
 31
0.0
  0
LINE
  5
273
102
{ACAD_REACTORS
330
270
102
}
330
21
100
AcDbEntity
  8
GRUNDRISSHALLE2EG
  6
Continuous
 62
     7
100
AcDbLine
 10
19.51149164693051
 20
18.63342858395154
 30
0.0
 11
19.51149164693051
 21
18.60339768891079
 31
0.0
  0
LINE
  5
274
102
{ACAD_REACTORS
330
270
102
}
330
21
100
AcDbEntity
  8
GRUNDRISSHALLE2EG
  6
Continuous
 62
     7
100
AcDbLine
 10
20.5115441306618
 20
18.63342858395154
 30
0.0
 11
20.51162421304857
 21
18.60339768891079
 31
0.0
  0
LINE
  5
276
102
{ACAD_REACTORS
330
275
102
}
330
21
100
AcDbEntity
  8
GRUNDRISSHALLE2EG
  6
Continuous
 62
     7
100
AcDbLine
 10
20.51156229663888
 20
18.60335785814292
 30
0.0
 11
21.51156229663888
 21
18.60335785814292
 31
0.0
  0
LINE
  5
277
102
{ACAD_REACTORS
330
275
102
}
330
21
100
AcDbEntity
  8
GRUNDRISSHALLE2EG
  6
Continuous
 62
     7
100
AcDbLine
 10
20.51156229663888
 20
18.63335785814292
 30
0.0
 11
21.51156229663888
 21
18.63335785814292
 31
0.0
  0
LINE
  5
278
102
{ACAD_REACTORS
330
275
102
}
330
21
100
AcDbEntity
  8
GRUNDRISSHALLE2EG
  6
Continuous
 62
     7
100
AcDbLine
 10
20.51149164693051
 20
18.63342858395154
 30
0.0
 11
20.51149164693051
 21
18.60339768891079
 31
0.0
  0
LINE
  5
279
102
{ACAD_REACTORS
330
275
102
}
330
21
100
AcDbEntity
  8
GRUNDRISSHALLE2EG
  6
Continuous
 62
     7
100
AcDbLine
 10
21.5115441306618
 20
18.63342858395154
 30
0.0
 11
21.51162421304857
 21
18.60339768891079
 31
0.0
  0
LINE
  5
27B
102
{ACAD_REACTORS
330
27A
102
}
330
21
100
AcDbEntity
  8
GRUNDRISSHALLE2EG
  6
Continuous
 62
     7
100
AcDbLine
 10
21.51156229663888
 20
18.60335785814292
 30
0.0
 11
22.51156229663888
 21
18.60335785814292
 31
0.0
  0
LINE
  5
27C
102
{ACAD_REACTORS
330
27A
102
}
330
21
100
AcDbEntity
  8
GRUNDRISSHALLE2EG
  6
Continuous
 62
     7
100
AcDbLine
 10
21.51156229663888
 20
18.63335785814292
 30
0.0
 11
22.51156229663888
 21
18.63335785814292
 31
0.0
  0
LINE
  5
27D
102
{ACAD_REACTORS
330
27A
102
}
330
21
100
AcDbEntity
  8
GRUNDRISSHALLE2EG
  6
Continuous
 62
     7
100
AcDbLine
 10
21.51149164693051
 20
18.63342858395154
 30
0.0
 11
21.51149164693051
 21
18.60339768891079
 31
0.0
  0
LINE
  5
27E
102
{ACAD_REACTORS
330
27A
102
}
330
21
100
AcDbEntity
  8
GRUNDRISSHALLE2EG
  6
Continuous
 62
     7
100
AcDbLine
 10
22.5115441306618
 20
18.63342858395154
 30
0.0
 11
22.51162421304857
 21
18.60339768891079
 31
0.0
  0
LINE
  5
280
102
{ACAD_REACTORS
330
27F
102
}
330
21
100
AcDbEntity
  8
GRUNDRISSHALLE2EG
  6
Continuous
 62
     7
100
AcDbLine
 10
22.51156229663888
 20
18.60335785814292
 30
0.0
 11
23.51156229663888
 21
18.60335785814292
 31
0.0
  0
LINE
  5
281
102
{ACAD_REACTORS
330
27F
102
}
330
21
100
AcDbEntity
  8
GRUNDRISSHALLE2EG
  6
Continuous
 62
     7
100
AcDbLine
 10
22.51156229663888
 20
18.63335785814292
 30
0.0
 11
23.51156229663888
 21
18.63335785814292
 31
0.0
  0
LINE
  5
282
102
{ACAD_REACTORS
330
27F
102
}
330
21
100
AcDbEntity
  8
GRUNDRISSHALLE2EG
  6
Continuous
 62
     7
100
AcDbLine
 10
22.51149164693051
 20
18.63342858395154
 30
0.0
 11
22.51149164693051
 21
18.60339768891079
 31
0.0
  0
LINE
  5
283
102
{ACAD_REACTORS
330
27F
102
}
330
21
100
AcDbEntity
  8
GRUNDRISSHALLE2EG
  6
Continuous
 62
     7
100
AcDbLine
 10
23.51154413066179
 20
18.63342858395154
 30
0.0
 11
23.51162421304857
 21
18.60339768891079
 31
0.0
  0
LINE
  5
285
102
{ACAD_REACTORS
330
284
102
}
330
21
100
AcDbEntity
  8
GRUNDRISSHALLE2EG
  6
Continuous
 62
     7
100
AcDbLine
 10
23.51156229663888
 20
18.60335785814292
 30
0.0
 11
24.51156229663888
 21
18.60335785814292
 31
0.0
  0
LINE
  5
286
102
{ACAD_REACTORS
330
284
102
}
330
21
100
AcDbEntity
  8
GRUNDRISSHALLE2EG
  6
Continuous
 62
     7
100
AcDbLine
 10
23.51156229663888
 20
18.63335785814292
 30
0.0
 11
24.51156229663888
 21
18.63335785814292
 31
0.0
  0
LINE
  5
287
102
{ACAD_REACTORS
330
284
102
}
330
21
100
AcDbEntity
  8
GRUNDRISSHALLE2EG
  6
Continuous
 62
     7
100
AcDbLine
 10
23.51149164693051
 20
18.63342858395154
 30
0.0
 11
23.51149164693051
 21
18.60339768891079
 31
0.0
  0
LINE
  5
288
102
{ACAD_REACTORS
330
284
102
}
330
21
100
AcDbEntity
  8
GRUNDRISSHALLE2EG
  6
Continuous
 62
     7
100
AcDbLine
 10
24.5115441306618
 20
18.63342858395154
 30
0.0
 11
24.51162421304857
 21
18.60339768891079
 31
0.0
  0
LINE
  5
28A
102
{ACAD_REACTORS
330
289
102
}
330
21
100
AcDbEntity
  8
GRUNDRISSHALLE2EG
  6
Continuous
 62
     7
100
AcDbLine
 10
24.51156229663888
 20
18.60335785814292
 30
0.0
 11
25.51156229663888
 21
18.60335785814292
 31
0.0
  0
LINE
  5
28B
102
{ACAD_REACTORS
330
289
102
}
330
21
100
AcDbEntity
  8
GRUNDRISSHALLE2EG
  6
Continuous
 62
     7
100
AcDbLine
 10
24.51156229663888
 20
18.63335785814292
 30
0.0
 11
25.51156229663888
 21
18.63335785814292
 31
0.0
  0
LINE
  5
28C
102
{ACAD_REACTORS
330
289
102
}
330
21
100
AcDbEntity
  8
GRUNDRISSHALLE2EG
  6
Continuous
 62
     7
100
AcDbLine
 10
24.51149164693051
 20
18.63342858395154
 30
0.0
 11
24.51149164693051
 21
18.60339768891079
 31
0.0
  0
LINE
  5
28D
102
{ACAD_REACTORS
330
289
102
}
330
21
100
AcDbEntity
  8
GRUNDRISSHALLE2EG
  6
Continuous
 62
     7
100
AcDbLine
 10
25.5115441306618
 20
18.63342858395154
 30
0.0
 11
25.51162421304857
 21
18.60339768891079
 31
0.0
  0
LINE
  5
28F
102
{ACAD_REACTORS
330
28E
102
}
330
21
100
AcDbEntity
  8
GRUNDRISSHALLE2EG
  6
Continuous
 62
     7
100
AcDbLine
 10
25.51156229663888
 20
18.60335785814292
 30
0.0
 11
26.51156229663888
 21
18.60335785814292
 31
0.0
  0
LINE
  5
290
102
{ACAD_REACTORS
330
28E
102
}
330
21
100
AcDbEntity
  8
GRUNDRISSHALLE2EG
  6
Continuous
 62
     7
100
AcDbLine
 10
25.51156229663888
 20
18.63335785814292
 30
0.0
 11
26.51156229663888
 21
18.63335785814292
 31
0.0
  0
LINE
  5
291
102
{ACAD_REACTORS
330
28E
102
}
330
21
100
AcDbEntity
  8
GRUNDRISSHALLE2EG
  6
Continuous
 62
     7
100
AcDbLine
 10
25.51149164693051
 20
18.63342858395154
 30
0.0
 11
25.51149164693051
 21
18.60339768891079
 31
0.0
  0
LINE
  5
292
102
{ACAD_REACTORS
330
28E
102
}
330
21
100
AcDbEntity
  8
GRUNDRISSHALLE2EG
  6
Continuous
 62
     7
100
AcDbLine
 10
26.5115441306618
 20
18.63342858395154
 30
0.0
 11
26.51162421304857
 21
18.60339768891079
 31
0.0
  0
LINE
  5
294
102
{ACAD_REACTORS
330
293
102
}
330
21
100
AcDbEntity
  8
GRUNDRISSHALLE2EG
  6
Continuous
 62
     7
100
AcDbLine
 10
26.51156229663888
 20
18.60335785814292
 30
0.0
 11
27.51156229663888
 21
18.60335785814292
 31
0.0
  0
LINE
  5
295
102
{ACAD_REACTORS
330
293
102
}
330
21
100
AcDbEntity
  8
GRUNDRISSHALLE2EG
  6
Continuous
 62
     7
100
AcDbLine
 10
26.51156229663888
 20
18.63335785814292
 30
0.0
 11
27.51156229663888
 21
18.63335785814292
 31
0.0
  0
LINE
  5
296
102
{ACAD_REACTORS
330
293
102
}
330
21
100
AcDbEntity
  8
GRUNDRISSHALLE2EG
  6
Continuous
 62
     7
100
AcDbLine
 10
26.51149164693051
 20
18.63342858395154
 30
0.0
 11
26.51149164693051
 21
18.60339768891079
 31
0.0
  0
LINE
  5
297
102
{ACAD_REACTORS
330
293
102
}
330
21
100
AcDbEntity
  8
GRUNDRISSHALLE2EG
  6
Continuous
 62
     7
100
AcDbLine
 10
27.5115441306618
 20
18.63342858395154
 30
0.0
 11
27.51162421304857
 21
18.60339768891079
 31
0.0
  0
LINE
  5
299
102
{ACAD_REACTORS
330
298
102
}
330
21
100
AcDbEntity
  8
GRUNDRISSHALLE2EG
  6
Continuous
 62
     7
100
AcDbLine
 10
27.51156229663889
 20
18.60335785814292
 30
0.0
 11
28.51156229663888
 21
18.60335785814292
 31
0.0
  0
LINE
  5
29A
102
{ACAD_REACTORS
330
298
102
}
330
21
100
AcDbEntity
  8
GRUNDRISSHALLE2EG
  6
Continuous
 62
     7
100
AcDbLine
 10
27.51156229663889
 20
18.63335785814292
 30
0.0
 11
28.51156229663888
 21
18.63335785814292
 31
0.0
  0
LINE
  5
29B
102
{ACAD_REACTORS
330
298
102
}
330
21
100
AcDbEntity
  8
GRUNDRISSHALLE2EG
  6
Continuous
 62
     7
100
AcDbLine
 10
27.51149164693051
 20
18.63342858395154
 30
0.0
 11
27.51149164693051
 21
18.60339768891079
 31
0.0
  0
LINE
  5
29C
102
{ACAD_REACTORS
330
298
102
}
330
21
100
AcDbEntity
  8
GRUNDRISSHALLE2EG
  6
Continuous
 62
     7
100
AcDbLine
 10
28.5115441306618
 20
18.63342858395154
 30
0.0
 11
28.51162421304858
 21
18.60339768891079
 31
0.0
  0
LINE
  5
29E
102
{ACAD_REACTORS
330
29D
102
}
330
21
100
AcDbEntity
  8
GRUNDRISSHALLE2EG
  6
Continuous
 62
     7
100
AcDbLine
 10
28.51156229663888
 20
18.60335785814292
 30
0.0
 11
29.51156229663888
 21
18.60335785814292
 31
0.0
  0
LINE
  5
29F
102
{ACAD_REACTORS
330
29D
102
}
330
21
100
AcDbEntity
  8
GRUNDRISSHALLE2EG
  6
Continuous
 62
     7
100
AcDbLine
 10
28.51156229663888
 20
18.63335785814292
 30
0.0
 11
29.51156229663888
 21
18.63335785814292
 31
0.0
  0
LINE
  5
2A0
102
{ACAD_REACTORS
330
29D
102
}
330
21
100
AcDbEntity
  8
GRUNDRISSHALLE2EG
  6
Continuous
 62
     7
100
AcDbLine
 10
28.51149164693051
 20
18.63342858395154
 30
0.0
 11
28.51149164693051
 21
18.60339768891079
 31
0.0
  0
LINE
  5
2A1
102
{ACAD_REACTORS
330
29D
102
}
330
21
100
AcDbEntity
  8
GRUNDRISSHALLE2EG
  6
Continuous
 62
     7
100
AcDbLine
 10
29.5115441306618
 20
18.63342858395154
 30
0.0
 11
29.51162421304858
 21
18.60339768891079
 31
0.0
  0
LINE
  5
2A3
102
{ACAD_REACTORS
330
2A2
102
}
330
21
100
AcDbEntity
  8
GRUNDRISSHALLE2EG
  6
Continuous
 62
     7
100
AcDbLine
 10
29.51156229663888
 20
18.60335785814292
 30
0.0
 11
30.51156229663888
 21
18.60335785814292
 31
0.0
  0
LINE
  5
2A4
102
{ACAD_REACTORS
330
2A2
102
}
330
21
100
AcDbEntity
  8
GRUNDRISSHALLE2EG
  6
Continuous
 62
     7
100
AcDbLine
 10
29.51156229663888
 20
18.63335785814292
 30
0.0
 11
30.51156229663888
 21
18.63335785814292
 31
0.0
  0
LINE
  5
2A5
102
{ACAD_REACTORS
330
2A2
102
}
330
21
100
AcDbEntity
  8
GRUNDRISSHALLE2EG
  6
Continuous
 62
     7
100
AcDbLine
 10
29.51149164693051
 20
18.63342858395154
 30
0.0
 11
29.51149164693051
 21
18.60339768891079
 31
0.0
  0
LINE
  5
2A6
102
{ACAD_REACTORS
330
2A2
102
}
330
21
100
AcDbEntity
  8
GRUNDRISSHALLE2EG
  6
Continuous
 62
     7
100
AcDbLine
 10
30.5115441306618
 20
18.63342858395154
 30
0.0
 11
30.51162421304857
 21
18.60339768891079
 31
0.0
  0
LINE
  5
2A8
102
{ACAD_REACTORS
330
2A7
102
}
330
21
100
AcDbEntity
  8
GRUNDRISSHALLE2EG
  6
Continuous
 62
     7
100
AcDbLine
 10
30.51156229663888
 20
18.60335785814292
 30
0.0
 11
31.51156229663888
 21
18.60335785814292
 31
0.0
  0
LINE
  5
2A9
102
{ACAD_REACTORS
330
2A7
102
}
330
21
100
AcDbEntity
  8
GRUNDRISSHALLE2EG
  6
Continuous
 62
     7
100
AcDbLine
 10
30.51156229663888
 20
18.63335785814292
 30
0.0
 11
31.51156229663888
 21
18.63335785814292
 31
0.0
  0
LINE
  5
2AA
102
{ACAD_REACTORS
330
2A7
102
}
330
21
100
AcDbEntity
  8
GRUNDRISSHALLE2EG
  6
Continuous
 62
     7
100
AcDbLine
 10
30.51149164693051
 20
18.63342858395154
 30
0.0
 11
30.51149164693051
 21
18.60339768891079
 31
0.0
  0
LINE
  5
2AB
102
{ACAD_REACTORS
330
2A7
102
}
330
21
100
AcDbEntity
  8
GRUNDRISSHALLE2EG
  6
Continuous
 62
     7
100
AcDbLine
 10
31.5115441306618
 20
18.63342858395154
 30
0.0
 11
31.51162421304857
 21
18.60339768891079
 31
0.0
  0
LINE
  5
2AD
102
{ACAD_REACTORS
330
2AC
102
}
330
21
100
AcDbEntity
  8
GRUNDRISSHALLE2EG
  6
Continuous
 62
     7
100
AcDbLine
 10
31.51156229663888
 20
18.60335785814292
 30
0.0
 11
32.51156229663888
 21
18.60335785814292
 31
0.0
  0
LINE
  5
2AE
102
{ACAD_REACTORS
330
2AC
102
}
330
21
100
AcDbEntity
  8
GRUNDRISSHALLE2EG
  6
Continuous
 62
     7
100
AcDbLine
 10
31.51156229663888
 20
18.63335785814292
 30
0.0
 11
32.51156229663888
 21
18.63335785814292
 31
0.0
  0
LINE
  5
2AF
102
{ACAD_REACTORS
330
2AC
102
}
330
21
100
AcDbEntity
  8
GRUNDRISSHALLE2EG
  6
Continuous
 62
     7
100
AcDbLine
 10
31.51149164693052
 20
18.63342858395154
 30
0.0
 11
31.51149164693052
 21
18.60339768891079
 31
0.0
  0
LINE
  5
2B0
102
{ACAD_REACTORS
330
2AC
102
}
330
21
100
AcDbEntity
  8
GRUNDRISSHALLE2EG
  6
Continuous
 62
     7
100
AcDbLine
 10
32.5115441306618
 20
18.63342858395154
 30
0.0
 11
32.51162421304858
 21
18.60339768891079
 31
0.0
  0
LINE
  5
2B2
102
{ACAD_REACTORS
330
2B1
102
}
330
21
100
AcDbEntity
  8
GRUNDRISSHALLE2EG
  6
Continuous
 62
     7
100
AcDbLine
 10
32.51156229663888
 20
18.60335785814292
 30
0.0
 11
33.51156229663889
 21
18.60335785814292
 31
0.0
  0
LINE
  5
2B3
102
{ACAD_REACTORS
330
2B1
102
}
330
21
100
AcDbEntity
  8
GRUNDRISSHALLE2EG
  6
Continuous
 62
     7
100
AcDbLine
 10
32.51156229663888
 20
18.63335785814292
 30
0.0
 11
33.51156229663889
 21
18.63335785814292
 31
0.0
  0
LINE
  5
2B4
102
{ACAD_REACTORS
330
2B1
102
}
330
21
100
AcDbEntity
  8
GRUNDRISSHALLE2EG
  6
Continuous
 62
     7
100
AcDbLine
 10
32.51149164693052
 20
18.63342858395154
 30
0.0
 11
32.51149164693052
 21
18.60339768891079
 31
0.0
  0
LINE
  5
2B5
102
{ACAD_REACTORS
330
2B1
102
}
330
21
100
AcDbEntity
  8
GRUNDRISSHALLE2EG
  6
Continuous
 62
     7
100
AcDbLine
 10
33.51154413066181
 20
18.63342858395154
 30
0.0
 11
33.51162421304858
 21
18.60339768891079
 31
0.0
  0
LINE
  5
2B7
102
{ACAD_REACTORS
330
2B6
102
}
330
21
100
AcDbEntity
  8
GRUNDRISSHALLE2EG
  6
Continuous
 62
     7
100
AcDbLine
 10
33.51156229663889
 20
18.60335785814292
 30
0.0
 11
34.51156229663889
 21
18.60335785814292
 31
0.0
  0
LINE
  5
2B8
102
{ACAD_REACTORS
330
2B6
102
}
330
21
100
AcDbEntity
  8
GRUNDRISSHALLE2EG
  6
Continuous
 62
     7
100
AcDbLine
 10
33.51156229663889
 20
18.63335785814292
 30
0.0
 11
34.51156229663889
 21
18.63335785814292
 31
0.0
  0
LINE
  5
2B9
102
{ACAD_REACTORS
330
2B6
102
}
330
21
100
AcDbEntity
  8
GRUNDRISSHALLE2EG
  6
Continuous
 62
     7
100
AcDbLine
 10
33.51149164693051
 20
18.63342858395154
 30
0.0
 11
33.51149164693051
 21
18.60339768891079
 31
0.0
  0
LINE
  5
2BA
102
{ACAD_REACTORS
330
2B6
102
}
330
21
100
AcDbEntity
  8
GRUNDRISSHALLE2EG
  6
Continuous
 62
     7
100
AcDbLine
 10
34.51154413066181
 20
18.63342858395154
 30
0.0
 11
34.51162421304858
 21
18.60339768891079
 31
0.0
  0
LINE
  5
2BC
102
{ACAD_REACTORS
330
2BB
102
}
330
21
100
AcDbEntity
  8
GRUNDRISSHALLE2EG
  6
Continuous
 62
     7
100
AcDbLine
 10
34.51156229663889
 20
18.60335785814292
 30
0.0
 11
35.51156229663888
 21
18.60335785814292
 31
0.0
  0
LINE
  5
2BD
102
{ACAD_REACTORS
330
2BB
102
}
330
21
100
AcDbEntity
  8
GRUNDRISSHALLE2EG
  6
Continuous
 62
     7
100
AcDbLine
 10
34.51156229663889
 20
18.63335785814292
 30
0.0
 11
35.51156229663888
 21
18.63335785814292
 31
0.0
  0
LINE
  5
2BE
102
{ACAD_REACTORS
330
2BB
102
}
330
21
100
AcDbEntity
  8
GRUNDRISSHALLE2EG
  6
Continuous
 62
     7
100
AcDbLine
 10
34.51149164693052
 20
18.63342858395154
 30
0.0
 11
34.51149164693052
 21
18.60339768891079
 31
0.0
  0
LINE
  5
2BF
102
{ACAD_REACTORS
330
2BB
102
}
330
21
100
AcDbEntity
  8
GRUNDRISSHALLE2EG
  6
Continuous
 62
     7
100
AcDbLine
 10
35.51154413066181
 20
18.63342858395154
 30
0.0
 11
35.51162421304858
 21
18.60339768891079
 31
0.0
  0
LINE
  5
2C1
102
{ACAD_REACTORS
330
2C0
102
}
330
21
100
AcDbEntity
  8
GRUNDRISSHALLE2EG
  6
Continuous
 62
     7
100
AcDbLine
 10
35.51156229663888
 20
18.60335785814292
 30
0.0
 11
36.51156229663889
 21
18.60335785814292
 31
0.0
  0
LINE
  5
2C2
102
{ACAD_REACTORS
330
2C0
102
}
330
21
100
AcDbEntity
  8
GRUNDRISSHALLE2EG
  6
Continuous
 62
     7
100
AcDbLine
 10
35.51156229663888
 20
18.63335785814292
 30
0.0
 11
36.51156229663889
 21
18.63335785814292
 31
0.0
  0
LINE
  5
2C3
102
{ACAD_REACTORS
330
2C0
102
}
330
21
100
AcDbEntity
  8
GRUNDRISSHALLE2EG
  6
Continuous
 62
     7
100
AcDbLine
 10
35.51149164693052
 20
18.63342858395154
 30
0.0
 11
35.51149164693052
 21
18.60339768891079
 31
0.0
  0
LINE
  5
2C4
102
{ACAD_REACTORS
330
2C0
102
}
330
21
100
AcDbEntity
  8
GRUNDRISSHALLE2EG
  6
Continuous
 62
     7
100
AcDbLine
 10
36.5115441306618
 20
18.63342858395154
 30
0.0
 11
36.51162421304858
 21
18.60339768891079
 31
0.0
  0
LINE
  5
2C6
102
{ACAD_REACTORS
330
2C5
102
}
330
21
100
AcDbEntity
  8
GRUNDRISSHALLE2EG
  6
Continuous
 62
     7
100
AcDbLine
 10
36.51156229663889
 20
18.60335785814292
 30
0.0
 11
37.51156229663889
 21
18.60335785814292
 31
0.0
  0
LINE
  5
2C7
102
{ACAD_REACTORS
330
2C5
102
}
330
21
100
AcDbEntity
  8
GRUNDRISSHALLE2EG
  6
Continuous
 62
     7
100
AcDbLine
 10
36.51156229663889
 20
18.63335785814292
 30
0.0
 11
37.51156229663889
 21
18.63335785814292
 31
0.0
  0
LINE
  5
2C8
102
{ACAD_REACTORS
330
2C5
102
}
330
21
100
AcDbEntity
  8
GRUNDRISSHALLE2EG
  6
Continuous
 62
     7
100
AcDbLine
 10
36.51149164693052
 20
18.63342858395154
 30
0.0
 11
36.51149164693052
 21
18.60339768891079
 31
0.0
  0
LINE
  5
2C9
102
{ACAD_REACTORS
330
2C5
102
}
330
21
100
AcDbEntity
  8
GRUNDRISSHALLE2EG
  6
Continuous
 62
     7
100
AcDbLine
 10
37.51154413066181
 20
18.63342858395154
 30
0.0
 11
37.51162421304858
 21
18.60339768891079
 31
0.0
  0
LINE
  5
2CB
102
{ACAD_REACTORS
330
2CA
102
}
330
21
100
AcDbEntity
  8
GRUNDRISSHALLE2EG
  6
Continuous
 62
     7
100
AcDbLine
 10
37.51156229663889
 20
18.60335785814292
 30
0.0
 11
38.51156229663889
 21
18.60335785814292
 31
0.0
  0
LINE
  5
2CC
102
{ACAD_REACTORS
330
2CA
102
}
330
21
100
AcDbEntity
  8
GRUNDRISSHALLE2EG
  6
Continuous
 62
     7
100
AcDbLine
 10
37.51156229663889
 20
18.63335785814292
 30
0.0
 11
38.51156229663889
 21
18.63335785814292
 31
0.0
  0
LINE
  5
2CD
102
{ACAD_REACTORS
330
2CA
102
}
330
21
100
AcDbEntity
  8
GRUNDRISSHALLE2EG
  6
Continuous
 62
     7
100
AcDbLine
 10
37.51149164693052
 20
18.63342858395154
 30
0.0
 11
37.51149164693052
 21
18.60339768891079
 31
0.0
  0
LINE
  5
2CE
102
{ACAD_REACTORS
330
2CA
102
}
330
21
100
AcDbEntity
  8
GRUNDRISSHALLE2EG
  6
Continuous
 62
     7
100
AcDbLine
 10
38.5115441306618
 20
18.63342858395154
 30
0.0
 11
38.51162421304858
 21
18.60339768891079
 31
0.0
  0
LINE
  5
2D0
102
{ACAD_REACTORS
330
2CF
102
}
330
21
100
AcDbEntity
  8
GRUNDRISSHALLE2EG
  6
Continuous
 62
     7
100
AcDbLine
 10
38.51156229663889
 20
18.60335785814292
 30
0.0
 11
39.51156229663889
 21
18.60335785814292
 31
0.0
  0
LINE
  5
2D1
102
{ACAD_REACTORS
330
2CF
102
}
330
21
100
AcDbEntity
  8
GRUNDRISSHALLE2EG
  6
Continuous
 62
     7
100
AcDbLine
 10
38.51156229663889
 20
18.63335785814292
 30
0.0
 11
39.51156229663889
 21
18.63335785814292
 31
0.0
  0
LINE
  5
2D2
102
{ACAD_REACTORS
330
2CF
102
}
330
21
100
AcDbEntity
  8
GRUNDRISSHALLE2EG
  6
Continuous
 62
     7
100
AcDbLine
 10
38.51149164693051
 20
18.63342858395154
 30
0.0
 11
38.51149164693051
 21
18.60339768891079
 31
0.0
  0
LINE
  5
2D3
102
{ACAD_REACTORS
330
2CF
102
}
330
21
100
AcDbEntity
  8
GRUNDRISSHALLE2EG
  6
Continuous
 62
     7
100
AcDbLine
 10
39.51154413066181
 20
18.63342858395154
 30
0.0
 11
39.51162421304858
 21
18.60339768891079
 31
0.0
  0
LINE
  5
2D5
102
{ACAD_REACTORS
330
2D4
102
}
330
21
100
AcDbEntity
  8
GRUNDRISSHALLE2EG
  6
Continuous
 62
     7
100
AcDbLine
 10
39.51156229663889
 20
18.60335785814292
 30
0.0
 11
40.51156229663888
 21
18.60335785814292
 31
0.0
  0
LINE
  5
2D6
102
{ACAD_REACTORS
330
2D4
102
}
330
21
100
AcDbEntity
  8
GRUNDRISSHALLE2EG
  6
Continuous
 62
     7
100
AcDbLine
 10
39.51156229663889
 20
18.63335785814292
 30
0.0
 11
40.51156229663888
 21
18.63335785814292
 31
0.0
  0
LINE
  5
2D7
102
{ACAD_REACTORS
330
2D4
102
}
330
21
100
AcDbEntity
  8
GRUNDRISSHALLE2EG
  6
Continuous
 62
     7
100
AcDbLine
 10
39.51149164693052
 20
18.63342858395154
 30
0.0
 11
39.51149164693052
 21
18.60339768891079
 31
0.0
  0
LINE
  5
2D8
102
{ACAD_REACTORS
330
2D4
102
}
330
21
100
AcDbEntity
  8
GRUNDRISSHALLE2EG
  6
Continuous
 62
     7
100
AcDbLine
 10
40.5115441306618
 20
18.63342858395154
 30
0.0
 11
40.51162421304858
 21
18.60339768891079
 31
0.0
  0
LINE
  5
2DA
102
{ACAD_REACTORS
330
2D9
102
}
330
21
100
AcDbEntity
  8
GRUNDRISSHALLE2EG
  6
Continuous
 62
     7
100
AcDbLine
 10
40.51156229663888
 20
18.60335785814292
 30
0.0
 11
41.51156229663889
 21
18.60335785814292
 31
0.0
  0
LINE
  5
2DB
102
{ACAD_REACTORS
330
2D9
102
}
330
21
100
AcDbEntity
  8
GRUNDRISSHALLE2EG
  6
Continuous
 62
     7
100
AcDbLine
 10
40.51156229663888
 20
18.63335785814292
 30
0.0
 11
41.51156229663889
 21
18.63335785814292
 31
0.0
  0
LINE
  5
2DC
102
{ACAD_REACTORS
330
2D9
102
}
330
21
100
AcDbEntity
  8
GRUNDRISSHALLE2EG
  6
Continuous
 62
     7
100
AcDbLine
 10
40.51149164693051
 20
18.63342858395154
 30
0.0
 11
40.51149164693051
 21
18.60339768891079
 31
0.0
  0
LINE
  5
2DD
102
{ACAD_REACTORS
330
2D9
102
}
330
21
100
AcDbEntity
  8
GRUNDRISSHALLE2EG
  6
Continuous
 62
     7
100
AcDbLine
 10
41.5115441306618
 20
18.63342858395154
 30
0.0
 11
41.51162421304857
 21
18.60339768891079
 31
0.0
  0
LINE
  5
2DF
102
{ACAD_REACTORS
330
2DE
102
}
330
21
100
AcDbEntity
  8
GRUNDRISSHALLE2EG
  6
Continuous
 62
     7
100
AcDbLine
 10
41.51156229663889
 20
18.60335785814292
 30
0.0
 11
42.51156229663888
 21
18.60335785814292
 31
0.0
  0
LINE
  5
2E0
102
{ACAD_REACTORS
330
2DE
102
}
330
21
100
AcDbEntity
  8
GRUNDRISSHALLE2EG
  6
Continuous
 62
     7
100
AcDbLine
 10
41.51156229663889
 20
18.63335785814292
 30
0.0
 11
42.51156229663888
 21
18.63335785814292
 31
0.0
  0
LINE
  5
2E1
102
{ACAD_REACTORS
330
2DE
102
}
330
21
100
AcDbEntity
  8
GRUNDRISSHALLE2EG
  6
Continuous
 62
     7
100
AcDbLine
 10
41.51149164693051
 20
18.63342858395154
 30
0.0
 11
41.51149164693051
 21
18.60339768891079
 31
0.0
  0
LINE
  5
2E2
102
{ACAD_REACTORS
330
2DE
102
}
330
21
100
AcDbEntity
  8
GRUNDRISSHALLE2EG
  6
Continuous
 62
     7
100
AcDbLine
 10
42.5115441306618
 20
18.63342858395154
 30
0.0
 11
42.51162421304858
 21
18.60339768891079
 31
0.0
  0
LINE
  5
2E4
102
{ACAD_REACTORS
330
2E3
102
}
330
21
100
AcDbEntity
  8
GRUNDRISSHALLE2EG
  6
Continuous
 62
     7
100
AcDbLine
 10
42.51156229663888
 20
18.60335785814292
 30
0.0
 11
43.51156229663889
 21
18.60335785814292
 31
0.0
  0
LINE
  5
2E5
102
{ACAD_REACTORS
330
2E3
102
}
330
21
100
AcDbEntity
  8
GRUNDRISSHALLE2EG
  6
Continuous
 62
     7
100
AcDbLine
 10
42.51156229663888
 20
18.63335785814292
 30
0.0
 11
43.51156229663889
 21
18.63335785814292
 31
0.0
  0
LINE
  5
2E6
102
{ACAD_REACTORS
330
2E3
102
}
330
21
100
AcDbEntity
  8
GRUNDRISSHALLE2EG
  6
Continuous
 62
     7
100
AcDbLine
 10
42.51149164693052
 20
18.63342858395154
 30
0.0
 11
42.51149164693052
 21
18.60339768891079
 31
0.0
  0
LINE
  5
2E7
102
{ACAD_REACTORS
330
2E3
102
}
330
21
100
AcDbEntity
  8
GRUNDRISSHALLE2EG
  6
Continuous
 62
     7
100
AcDbLine
 10
43.5115441306618
 20
18.63342858395154
 30
0.0
 11
43.51162421304858
 21
18.60339768891079
 31
0.0
  0
LINE
  5
2E9
102
{ACAD_REACTORS
330
2E8
102
}
330
21
100
AcDbEntity
  8
GRUNDRISSHALLE2EG
  6
Continuous
 62
     7
100
AcDbLine
 10
43.51156229663888
 20
18.60335785814292
 30
0.0
 11
44.51156229663889
 21
18.60335785814292
 31
0.0
  0
LINE
  5
2EA
102
{ACAD_REACTORS
330
2E8
102
}
330
21
100
AcDbEntity
  8
GRUNDRISSHALLE2EG
  6
Continuous
 62
     7
100
AcDbLine
 10
43.51156229663888
 20
18.63335785814292
 30
0.0
 11
44.51156229663889
 21
18.63335785814292
 31
0.0
  0
LINE
  5
2EB
102
{ACAD_REACTORS
330
2E8
102
}
330
21
100
AcDbEntity
  8
GRUNDRISSHALLE2EG
  6
Continuous
 62
     7
100
AcDbLine
 10
43.51149164693051
 20
18.63342858395154
 30
0.0
 11
43.51149164693051
 21
18.60339768891079
 31
0.0
  0
LINE
  5
2EC
102
{ACAD_REACTORS
330
2E8
102
}
330
21
100
AcDbEntity
  8
GRUNDRISSHALLE2EG
  6
Continuous
 62
     7
100
AcDbLine
 10
44.5115441306618
 20
18.63342858395154
 30
0.0
 11
44.51162421304857
 21
18.60339768891079
 31
0.0
  0
LINE
  5
2EE
102
{ACAD_REACTORS
330
2ED
102
}
330
21
100
AcDbEntity
  8
GRUNDRISSHALLE2EG
  6
Continuous
 62
     7
100
AcDbLine
 10
44.51156229663888
 20
18.60335785814292
 30
0.0
 11
45.51156229663888
 21
18.60335785814292
 31
0.0
  0
LINE
  5
2EF
102
{ACAD_REACTORS
330
2ED
102
}
330
21
100
AcDbEntity
  8
GRUNDRISSHALLE2EG
  6
Continuous
 62
     7
100
AcDbLine
 10
44.51156229663888
 20
18.63335785814292
 30
0.0
 11
45.51156229663888
 21
18.63335785814292
 31
0.0
  0
LINE
  5
2F0
102
{ACAD_REACTORS
330
2ED
102
}
330
21
100
AcDbEntity
  8
GRUNDRISSHALLE2EG
  6
Continuous
 62
     7
100
AcDbLine
 10
44.51149164693052
 20
18.63342858395154
 30
0.0
 11
44.51149164693052
 21
18.60339768891079
 31
0.0
  0
LINE
  5
2F1
102
{ACAD_REACTORS
330
2ED
102
}
330
21
100
AcDbEntity
  8
GRUNDRISSHALLE2EG
  6
Continuous
 62
     7
100
AcDbLine
 10
45.5115441306618
 20
18.63342858395154
 30
0.0
 11
45.51162421304858
 21
18.60339768891079
 31
0.0
  0
LINE
  5
2F3
102
{ACAD_REACTORS
330
2F2
102
}
330
21
100
AcDbEntity
  8
GRUNDRISSHALLE2EG
  6
Continuous
 62
     7
100
AcDbLine
 10
45.51156229663887
 20
18.60335785814292
 30
0.0
 11
46.51156229663889
 21
18.60335785814292
 31
0.0
  0
LINE
  5
2F4
102
{ACAD_REACTORS
330
2F2
102
}
330
21
100
AcDbEntity
  8
GRUNDRISSHALLE2EG
  6
Continuous
 62
     7
100
AcDbLine
 10
45.51156229663887
 20
18.63335785814292
 30
0.0
 11
46.51156229663889
 21
18.63335785814292
 31
0.0
  0
LINE
  5
2F5
102
{ACAD_REACTORS
330
2F2
102
}
330
21
100
AcDbEntity
  8
GRUNDRISSHALLE2EG
  6
Continuous
 62
     7
100
AcDbLine
 10
45.51149164693051
 20
18.63342858395154
 30
0.0
 11
45.51149164693051
 21
18.60339768891079
 31
0.0
  0
LINE
  5
2F6
102
{ACAD_REACTORS
330
2F2
102
}
330
21
100
AcDbEntity
  8
GRUNDRISSHALLE2EG
  6
Continuous
 62
     7
100
AcDbLine
 10
46.51154413066179
 20
18.63342858395154
 30
0.0
 11
46.51162421304857
 21
18.60339768891079
 31
0.0
  0
LINE
  5
2F8
102
{ACAD_REACTORS
330
2F7
102
}
330
21
100
AcDbEntity
  8
GRUNDRISSHALLE2EG
  6
Continuous
 62
     7
100
AcDbLine
 10
46.51156229663888
 20
18.60335785814292
 30
0.0
 11
47.51156229663888
 21
18.60335785814292
 31
0.0
  0
LINE
  5
2F9
102
{ACAD_REACTORS
330
2F7
102
}
330
21
100
AcDbEntity
  8
GRUNDRISSHALLE2EG
  6
Continuous
 62
     7
100
AcDbLine
 10
46.51156229663888
 20
18.63335785814292
 30
0.0
 11
47.51156229663888
 21
18.63335785814292
 31
0.0
  0
LINE
  5
2FA
102
{ACAD_REACTORS
330
2F7
102
}
330
21
100
AcDbEntity
  8
GRUNDRISSHALLE2EG
  6
Continuous
 62
     7
100
AcDbLine
 10
46.51149164693051
 20
18.63342858395154
 30
0.0
 11
46.51149164693051
 21
18.60339768891079
 31
0.0
  0
LINE
  5
2FB
102
{ACAD_REACTORS
330
2F7
102
}
330
21
100
AcDbEntity
  8
GRUNDRISSHALLE2EG
  6
Continuous
 62
     7
100
AcDbLine
 10
47.5115441306618
 20
18.63342858395154
 30
0.0
 11
47.51162421304857
 21
18.60339768891079
 31
0.0
  0
LINE
  5
2FD
102
{ACAD_REACTORS
330
2FC
102
}
330
21
100
AcDbEntity
  8
GRUNDRISSHALLE2EG
  6
Continuous
 62
     7
100
AcDbLine
 10
47.51156229663887
 20
18.60335785814292
 30
0.0
 11
48.51156229663888
 21
18.60335785814292
 31
0.0
  0
LINE
  5
2FE
102
{ACAD_REACTORS
330
2FC
102
}
330
21
100
AcDbEntity
  8
GRUNDRISSHALLE2EG
  6
Continuous
 62
     7
100
AcDbLine
 10
47.51156229663887
 20
18.63335785814292
 30
0.0
 11
48.51156229663888
 21
18.63335785814292
 31
0.0
  0
LINE
  5
2FF
102
{ACAD_REACTORS
330
2FC
102
}
330
21
100
AcDbEntity
  8
GRUNDRISSHALLE2EG
  6
Continuous
 62
     7
100
AcDbLine
 10
47.51149164693051
 20
18.63342858395154
 30
0.0
 11
47.51149164693051
 21
18.60339768891079
 31
0.0
  0
LINE
  5
300
102
{ACAD_REACTORS
330
2FC
102
}
330
21
100
AcDbEntity
  8
GRUNDRISSHALLE2EG
  6
Continuous
 62
     7
100
AcDbLine
 10
48.51154413066179
 20
18.63342858395154
 30
0.0
 11
48.51162421304857
 21
18.60339768891079
 31
0.0
  0
LINE
  5
302
102
{ACAD_REACTORS
330
301
102
}
330
21
100
AcDbEntity
  8
GRUNDRISSHALLE2EG
  6
Continuous
 62
     7
100
AcDbLine
 10
48.51156229663888
 20
18.60335785814292
 30
0.0
 11
49.51156229663888
 21
18.60335785814292
 31
0.0
  0
LINE
  5
303
102
{ACAD_REACTORS
330
301
102
}
330
21
100
AcDbEntity
  8
GRUNDRISSHALLE2EG
  6
Continuous
 62
     7
100
AcDbLine
 10
48.51156229663888
 20
18.63335785814292
 30
0.0
 11
49.51156229663888
 21
18.63335785814292
 31
0.0
  0
LINE
  5
304
102
{ACAD_REACTORS
330
301
102
}
330
21
100
AcDbEntity
  8
GRUNDRISSHALLE2EG
  6
Continuous
 62
     7
100
AcDbLine
 10
48.51149164693051
 20
18.63342858395154
 30
0.0
 11
48.51149164693051
 21
18.60339768891079
 31
0.0
  0
LINE
  5
305
102
{ACAD_REACTORS
330
301
102
}
330
21
100
AcDbEntity
  8
GRUNDRISSHALLE2EG
  6
Continuous
 62
     7
100
AcDbLine
 10
49.51154413066179
 20
18.63342858395154
 30
0.0
 11
49.51162421304857
 21
18.60339768891079
 31
0.0
  0
LINE
  5
307
102
{ACAD_REACTORS
330
306
102
}
330
21
100
AcDbEntity
  8
GRUNDRISSHALLE2EG
  6
Continuous
 62
     7
100
AcDbLine
 10
49.51156229663887
 20
18.60335785814292
 30
0.0
 11
50.51156229663888
 21
18.60335785814292
 31
0.0
  0
LINE
  5
308
102
{ACAD_REACTORS
330
306
102
}
330
21
100
AcDbEntity
  8
GRUNDRISSHALLE2EG
  6
Continuous
 62
     7
100
AcDbLine
 10
49.51156229663887
 20
18.63335785814292
 30
0.0
 11
50.51156229663888
 21
18.63335785814292
 31
0.0
  0
LINE
  5
309
102
{ACAD_REACTORS
330
306
102
}
330
21
100
AcDbEntity
  8
GRUNDRISSHALLE2EG
  6
Continuous
 62
     7
100
AcDbLine
 10
49.51149164693051
 20
18.63342858395154
 30
0.0
 11
49.51149164693051
 21
18.60339768891079
 31
0.0
  0
LINE
  5
30A
102
{ACAD_REACTORS
330
306
102
}
330
21
100
AcDbEntity
  8
GRUNDRISSHALLE2EG
  6
Continuous
 62
     7
100
AcDbLine
 10
50.51154413066178
 20
18.63342858395154
 30
0.0
 11
50.51162421304856
 21
18.60339768891079
 31
0.0
  0
LINE
  5
30C
102
{ACAD_REACTORS
330
30B
102
}
330
21
100
AcDbEntity
  8
GRUNDRISSHALLE2EG
  6
Continuous
 62
     7
100
AcDbLine
 10
50.51156229663887
 20
18.60335785814292
 30
0.0
 11
51.51156229663887
 21
18.60335785814292
 31
0.0
  0
LINE
  5
30D
102
{ACAD_REACTORS
330
30B
102
}
330
21
100
AcDbEntity
  8
GRUNDRISSHALLE2EG
  6
Continuous
 62
     7
100
AcDbLine
 10
50.51156229663887
 20
18.63335785814292
 30
0.0
 11
51.51156229663887
 21
18.63335785814292
 31
0.0
  0
LINE
  5
30E
102
{ACAD_REACTORS
330
30B
102
}
330
21
100
AcDbEntity
  8
GRUNDRISSHALLE2EG
  6
Continuous
 62
     7
100
AcDbLine
 10
50.5114916469305
 20
18.63342858395154
 30
0.0
 11
50.5114916469305
 21
18.60339768891079
 31
0.0
  0
LINE
  5
30F
102
{ACAD_REACTORS
330
30B
102
}
330
21
100
AcDbEntity
  8
GRUNDRISSHALLE2EG
  6
Continuous
 62
     7
100
AcDbLine
 10
51.51154413066179
 20
18.63342858395154
 30
0.0
 11
51.51162421304857
 21
18.60339768891079
 31
0.0
  0
LINE
  5
311
102
{ACAD_REACTORS
330
310
102
}
330
21
100
AcDbEntity
  8
GRUNDRISSHALLE2EG
  6
Continuous
 62
     7
100
AcDbLine
 10
51.51156229663887
 20
18.60335785814292
 30
0.0
 11
52.51156229663887
 21
18.60335785814292
 31
0.0
  0
LINE
  5
312
102
{ACAD_REACTORS
330
310
102
}
330
21
100
AcDbEntity
  8
GRUNDRISSHALLE2EG
  6
Continuous
 62
     7
100
AcDbLine
 10
51.51156229663887
 20
18.63335785814292
 30
0.0
 11
52.51156229663887
 21
18.63335785814292
 31
0.0
  0
LINE
  5
313
102
{ACAD_REACTORS
330
310
102
}
330
21
100
AcDbEntity
  8
GRUNDRISSHALLE2EG
  6
Continuous
 62
     7
100
AcDbLine
 10
51.5114916469305
 20
18.63342858395154
 30
0.0
 11
51.5114916469305
 21
18.60339768891079
 31
0.0
  0
LINE
  5
314
102
{ACAD_REACTORS
330
310
102
}
330
21
100
AcDbEntity
  8
GRUNDRISSHALLE2EG
  6
Continuous
 62
     7
100
AcDbLine
 10
52.51154413066178
 20
18.63342858395154
 30
0.0
 11
52.51162421304855
 21
18.60339768891079
 31
0.0
  0
LINE
  5
316
102
{ACAD_REACTORS
330
315
102
}
330
21
100
AcDbEntity
  8
GRUNDRISSHALLE2EG
  6
Continuous
 62
     7
100
AcDbLine
 10
52.51156229663886
 20
18.60335785814292
 30
0.0
 11
53.51156229663886
 21
18.60335785814292
 31
0.0
  0
LINE
  5
317
102
{ACAD_REACTORS
330
315
102
}
330
21
100
AcDbEntity
  8
GRUNDRISSHALLE2EG
  6
Continuous
 62
     7
100
AcDbLine
 10
52.51156229663886
 20
18.63335785814292
 30
0.0
 11
53.51156229663886
 21
18.63335785814292
 31
0.0
  0
LINE
  5
318
102
{ACAD_REACTORS
330
315
102
}
330
21
100
AcDbEntity
  8
GRUNDRISSHALLE2EG
  6
Continuous
 62
     7
100
AcDbLine
 10
52.5114916469305
 20
18.63342858395154
 30
0.0
 11
52.5114916469305
 21
18.60339768891079
 31
0.0
  0
LINE
  5
319
102
{ACAD_REACTORS
330
315
102
}
330
21
100
AcDbEntity
  8
GRUNDRISSHALLE2EG
  6
Continuous
 62
     7
100
AcDbLine
 10
53.51154413066178
 20
18.63342858395154
 30
0.0
 11
53.51162421304856
 21
18.60339768891079
 31
0.0
  0
LINE
  5
31B
102
{ACAD_REACTORS
330
31A
102
}
330
21
100
AcDbEntity
  8
GRUNDRISSHALLE2EG
  6
Continuous
 62
     7
100
AcDbLine
 10
53.51156229663886
 20
18.60335785814292
 30
0.0
 11
54.51156229663887
 21
18.60335785814292
 31
0.0
  0
LINE
  5
31C
102
{ACAD_REACTORS
330
31A
102
}
330
21
100
AcDbEntity
  8
GRUNDRISSHALLE2EG
  6
Continuous
 62
     7
100
AcDbLine
 10
53.51156229663886
 20
18.63335785814292
 30
0.0
 11
54.51156229663887
 21
18.63335785814292
 31
0.0
  0
LINE
  5
31D
102
{ACAD_REACTORS
330
31A
102
}
330
21
100
AcDbEntity
  8
GRUNDRISSHALLE2EG
  6
Continuous
 62
     7
100
AcDbLine
 10
53.51149164693048
 20
18.63342858395154
 30
0.0
 11
53.51149164693048
 21
18.60339768891079
 31
0.0
  0
LINE
  5
31E
102
{ACAD_REACTORS
330
31A
102
}
330
21
100
AcDbEntity
  8
GRUNDRISSHALLE2EG
  6
Continuous
 62
     7
100
AcDbLine
 10
54.51154413066179
 20
18.63342858395154
 30
0.0
 11
54.51162421304856
 21
18.60339768891079
 31
0.0
  0
LINE
  5
320
102
{ACAD_REACTORS
330
31F
102
}
330
21
100
AcDbEntity
  8
GRUNDRISSHALLE2EG
  6
Continuous
 62
     7
100
AcDbLine
 10
54.51156229663887
 20
18.60335785814292
 30
0.0
 11
55.51156229663887
 21
18.60335785814292
 31
0.0
  0
LINE
  5
321
102
{ACAD_REACTORS
330
31F
102
}
330
21
100
AcDbEntity
  8
GRUNDRISSHALLE2EG
  6
Continuous
 62
     7
100
AcDbLine
 10
54.51156229663887
 20
18.63335785814292
 30
0.0
 11
55.51156229663887
 21
18.63335785814292
 31
0.0
  0
LINE
  5
322
102
{ACAD_REACTORS
330
31F
102
}
330
21
100
AcDbEntity
  8
GRUNDRISSHALLE2EG
  6
Continuous
 62
     7
100
AcDbLine
 10
54.51149164693049
 20
18.63342858395154
 30
0.0
 11
54.51149164693049
 21
18.60339768891079
 31
0.0
  0
LINE
  5
323
102
{ACAD_REACTORS
330
31F
102
}
330
21
100
AcDbEntity
  8
GRUNDRISSHALLE2EG
  6
Continuous
 62
     7
100
AcDbLine
 10
55.51154413066178
 20
18.63342858395154
 30
0.0
 11
55.51162421304855
 21
18.60339768891079
 31
0.0
  0
LINE
  5
325
102
{ACAD_REACTORS
330
324
102
}
330
21
100
AcDbEntity
  8
GRUNDRISSHALLE2EG
  6
Continuous
 62
     7
100
AcDbLine
 10
55.51155900547882
 20
18.60335785814292
 30
0.0
 11
56.46497480691323
 21
18.60335785814292
 31
0.0
  0
LINE
  5
326
102
{ACAD_REACTORS
330
324
102
}
330
21
100
AcDbEntity
  8
GRUNDRISSHALLE2EG
  6
Continuous
 62
     7
100
AcDbLine
 10
55.51155900547882
 20
18.63335785814292
 30
0.0
 11
56.46497480691323
 21
18.63335785814292
 31
0.0
  0
LINE
  5
327
102
{ACAD_REACTORS
330
324
102
}
330
21
100
AcDbEntity
  8
GRUNDRISSHALLE2EG
  6
Continuous
 62
     7
100
AcDbLine
 10
55.51149164693049
 20
18.63342858395154
 30
0.0
 11
55.51149164693049
 21
18.60339768891079
 31
0.0
  0
LINE
  5
328
102
{ACAD_REACTORS
330
324
102
}
330
21
100
AcDbEntity
  8
GRUNDRISSHALLE2EG
  6
Continuous
 62
     7
100
AcDbLine
 10
56.46495748718363
 20
18.63342858395154
 30
0.0
 11
56.46503383899658
 21
18.60339768891079
 31
0.0
  0
LINE
  5
32A
102
{ACAD_REACTORS
330
329
102
}
330
21
100
AcDbEntity
  8
GRUNDRISSHALLE2EG
  6
Continuous
 62
     7
100
AcDbLine
 10
56.33385867738727
 20
18.63251015499747
 30
0.0
 11
56.33385867738727
 21
19.63251015499747
 31
0.0
  0
LINE
  5
32B
102
{ACAD_REACTORS
330
329
102
}
330
21
100
AcDbEntity
  8
GRUNDRISSHALLE2EG
  6
Continuous
 62
     7
100
AcDbLine
 10
56.30385867738728
 20
18.63251015499747
 30
0.0
 11
56.30385867738728
 21
19.63251015499747
 31
0.0
  0
LINE
  5
32C
102
{ACAD_REACTORS
330
329
102
}
330
21
100
AcDbEntity
  8
GRUNDRISSHALLE2EG
  6
Continuous
 62
     7
100
AcDbLine
 10
56.30378795157866
 20
18.6324395052891
 30
0.0
 11
56.33381884661943
 21
18.6324395052891
 31
0.0
  0
LINE
  5
32D
102
{ACAD_REACTORS
330
329
102
}
330
21
100
AcDbEntity
  8
GRUNDRISSHALLE2EG
  6
Continuous
 62
     7
100
AcDbLine
 10
56.30378795157866
 20
19.63249198902039
 30
0.0
 11
56.33381884661943
 21
19.63257207140716
 31
0.0
  0
LINE
  5
32F
102
{ACAD_REACTORS
330
32E
102
}
330
21
100
AcDbEntity
  8
GRUNDRISSHALLE2EG
  6
Continuous
 62
     7
100
AcDbLine
 10
56.33385867738727
 20
19.63251015499747
 30
0.0
 11
56.33385867738727
 21
20.63251015499748
 31
0.0
  0
LINE
  5
330
102
{ACAD_REACTORS
330
32E
102
}
330
21
100
AcDbEntity
  8
GRUNDRISSHALLE2EG
  6
Continuous
 62
     7
100
AcDbLine
 10
56.30385867738728
 20
19.63251015499747
 30
0.0
 11
56.30385867738728
 21
20.63251015499748
 31
0.0
  0
LINE
  5
331
102
{ACAD_REACTORS
330
32E
102
}
330
21
100
AcDbEntity
  8
GRUNDRISSHALLE2EG
  6
Continuous
 62
     7
100
AcDbLine
 10
56.30378795157866
 20
19.6324395052891
 30
0.0
 11
56.33381884661943
 21
19.6324395052891
 31
0.0
  0
LINE
  5
332
102
{ACAD_REACTORS
330
32E
102
}
330
21
100
AcDbEntity
  8
GRUNDRISSHALLE2EG
  6
Continuous
 62
     7
100
AcDbLine
 10
56.30378795157866
 20
20.63249198902039
 30
0.0
 11
56.33381884661943
 21
20.63257207140717
 31
0.0
  0
LINE
  5
334
102
{ACAD_REACTORS
330
333
102
}
330
21
100
AcDbEntity
  8
GRUNDRISSHALLE2EG
  6
Continuous
 62
     7
100
AcDbLine
 10
56.33385867738727
 20
20.63251015499748
 30
0.0
 11
56.33385867738727
 21
21.63251015499748
 31
0.0
  0
LINE
  5
335
102
{ACAD_REACTORS
330
333
102
}
330
21
100
AcDbEntity
  8
GRUNDRISSHALLE2EG
  6
Continuous
 62
     7
100
AcDbLine
 10
56.30385867738728
 20
20.63251015499748
 30
0.0
 11
56.30385867738728
 21
21.63251015499748
 31
0.0
  0
LINE
  5
336
102
{ACAD_REACTORS
330
333
102
}
330
21
100
AcDbEntity
  8
GRUNDRISSHALLE2EG
  6
Continuous
 62
     7
100
AcDbLine
 10
56.30378795157866
 20
20.63243950528911
 30
0.0
 11
56.33381884661943
 21
20.63243950528911
 31
0.0
  0
LINE
  5
337
102
{ACAD_REACTORS
330
333
102
}
330
21
100
AcDbEntity
  8
GRUNDRISSHALLE2EG
  6
Continuous
 62
     7
100
AcDbLine
 10
56.30378795157866
 20
21.6324919890204
 30
0.0
 11
56.33381884661943
 21
21.63257207140717
 31
0.0
  0
LINE
  5
339
102
{ACAD_REACTORS
330
338
102
}
330
21
100
AcDbEntity
  8
GRUNDRISSHALLE2EG
  6
Continuous
 62
     7
100
AcDbLine
 10
56.33385867738727
 20
21.63251015499747
 30
0.0
 11
56.33385867738727
 21
22.63251015499748
 31
0.0
  0
LINE
  5
33A
102
{ACAD_REACTORS
330
338
102
}
330
21
100
AcDbEntity
  8
GRUNDRISSHALLE2EG
  6
Continuous
 62
     7
100
AcDbLine
 10
56.30385867738728
 20
21.63251015499747
 30
0.0
 11
56.30385867738728
 21
22.63251015499748
 31
0.0
  0
LINE
  5
33B
102
{ACAD_REACTORS
330
338
102
}
330
21
100
AcDbEntity
  8
GRUNDRISSHALLE2EG
  6
Continuous
 62
     7
100
AcDbLine
 10
56.30378795157866
 20
21.63243950528911
 30
0.0
 11
56.33381884661943
 21
21.63243950528911
 31
0.0
  0
LINE
  5
33C
102
{ACAD_REACTORS
330
338
102
}
330
21
100
AcDbEntity
  8
GRUNDRISSHALLE2EG
  6
Continuous
 62
     7
100
AcDbLine
 10
56.30378795157866
 20
22.63249198902039
 30
0.0
 11
56.33381884661943
 21
22.63257207140716
 31
0.0
  0
LINE
  5
33E
102
{ACAD_REACTORS
330
33D
102
}
330
21
100
AcDbEntity
  8
GRUNDRISSHALLE2EG
  6
Continuous
 62
     7
100
AcDbLine
 10
56.33385867738727
 20
22.63251015499748
 30
0.0
 11
56.33385867738727
 21
23.63251015499748
 31
0.0
  0
LINE
  5
33F
102
{ACAD_REACTORS
330
33D
102
}
330
21
100
AcDbEntity
  8
GRUNDRISSHALLE2EG
  6
Continuous
 62
     7
100
AcDbLine
 10
56.30385867738728
 20
22.63251015499748
 30
0.0
 11
56.30385867738728
 21
23.63251015499748
 31
0.0
  0
LINE
  5
340
102
{ACAD_REACTORS
330
33D
102
}
330
21
100
AcDbEntity
  8
GRUNDRISSHALLE2EG
  6
Continuous
 62
     7
100
AcDbLine
 10
56.30378795157866
 20
22.6324395052891
 30
0.0
 11
56.33381884661943
 21
22.6324395052891
 31
0.0
  0
LINE
  5
341
102
{ACAD_REACTORS
330
33D
102
}
330
21
100
AcDbEntity
  8
GRUNDRISSHALLE2EG
  6
Continuous
 62
     7
100
AcDbLine
 10
56.30378795157866
 20
23.63249198902039
 30
0.0
 11
56.33381884661943
 21
23.63257207140716
 31
0.0
  0
LINE
  5
343
102
{ACAD_REACTORS
330
342
102
}
330
21
100
AcDbEntity
  8
GRUNDRISSHALLE2EG
  6
Continuous
 62
     7
100
AcDbLine
 10
56.33385867738727
 20
23.63264272111558
 30
0.0
 11
56.33385867738727
 21
24.63264272111559
 31
0.0
  0
LINE
  5
344
102
{ACAD_REACTORS
330
342
102
}
330
21
100
AcDbEntity
  8
GRUNDRISSHALLE2EG
  6
Continuous
 62
     7
100
AcDbLine
 10
56.30385867738728
 20
23.63264272111558
 30
0.0
 11
56.30385867738728
 21
24.63264272111559
 31
0.0
  0
LINE
  5
345
102
{ACAD_REACTORS
330
342
102
}
330
21
100
AcDbEntity
  8
GRUNDRISSHALLE2EG
  6
Continuous
 62
     7
100
AcDbLine
 10
56.30378795157866
 20
23.6325720714072
 30
0.0
 11
56.33381884661943
 21
23.6325720714072
 31
0.0
  0
LINE
  5
346
102
{ACAD_REACTORS
330
342
102
}
330
21
100
AcDbEntity
  8
GRUNDRISSHALLE2EG
  6
Continuous
 62
     7
100
AcDbLine
 10
56.30378795157866
 20
24.63262455513849
 30
0.0
 11
56.33381884661943
 21
24.63270463752527
 31
0.0
  0
LINE
  5
348
102
{ACAD_REACTORS
330
347
102
}
330
21
100
AcDbEntity
  8
GRUNDRISSHALLE2EG
  6
Continuous
 62
     7
100
AcDbLine
 10
56.33385867738727
 20
24.63277528723367
 30
0.0
 11
56.33385867738727
 21
25.63277528723368
 31
0.0
  0
LINE
  5
349
102
{ACAD_REACTORS
330
347
102
}
330
21
100
AcDbEntity
  8
GRUNDRISSHALLE2EG
  6
Continuous
 62
     7
100
AcDbLine
 10
56.30385867738728
 20
24.63277528723367
 30
0.0
 11
56.30385867738728
 21
25.63277528723368
 31
0.0
  0
LINE
  5
34A
102
{ACAD_REACTORS
330
347
102
}
330
21
100
AcDbEntity
  8
GRUNDRISSHALLE2EG
  6
Continuous
 62
     7
100
AcDbLine
 10
56.30378795157866
 20
24.6327046375253
 30
0.0
 11
56.33381884661943
 21
24.6327046375253
 31
0.0
  0
LINE
  5
34B
102
{ACAD_REACTORS
330
347
102
}
330
21
100
AcDbEntity
  8
GRUNDRISSHALLE2EG
  6
Continuous
 62
     7
100
AcDbLine
 10
56.30378795157866
 20
25.63275712125659
 30
0.0
 11
56.33381884661943
 21
25.63283720364336
 31
0.0
  0
LINE
  5
34D
102
{ACAD_REACTORS
330
34C
102
}
330
21
100
AcDbEntity
  8
GRUNDRISSHALLE2EG
  6
Continuous
 62
     7
100
AcDbLine
 10
56.33385867738727
 20
25.63290785335178
 30
0.0
 11
56.33385867738727
 21
26.63290785335178
 31
0.0
  0
LINE
  5
34E
102
{ACAD_REACTORS
330
34C
102
}
330
21
100
AcDbEntity
  8
GRUNDRISSHALLE2EG
  6
Continuous
 62
     7
100
AcDbLine
 10
56.30385867738728
 20
25.63290785335178
 30
0.0
 11
56.30385867738728
 21
26.63290785335178
 31
0.0
  0
LINE
  5
34F
102
{ACAD_REACTORS
330
34C
102
}
330
21
100
AcDbEntity
  8
GRUNDRISSHALLE2EG
  6
Continuous
 62
     7
100
AcDbLine
 10
56.30378795157866
 20
25.63283720364341
 30
0.0
 11
56.33381884661943
 21
25.63283720364341
 31
0.0
  0
LINE
  5
350
102
{ACAD_REACTORS
330
34C
102
}
330
21
100
AcDbEntity
  8
GRUNDRISSHALLE2EG
  6
Continuous
 62
     7
100
AcDbLine
 10
56.30378795157866
 20
26.63288968737469
 30
0.0
 11
56.33381884661943
 21
26.63296976976147
 31
0.0
  0
LINE
  5
352
102
{ACAD_REACTORS
330
351
102
}
330
21
100
AcDbEntity
  8
GRUNDRISSHALLE2EG
  6
Continuous
 62
     7
100
AcDbLine
 10
56.33385867738727
 20
26.63304041946987
 30
0.0
 11
56.33385867738727
 21
27.63304041946988
 31
0.0
  0
LINE
  5
353
102
{ACAD_REACTORS
330
351
102
}
330
21
100
AcDbEntity
  8
GRUNDRISSHALLE2EG
  6
Continuous
 62
     7
100
AcDbLine
 10
56.30385867738728
 20
26.63304041946987
 30
0.0
 11
56.30385867738728
 21
27.63304041946988
 31
0.0
  0
LINE
  5
354
102
{ACAD_REACTORS
330
351
102
}
330
21
100
AcDbEntity
  8
GRUNDRISSHALLE2EG
  6
Continuous
 62
     7
100
AcDbLine
 10
56.30378795157866
 20
26.6329697697615
 30
0.0
 11
56.33381884661943
 21
26.6329697697615
 31
0.0
  0
LINE
  5
355
102
{ACAD_REACTORS
330
351
102
}
330
21
100
AcDbEntity
  8
GRUNDRISSHALLE2EG
  6
Continuous
 62
     7
100
AcDbLine
 10
56.30378795157866
 20
27.63302225349279
 30
0.0
 11
56.33381884661943
 21
27.63310233587956
 31
0.0
  0
LINE
  5
357
102
{ACAD_REACTORS
330
356
102
}
330
21
100
AcDbEntity
  8
GRUNDRISSHALLE2EG
  6
Continuous
 62
     7
100
AcDbLine
 10
56.33385867738727
 20
27.63317298558798
 30
0.0
 11
56.33385867738727
 21
28.63317298558798
 31
0.0
  0
LINE
  5
358
102
{ACAD_REACTORS
330
356
102
}
330
21
100
AcDbEntity
  8
GRUNDRISSHALLE2EG
  6
Continuous
 62
     7
100
AcDbLine
 10
56.30385867738728
 20
27.63317298558798
 30
0.0
 11
56.30385867738728
 21
28.63317298558798
 31
0.0
  0
LINE
  5
359
102
{ACAD_REACTORS
330
356
102
}
330
21
100
AcDbEntity
  8
GRUNDRISSHALLE2EG
  6
Continuous
 62
     7
100
AcDbLine
 10
56.30378795157866
 20
27.63310233587961
 30
0.0
 11
56.33381884661943
 21
27.63310233587961
 31
0.0
  0
LINE
  5
35A
102
{ACAD_REACTORS
330
356
102
}
330
21
100
AcDbEntity
  8
GRUNDRISSHALLE2EG
  6
Continuous
 62
     7
100
AcDbLine
 10
56.30378795157866
 20
28.63315481961089
 30
0.0
 11
56.33381884661943
 21
28.63323490199766
 31
0.0
  0
LINE
  5
35C
102
{ACAD_REACTORS
330
35B
102
}
330
21
100
AcDbEntity
  8
GRUNDRISSHALLE2EG
  6
Continuous
 62
     7
100
AcDbLine
 10
56.33385867738727
 20
28.63330555170607
 30
0.0
 11
56.33385867738727
 21
29.63330555170608
 31
0.0
  0
LINE
  5
35D
102
{ACAD_REACTORS
330
35B
102
}
330
21
100
AcDbEntity
  8
GRUNDRISSHALLE2EG
  6
Continuous
 62
     7
100
AcDbLine
 10
56.30385867738728
 20
28.63330555170607
 30
0.0
 11
56.30385867738728
 21
29.63330555170608
 31
0.0
  0
LINE
  5
35E
102
{ACAD_REACTORS
330
35B
102
}
330
21
100
AcDbEntity
  8
GRUNDRISSHALLE2EG
  6
Continuous
 62
     7
100
AcDbLine
 10
56.30378795157866
 20
28.6332349019977
 30
0.0
 11
56.33381884661943
 21
28.6332349019977
 31
0.0
  0
LINE
  5
35F
102
{ACAD_REACTORS
330
35B
102
}
330
21
100
AcDbEntity
  8
GRUNDRISSHALLE2EG
  6
Continuous
 62
     7
100
AcDbLine
 10
56.30378795157866
 20
29.63328738572899
 30
0.0
 11
56.33381884661943
 21
29.63336746811576
 31
0.0
  0
LINE
  5
361
102
{ACAD_REACTORS
330
360
102
}
330
21
100
AcDbEntity
  8
GRUNDRISSHALLE2EG
  6
Continuous
 62
     7
100
AcDbLine
 10
56.33385867738727
 20
29.63343811782418
 30
0.0
 11
56.33385867738727
 21
30.63343811782419
 31
0.0
  0
LINE
  5
362
102
{ACAD_REACTORS
330
360
102
}
330
21
100
AcDbEntity
  8
GRUNDRISSHALLE2EG
  6
Continuous
 62
     7
100
AcDbLine
 10
56.30385867738728
 20
29.63343811782418
 30
0.0
 11
56.30385867738728
 21
30.63343811782419
 31
0.0
  0
LINE
  5
363
102
{ACAD_REACTORS
330
360
102
}
330
21
100
AcDbEntity
  8
GRUNDRISSHALLE2EG
  6
Continuous
 62
     7
100
AcDbLine
 10
56.30378795157866
 20
29.63336746811581
 30
0.0
 11
56.33381884661943
 21
29.63336746811581
 31
0.0
  0
LINE
  5
364
102
{ACAD_REACTORS
330
360
102
}
330
21
100
AcDbEntity
  8
GRUNDRISSHALLE2EG
  6
Continuous
 62
     7
100
AcDbLine
 10
56.30378795157866
 20
30.63341995184709
 30
0.0
 11
56.33381884661943
 21
30.63350003423387
 31
0.0
  0
LINE
  5
366
102
{ACAD_REACTORS
330
365
102
}
330
21
100
AcDbEntity
  8
GRUNDRISSHALLE2EG
  6
Continuous
 62
     7
100
AcDbLine
 10
56.33385867738727
 20
30.63357068394227
 30
0.0
 11
56.33385867738727
 21
31.63357068394228
 31
0.0
  0
LINE
  5
367
102
{ACAD_REACTORS
330
365
102
}
330
21
100
AcDbEntity
  8
GRUNDRISSHALLE2EG
  6
Continuous
 62
     7
100
AcDbLine
 10
56.30385867738728
 20
30.63357068394227
 30
0.0
 11
56.30385867738728
 21
31.63357068394228
 31
0.0
  0
LINE
  5
368
102
{ACAD_REACTORS
330
365
102
}
330
21
100
AcDbEntity
  8
GRUNDRISSHALLE2EG
  6
Continuous
 62
     7
100
AcDbLine
 10
56.30378795157866
 20
30.6335000342339
 30
0.0
 11
56.33381884661943
 21
30.6335000342339
 31
0.0
  0
LINE
  5
369
102
{ACAD_REACTORS
330
365
102
}
330
21
100
AcDbEntity
  8
GRUNDRISSHALLE2EG
  6
Continuous
 62
     7
100
AcDbLine
 10
56.30378795157866
 20
31.63355251796519
 30
0.0
 11
56.33381884661943
 21
31.63363260035196
 31
0.0
  0
LINE
  5
36B
102
{ACAD_REACTORS
330
36A
102
}
330
21
100
AcDbEntity
  8
GRUNDRISSHALLE2EG
  6
Continuous
 62
     7
100
AcDbLine
 10
56.33385867738727
 20
31.63370325006038
 30
0.0
 11
56.33385867738727
 21
32.63370325006039
 31
0.0
  0
LINE
  5
36C
102
{ACAD_REACTORS
330
36A
102
}
330
21
100
AcDbEntity
  8
GRUNDRISSHALLE2EG
  6
Continuous
 62
     7
100
AcDbLine
 10
56.30385867738728
 20
31.63370325006038
 30
0.0
 11
56.30385867738728
 21
32.63370325006039
 31
0.0
  0
LINE
  5
36D
102
{ACAD_REACTORS
330
36A
102
}
330
21
100
AcDbEntity
  8
GRUNDRISSHALLE2EG
  6
Continuous
 62
     7
100
AcDbLine
 10
56.30378795157866
 20
31.63363260035201
 30
0.0
 11
56.33381884661943
 21
31.63363260035201
 31
0.0
  0
LINE
  5
36E
102
{ACAD_REACTORS
330
36A
102
}
330
21
100
AcDbEntity
  8
GRUNDRISSHALLE2EG
  6
Continuous
 62
     7
100
AcDbLine
 10
56.30378795157866
 20
32.6336850840833
 30
0.0
 11
56.33381884661943
 21
32.63376516647007
 31
0.0
  0
LINE
  5
370
102
{ACAD_REACTORS
330
36F
102
}
330
21
100
AcDbEntity
  8
GRUNDRISSHALLE2EG
  6
Continuous
 62
     7
100
AcDbLine
 10
56.33385867738727
 20
32.63383581617848
 30
0.0
 11
56.33385867738727
 21
33.63383581617848
 31
0.0
  0
LINE
  5
371
102
{ACAD_REACTORS
330
36F
102
}
330
21
100
AcDbEntity
  8
GRUNDRISSHALLE2EG
  6
Continuous
 62
     7
100
AcDbLine
 10
56.30385867738728
 20
32.63383581617848
 30
0.0
 11
56.30385867738728
 21
33.63383581617848
 31
0.0
  0
LINE
  5
372
102
{ACAD_REACTORS
330
36F
102
}
330
21
100
AcDbEntity
  8
GRUNDRISSHALLE2EG
  6
Continuous
 62
     7
100
AcDbLine
 10
56.30378795157866
 20
32.63376516647011
 30
0.0
 11
56.33381884661943
 21
32.63376516647011
 31
0.0
  0
LINE
  5
373
102
{ACAD_REACTORS
330
36F
102
}
330
21
100
AcDbEntity
  8
GRUNDRISSHALLE2EG
  6
Continuous
 62
     7
100
AcDbLine
 10
56.30378795157866
 20
33.63381765020139
 30
0.0
 11
56.33381884661943
 21
33.63389773258816
 31
0.0
  0
LINE
  5
375
102
{ACAD_REACTORS
330
374
102
}
330
21
100
AcDbEntity
  8
GRUNDRISSHALLE2EG
  6
Continuous
 62
     7
100
AcDbLine
 10
56.33385867738727
 20
33.63392858219045
 30
0.0
 11
56.33385867738727
 21
34.07058434409459
 31
0.0
  0
LINE
  5
376
102
{ACAD_REACTORS
330
374
102
}
330
21
100
AcDbEntity
  8
GRUNDRISSHALLE2EG
  6
Continuous
 62
     7
100
AcDbLine
 10
56.30385867738728
 20
33.63392858219045
 30
0.0
 11
56.30385867738728
 21
34.07058434409459
 31
0.0
  0
LINE
  5
377
102
{ACAD_REACTORS
330
374
102
}
330
21
100
AcDbEntity
  8
GRUNDRISSHALLE2EG
  6
Continuous
 62
     7
100
AcDbLine
 10
56.30378795157866
 20
33.6338977325882
 30
0.0
 11
56.33381884661943
 21
33.6338977325882
 31
0.0
  0
LINE
  5
378
102
{ACAD_REACTORS
330
374
102
}
330
21
100
AcDbEntity
  8
GRUNDRISSHALLE2EG
  6
Continuous
 62
     7
100
AcDbLine
 10
56.30378795157866
 20
34.07057641181603
 30
0.0
 11
56.33381884661943
 21
34.07061138025164
 31
0.0
  0
LINE
  5
37A
102
{ACAD_REACTORS
330
379
102
}
330
21
100
AcDbEntity
  8
GRUNDRISSHALLE2EG
  6
Continuous
 62
     7
100
AcDbLine
 10
17.55295403139413
 20
34.09678842509524
 30
0.0
 11
16.55295403139414
 21
34.09678842509524
 31
0.0
  0
LINE
  5
37B
102
{ACAD_REACTORS
330
379
102
}
330
21
100
AcDbEntity
  8
GRUNDRISSHALLE2EG
  6
Continuous
 62
     7
100
AcDbLine
 10
17.55295403139413
 20
34.06678842509523
 30
0.0
 11
16.55295403139414
 21
34.06678842509523
 31
0.0
  0
LINE
  5
37C
102
{ACAD_REACTORS
330
379
102
}
330
21
100
AcDbEntity
  8
GRUNDRISSHALLE2EG
  6
Continuous
 62
     7
100
AcDbLine
 10
17.5530246811025
 20
34.06671769928662
 30
0.0
 11
17.5530246811025
 21
34.09674859432737
 31
0.0
  0
LINE
  5
37D
102
{ACAD_REACTORS
330
379
102
}
330
21
100
AcDbEntity
  8
GRUNDRISSHALLE2EG
  6
Continuous
 62
     7
100
AcDbLine
 10
16.55297219737122
 20
34.06671769928662
 30
0.0
 11
16.55289211498445
 21
34.09674859432737
 31
0.0
  0
LINE
  5
37F
102
{ACAD_REACTORS
330
37E
102
}
330
21
100
AcDbEntity
  8
GRUNDRISSHALLE2EG
  6
Continuous
 62
     0
100
AcDbLine
 10
16.55079200845188
 20
18.63364543868346
 30
0.0
 11
16.55079200845188
 21
19.63364543868346
 31
0.0
  0
LINE
  5
380
102
{ACAD_REACTORS
330
37E
102
}
330
21
100
AcDbEntity
  8
GRUNDRISSHALLE2EG
  6
Continuous
 62
     0
100
AcDbLine
 10
16.52079200845188
 20
18.63364543868346
 30
0.0
 11
16.52079200845188
 21
19.63364543868346
 31
0.0
  0
LINE
  5
381
102
{ACAD_REACTORS
330
37E
102
}
330
21
100
AcDbEntity
  8
GRUNDRISSHALLE2EG
  6
Continuous
 62
     0
100
AcDbLine
 10
16.52072128264327
 20
18.63357478897508
 30
0.0
 11
16.55075217768402
 21
18.63357478897508
 31
0.0
  0
LINE
  5
382
102
{ACAD_REACTORS
330
37E
102
}
330
21
100
AcDbEntity
  8
GRUNDRISSHALLE2EG
  6
Continuous
 62
     0
100
AcDbLine
 10
16.52072128264327
 20
19.63362727270637
 30
0.0
 11
16.55075217768402
 21
19.63370735509315
 31
0.0
  0
LINE
  5
384
102
{ACAD_REACTORS
330
383
102
}
330
21
100
AcDbEntity
  8
GRUNDRISSHALLE2EG
  6
Continuous
 62
     0
100
AcDbLine
 10
16.55079200845188
 20
19.63364543868346
 30
0.0
 11
16.55079200845188
 21
20.63364543868346
 31
0.0
  0
LINE
  5
385
102
{ACAD_REACTORS
330
383
102
}
330
21
100
AcDbEntity
  8
GRUNDRISSHALLE2EG
  6
Continuous
 62
     0
100
AcDbLine
 10
16.52079200845188
 20
19.63364543868346
 30
0.0
 11
16.52079200845188
 21
20.63364543868346
 31
0.0
  0
LINE
  5
386
102
{ACAD_REACTORS
330
383
102
}
330
21
100
AcDbEntity
  8
GRUNDRISSHALLE2EG
  6
Continuous
 62
     0
100
AcDbLine
 10
16.52072128264327
 20
19.63357478897508
 30
0.0
 11
16.55075217768402
 21
19.63357478897508
 31
0.0
  0
LINE
  5
387
102
{ACAD_REACTORS
330
383
102
}
330
21
100
AcDbEntity
  8
GRUNDRISSHALLE2EG
  6
Continuous
 62
     0
100
AcDbLine
 10
16.52072128264327
 20
20.63362727270638
 30
0.0
 11
16.55075217768402
 21
20.63370735509315
 31
0.0
  0
LINE
  5
389
102
{ACAD_REACTORS
330
388
102
}
330
21
100
AcDbEntity
  8
GRUNDRISSHALLE2EG
  6
Continuous
 62
     0
100
AcDbLine
 10
16.55079200845188
 20
20.63364543868346
 30
0.0
 11
16.55079200845188
 21
21.63364543868345
 31
0.0
  0
LINE
  5
38A
102
{ACAD_REACTORS
330
388
102
}
330
21
100
AcDbEntity
  8
GRUNDRISSHALLE2EG
  6
Continuous
 62
     0
100
AcDbLine
 10
16.52079200845188
 20
20.63364543868346
 30
0.0
 11
16.52079200845188
 21
21.63364543868345
 31
0.0
  0
LINE
  5
38B
102
{ACAD_REACTORS
330
388
102
}
330
21
100
AcDbEntity
  8
GRUNDRISSHALLE2EG
  6
Continuous
 62
     0
100
AcDbLine
 10
16.52072128264327
 20
20.63357478897509
 30
0.0
 11
16.55075217768402
 21
20.63357478897509
 31
0.0
  0
LINE
  5
38C
102
{ACAD_REACTORS
330
388
102
}
330
21
100
AcDbEntity
  8
GRUNDRISSHALLE2EG
  6
Continuous
 62
     0
100
AcDbLine
 10
16.52072128264327
 20
21.63362727270638
 30
0.0
 11
16.55075217768402
 21
21.63370735509315
 31
0.0
  0
LINE
  5
38E
102
{ACAD_REACTORS
330
38D
102
}
330
21
100
AcDbEntity
  8
GRUNDRISSHALLE2EG
  6
Continuous
 62
     0
100
AcDbLine
 10
16.55079200845188
 20
21.63364543868345
 30
0.0
 11
16.55079200845188
 21
22.63364543868346
 31
0.0
  0
LINE
  5
38F
102
{ACAD_REACTORS
330
38D
102
}
330
21
100
AcDbEntity
  8
GRUNDRISSHALLE2EG
  6
Continuous
 62
     0
100
AcDbLine
 10
16.52079200845188
 20
21.63364543868345
 30
0.0
 11
16.52079200845188
 21
22.63364543868346
 31
0.0
  0
LINE
  5
390
102
{ACAD_REACTORS
330
38D
102
}
330
21
100
AcDbEntity
  8
GRUNDRISSHALLE2EG
  6
Continuous
 62
     0
100
AcDbLine
 10
16.52072128264327
 20
21.63357478897509
 30
0.0
 11
16.55075217768402
 21
21.63357478897509
 31
0.0
  0
LINE
  5
391
102
{ACAD_REACTORS
330
38D
102
}
330
21
100
AcDbEntity
  8
GRUNDRISSHALLE2EG
  6
Continuous
 62
     0
100
AcDbLine
 10
16.52072128264327
 20
22.63362727270637
 30
0.0
 11
16.55075217768402
 21
22.63370735509315
 31
0.0
  0
LINE
  5
393
102
{ACAD_REACTORS
330
392
102
}
330
21
100
AcDbEntity
  8
GRUNDRISSHALLE2EG
  6
Continuous
 62
     0
100
AcDbLine
 10
16.55079200845188
 20
22.63364543868346
 30
0.0
 11
16.55079200845188
 21
23.63364543868346
 31
0.0
  0
LINE
  5
394
102
{ACAD_REACTORS
330
392
102
}
330
21
100
AcDbEntity
  8
GRUNDRISSHALLE2EG
  6
Continuous
 62
     0
100
AcDbLine
 10
16.52079200845188
 20
22.63364543868346
 30
0.0
 11
16.52079200845188
 21
23.63364543868346
 31
0.0
  0
LINE
  5
395
102
{ACAD_REACTORS
330
392
102
}
330
21
100
AcDbEntity
  8
GRUNDRISSHALLE2EG
  6
Continuous
 62
     0
100
AcDbLine
 10
16.52072128264327
 20
22.63357478897509
 30
0.0
 11
16.55075217768402
 21
22.63357478897509
 31
0.0
  0
LINE
  5
396
102
{ACAD_REACTORS
330
392
102
}
330
21
100
AcDbEntity
  8
GRUNDRISSHALLE2EG
  6
Continuous
 62
     0
100
AcDbLine
 10
16.52072128264327
 20
23.63362727270637
 30
0.0
 11
16.55075217768402
 21
23.63370735509315
 31
0.0
  0
LINE
  5
398
102
{ACAD_REACTORS
330
397
102
}
330
21
100
AcDbEntity
  8
GRUNDRISSHALLE2EG
  6
Continuous
 62
     0
100
AcDbLine
 10
16.55079200845188
 20
23.63364543868346
 30
0.0
 11
16.55079200845188
 21
24.63364543868345
 31
0.0
  0
LINE
  5
399
102
{ACAD_REACTORS
330
397
102
}
330
21
100
AcDbEntity
  8
GRUNDRISSHALLE2EG
  6
Continuous
 62
     0
100
AcDbLine
 10
16.52079200845188
 20
23.63364543868346
 30
0.0
 11
16.52079200845188
 21
24.63364543868345
 31
0.0
  0
LINE
  5
39A
102
{ACAD_REACTORS
330
397
102
}
330
21
100
AcDbEntity
  8
GRUNDRISSHALLE2EG
  6
Continuous
 62
     0
100
AcDbLine
 10
16.52072128264327
 20
23.63357478897508
 30
0.0
 11
16.55075217768402
 21
23.63357478897508
 31
0.0
  0
LINE
  5
39B
102
{ACAD_REACTORS
330
397
102
}
330
21
100
AcDbEntity
  8
GRUNDRISSHALLE2EG
  6
Continuous
 62
     0
100
AcDbLine
 10
16.52072128264327
 20
24.63362727270637
 30
0.0
 11
16.55075217768402
 21
24.63370735509315
 31
0.0
  0
LINE
  5
39D
102
{ACAD_REACTORS
330
39C
102
}
330
21
100
AcDbEntity
  8
GRUNDRISSHALLE2EG
  6
Continuous
 62
     0
100
AcDbLine
 10
16.55079200845188
 20
24.63364543868345
 30
0.0
 11
16.55079200845188
 21
25.63364543868346
 31
0.0
  0
LINE
  5
39E
102
{ACAD_REACTORS
330
39C
102
}
330
21
100
AcDbEntity
  8
GRUNDRISSHALLE2EG
  6
Continuous
 62
     0
100
AcDbLine
 10
16.52079200845188
 20
24.63364543868345
 30
0.0
 11
16.52079200845188
 21
25.63364543868346
 31
0.0
  0
LINE
  5
39F
102
{ACAD_REACTORS
330
39C
102
}
330
21
100
AcDbEntity
  8
GRUNDRISSHALLE2EG
  6
Continuous
 62
     0
100
AcDbLine
 10
16.52072128264327
 20
24.63357478897509
 30
0.0
 11
16.55075217768402
 21
24.63357478897509
 31
0.0
  0
LINE
  5
3A0
102
{ACAD_REACTORS
330
39C
102
}
330
21
100
AcDbEntity
  8
GRUNDRISSHALLE2EG
  6
Continuous
 62
     0
100
AcDbLine
 10
16.52072128264327
 20
25.63362727270638
 30
0.0
 11
16.55075217768402
 21
25.63370735509315
 31
0.0
  0
LINE
  5
3A2
102
{ACAD_REACTORS
330
3A1
102
}
330
21
100
AcDbEntity
  8
GRUNDRISSHALLE2EG
  6
Continuous
 62
     0
100
AcDbLine
 10
16.55079200845188
 20
25.63364543868346
 30
0.0
 11
16.55079200845188
 21
26.63364543868346
 31
0.0
  0
LINE
  5
3A3
102
{ACAD_REACTORS
330
3A1
102
}
330
21
100
AcDbEntity
  8
GRUNDRISSHALLE2EG
  6
Continuous
 62
     0
100
AcDbLine
 10
16.52079200845188
 20
25.63364543868346
 30
0.0
 11
16.52079200845188
 21
26.63364543868346
 31
0.0
  0
LINE
  5
3A4
102
{ACAD_REACTORS
330
3A1
102
}
330
21
100
AcDbEntity
  8
GRUNDRISSHALLE2EG
  6
Continuous
 62
     0
100
AcDbLine
 10
16.52072128264327
 20
25.63357478897508
 30
0.0
 11
16.55075217768402
 21
25.63357478897508
 31
0.0
  0
LINE
  5
3A5
102
{ACAD_REACTORS
330
3A1
102
}
330
21
100
AcDbEntity
  8
GRUNDRISSHALLE2EG
  6
Continuous
 62
     0
100
AcDbLine
 10
16.52072128264327
 20
26.63362727270637
 30
0.0
 11
16.55075217768402
 21
26.63370735509314
 31
0.0
  0
LINE
  5
3A7
102
{ACAD_REACTORS
330
3A6
102
}
330
21
100
AcDbEntity
  8
GRUNDRISSHALLE2EG
  6
Continuous
 62
     0
100
AcDbLine
 10
16.55079200845188
 20
26.63364543868346
 30
0.0
 11
16.55079200845188
 21
27.63364543868345
 31
0.0
  0
LINE
  5
3A8
102
{ACAD_REACTORS
330
3A6
102
}
330
21
100
AcDbEntity
  8
GRUNDRISSHALLE2EG
  6
Continuous
 62
     0
100
AcDbLine
 10
16.52079200845188
 20
26.63364543868346
 30
0.0
 11
16.52079200845188
 21
27.63364543868345
 31
0.0
  0
LINE
  5
3A9
102
{ACAD_REACTORS
330
3A6
102
}
330
21
100
AcDbEntity
  8
GRUNDRISSHALLE2EG
  6
Continuous
 62
     0
100
AcDbLine
 10
16.52072128264327
 20
26.63357478897508
 30
0.0
 11
16.55075217768402
 21
26.63357478897508
 31
0.0
  0
LINE
  5
3AA
102
{ACAD_REACTORS
330
3A6
102
}
330
21
100
AcDbEntity
  8
GRUNDRISSHALLE2EG
  6
Continuous
 62
     0
100
AcDbLine
 10
16.52072128264327
 20
27.63362727270637
 30
0.0
 11
16.55075217768402
 21
27.63370735509314
 31
0.0
  0
LINE
  5
3AC
102
{ACAD_REACTORS
330
3AB
102
}
330
21
100
AcDbEntity
  8
GRUNDRISSHALLE2EG
  6
Continuous
 62
     0
100
AcDbLine
 10
16.55079200845188
 20
27.63364543868345
 30
0.0
 11
16.55079200845188
 21
28.63364543868345
 31
0.0
  0
LINE
  5
3AD
102
{ACAD_REACTORS
330
3AB
102
}
330
21
100
AcDbEntity
  8
GRUNDRISSHALLE2EG
  6
Continuous
 62
     0
100
AcDbLine
 10
16.52079200845188
 20
27.63364543868345
 30
0.0
 11
16.52079200845188
 21
28.63364543868345
 31
0.0
  0
LINE
  5
3AE
102
{ACAD_REACTORS
330
3AB
102
}
330
21
100
AcDbEntity
  8
GRUNDRISSHALLE2EG
  6
Continuous
 62
     0
100
AcDbLine
 10
16.52072128264327
 20
27.63357478897509
 30
0.0
 11
16.55075217768402
 21
27.63357478897509
 31
0.0
  0
LINE
  5
3AF
102
{ACAD_REACTORS
330
3AB
102
}
330
21
100
AcDbEntity
  8
GRUNDRISSHALLE2EG
  6
Continuous
 62
     0
100
AcDbLine
 10
16.52072128264327
 20
28.63362727270637
 30
0.0
 11
16.55075217768402
 21
28.63370735509315
 31
0.0
  0
LINE
  5
3B1
102
{ACAD_REACTORS
330
3B0
102
}
330
21
100
AcDbEntity
  8
GRUNDRISSHALLE2EG
  6
Continuous
 62
     0
100
AcDbLine
 10
16.55079200845188
 20
28.63364543868345
 30
0.0
 11
16.55079200845188
 21
29.63364543868346
 31
0.0
  0
LINE
  5
3B2
102
{ACAD_REACTORS
330
3B0
102
}
330
21
100
AcDbEntity
  8
GRUNDRISSHALLE2EG
  6
Continuous
 62
     0
100
AcDbLine
 10
16.52079200845188
 20
28.63364543868345
 30
0.0
 11
16.52079200845188
 21
29.63364543868346
 31
0.0
  0
LINE
  5
3B3
102
{ACAD_REACTORS
330
3B0
102
}
330
21
100
AcDbEntity
  8
GRUNDRISSHALLE2EG
  6
Continuous
 62
     0
100
AcDbLine
 10
16.52072128264327
 20
28.63357478897508
 30
0.0
 11
16.55075217768402
 21
28.63357478897508
 31
0.0
  0
LINE
  5
3B4
102
{ACAD_REACTORS
330
3B0
102
}
330
21
100
AcDbEntity
  8
GRUNDRISSHALLE2EG
  6
Continuous
 62
     0
100
AcDbLine
 10
16.52072128264327
 20
29.63362727270638
 30
0.0
 11
16.55075217768402
 21
29.63370735509315
 31
0.0
  0
LINE
  5
3B6
102
{ACAD_REACTORS
330
3B5
102
}
330
21
100
AcDbEntity
  8
GRUNDRISSHALLE2EG
  6
Continuous
 62
     0
100
AcDbLine
 10
16.55079200845188
 20
29.63364543868346
 30
0.0
 11
16.55079200845188
 21
30.63364543868346
 31
0.0
  0
LINE
  5
3B7
102
{ACAD_REACTORS
330
3B5
102
}
330
21
100
AcDbEntity
  8
GRUNDRISSHALLE2EG
  6
Continuous
 62
     0
100
AcDbLine
 10
16.52079200845188
 20
29.63364543868346
 30
0.0
 11
16.52079200845188
 21
30.63364543868346
 31
0.0
  0
LINE
  5
3B8
102
{ACAD_REACTORS
330
3B5
102
}
330
21
100
AcDbEntity
  8
GRUNDRISSHALLE2EG
  6
Continuous
 62
     0
100
AcDbLine
 10
16.52072128264327
 20
29.63357478897508
 30
0.0
 11
16.55075217768402
 21
29.63357478897508
 31
0.0
  0
LINE
  5
3B9
102
{ACAD_REACTORS
330
3B5
102
}
330
21
100
AcDbEntity
  8
GRUNDRISSHALLE2EG
  6
Continuous
 62
     0
100
AcDbLine
 10
16.52072128264327
 20
30.63362727270637
 30
0.0
 11
16.55075217768402
 21
30.63370735509315
 31
0.0
  0
LINE
  5
3BB
102
{ACAD_REACTORS
330
3BA
102
}
330
21
100
AcDbEntity
  8
GRUNDRISSHALLE2EG
  6
Continuous
 62
     0
100
AcDbLine
 10
16.55079200845188
 20
30.63364543868346
 30
0.0
 11
16.55079200845188
 21
31.63364543868345
 31
0.0
  0
LINE
  5
3BC
102
{ACAD_REACTORS
330
3BA
102
}
330
21
100
AcDbEntity
  8
GRUNDRISSHALLE2EG
  6
Continuous
 62
     0
100
AcDbLine
 10
16.52079200845188
 20
30.63364543868346
 30
0.0
 11
16.52079200845188
 21
31.63364543868345
 31
0.0
  0
LINE
  5
3BD
102
{ACAD_REACTORS
330
3BA
102
}
330
21
100
AcDbEntity
  8
GRUNDRISSHALLE2EG
  6
Continuous
 62
     0
100
AcDbLine
 10
16.52072128264327
 20
30.63357478897509
 30
0.0
 11
16.55075217768402
 21
30.63357478897509
 31
0.0
  0
LINE
  5
3BE
102
{ACAD_REACTORS
330
3BA
102
}
330
21
100
AcDbEntity
  8
GRUNDRISSHALLE2EG
  6
Continuous
 62
     0
100
AcDbLine
 10
16.52072128264327
 20
31.63362727270638
 30
0.0
 11
16.55075217768402
 21
31.63370735509315
 31
0.0
  0
LINE
  5
3C0
102
{ACAD_REACTORS
330
3BF
102
}
330
21
100
AcDbEntity
  8
GRUNDRISSHALLE2EG
  6
Continuous
 62
     0
100
AcDbLine
 10
16.55079200845188
 20
31.63364543868345
 30
0.0
 11
16.55079200845188
 21
32.63364543868346
 31
0.0
  0
LINE
  5
3C1
102
{ACAD_REACTORS
330
3BF
102
}
330
21
100
AcDbEntity
  8
GRUNDRISSHALLE2EG
  6
Continuous
 62
     0
100
AcDbLine
 10
16.52079200845188
 20
31.63364543868345
 30
0.0
 11
16.52079200845188
 21
32.63364543868346
 31
0.0
  0
LINE
  5
3C2
102
{ACAD_REACTORS
330
3BF
102
}
330
21
100
AcDbEntity
  8
GRUNDRISSHALLE2EG
  6
Continuous
 62
     0
100
AcDbLine
 10
16.52072128264327
 20
31.63357478897509
 30
0.0
 11
16.55075217768402
 21
31.63357478897509
 31
0.0
  0
LINE
  5
3C3
102
{ACAD_REACTORS
330
3BF
102
}
330
21
100
AcDbEntity
  8
GRUNDRISSHALLE2EG
  6
Continuous
 62
     0
100
AcDbLine
 10
16.52072128264327
 20
32.63362727270638
 30
0.0
 11
16.55075217768402
 21
32.63370735509315
 31
0.0
  0
LINE
  5
3C5
102
{ACAD_REACTORS
330
3C4
102
}
330
21
100
AcDbEntity
  8
GRUNDRISSHALLE2EG
  6
Continuous
 62
     0
100
AcDbLine
 10
16.55079200845188
 20
32.63364543868346
 30
0.0
 11
16.55079200845188
 21
33.63364543868346
 31
0.0
  0
LINE
  5
3C6
102
{ACAD_REACTORS
330
3C4
102
}
330
21
100
AcDbEntity
  8
GRUNDRISSHALLE2EG
  6
Continuous
 62
     0
100
AcDbLine
 10
16.52079200845188
 20
32.63364543868346
 30
0.0
 11
16.52079200845188
 21
33.63364543868346
 31
0.0
  0
LINE
  5
3C7
102
{ACAD_REACTORS
330
3C4
102
}
330
21
100
AcDbEntity
  8
GRUNDRISSHALLE2EG
  6
Continuous
 62
     0
100
AcDbLine
 10
16.52072128264327
 20
32.63357478897508
 30
0.0
 11
16.55075217768402
 21
32.63357478897508
 31
0.0
  0
LINE
  5
3C8
102
{ACAD_REACTORS
330
3C4
102
}
330
21
100
AcDbEntity
  8
GRUNDRISSHALLE2EG
  6
Continuous
 62
     0
100
AcDbLine
 10
16.52072128264327
 20
33.63362727270638
 30
0.0
 11
16.55075217768402
 21
33.63370735509315
 31
0.0
  0
LINE
  5
3CA
102
{ACAD_REACTORS
330
3C9
102
}
330
21
100
AcDbEntity
  8
GRUNDRISSHALLE2EG
  6
Continuous
 62
     0
100
AcDbLine
 10
16.55079200845188
 20
33.63360765056199
 30
0.0
 11
16.55079200845188
 21
34.09874172778387
 31
0.0
  0
LINE
  5
3CB
102
{ACAD_REACTORS
330
3C9
102
}
330
21
100
AcDbEntity
  8
GRUNDRISSHALLE2EG
  6
Continuous
 62
     0
100
AcDbLine
 10
16.52079200845188
 20
33.63360765056199
 30
0.0
 11
16.52079200845188
 21
34.09874172778387
 31
0.0
  0
LINE
  5
3CC
102
{ACAD_REACTORS
330
3C9
102
}
330
21
100
AcDbEntity
  8
GRUNDRISSHALLE2EG
  6
Continuous
 62
     0
100
AcDbLine
 10
16.52072128264327
 20
33.63357478897509
 30
0.0
 11
16.55075217768402
 21
33.63357478897509
 31
0.0
  0
LINE
  5
3CD
102
{ACAD_REACTORS
330
3C9
102
}
330
21
100
AcDbEntity
  8
GRUNDRISSHALLE2EG
  6
Continuous
 62
     0
100
AcDbLine
 10
16.52072128264327
 20
34.09873327816889
 30
0.0
 11
16.55075217768402
 21
34.09877052721596
 31
0.0
  0
LINE
  5
3CF
102
{ACAD_REACTORS
330
3CE
102
}
330
21
100
AcDbEntity
  8
GRUNDRISSHALLE2EG
  6
Continuous
 62
     7
100
AcDbLine
 10
18.55295403139413
 20
34.09678842509524
 30
0.0
 11
17.55295403139413
 21
34.09678842509524
 31
0.0
  0
LINE
  5
3D0
102
{ACAD_REACTORS
330
3CE
102
}
330
21
100
AcDbEntity
  8
GRUNDRISSHALLE2EG
  6
Continuous
 62
     7
100
AcDbLine
 10
18.55295403139413
 20
34.06678842509523
 30
0.0
 11
17.55295403139413
 21
34.06678842509523
 31
0.0
  0
LINE
  5
3D1
102
{ACAD_REACTORS
330
3CE
102
}
330
21
100
AcDbEntity
  8
GRUNDRISSHALLE2EG
  6
Continuous
 62
     7
100
AcDbLine
 10
18.55302468110251
 20
34.06671769928662
 30
0.0
 11
18.55302468110251
 21
34.09674859432737
 31
0.0
  0
LINE
  5
3D2
102
{ACAD_REACTORS
330
3CE
102
}
330
21
100
AcDbEntity
  8
GRUNDRISSHALLE2EG
  6
Continuous
 62
     7
100
AcDbLine
 10
17.55297219737122
 20
34.06671769928662
 30
0.0
 11
17.55289211498444
 21
34.09674859432737
 31
0.0
  0
LINE
  5
3D4
102
{ACAD_REACTORS
330
3D3
102
}
330
21
100
AcDbEntity
  8
GRUNDRISSHALLE2EG
  6
Continuous
 62
     7
100
AcDbLine
 10
22.55295403139413
 20
34.09678842509524
 30
0.0
 11
21.55295403139414
 21
34.09678842509524
 31
0.0
  0
LINE
  5
3D5
102
{ACAD_REACTORS
330
3D3
102
}
330
21
100
AcDbEntity
  8
GRUNDRISSHALLE2EG
  6
Continuous
 62
     7
100
AcDbLine
 10
22.55295403139413
 20
34.06678842509523
 30
0.0
 11
21.55295403139414
 21
34.06678842509523
 31
0.0
  0
LINE
  5
3D6
102
{ACAD_REACTORS
330
3D3
102
}
330
21
100
AcDbEntity
  8
GRUNDRISSHALLE2EG
  6
Continuous
 62
     7
100
AcDbLine
 10
22.55302468110251
 20
34.06671769928662
 30
0.0
 11
22.55302468110251
 21
34.09674859432737
 31
0.0
  0
LINE
  5
3D7
102
{ACAD_REACTORS
330
3D3
102
}
330
21
100
AcDbEntity
  8
GRUNDRISSHALLE2EG
  6
Continuous
 62
     7
100
AcDbLine
 10
21.55297219737122
 20
34.06671769928662
 30
0.0
 11
21.55289211498445
 21
34.09674859432737
 31
0.0
  0
LINE
  5
3D9
102
{ACAD_REACTORS
330
3D8
102
}
330
21
100
AcDbEntity
  8
GRUNDRISSHALLE2EG
  6
Continuous
 62
     7
100
AcDbLine
 10
23.55295403139413
 20
34.09678842509524
 30
0.0
 11
22.55295403139414
 21
34.09678842509524
 31
0.0
  0
LINE
  5
3DA
102
{ACAD_REACTORS
330
3D8
102
}
330
21
100
AcDbEntity
  8
GRUNDRISSHALLE2EG
  6
Continuous
 62
     7
100
AcDbLine
 10
23.55295403139413
 20
34.06678842509523
 30
0.0
 11
22.55295403139414
 21
34.06678842509523
 31
0.0
  0
LINE
  5
3DB
102
{ACAD_REACTORS
330
3D8
102
}
330
21
100
AcDbEntity
  8
GRUNDRISSHALLE2EG
  6
Continuous
 62
     7
100
AcDbLine
 10
23.55302468110251
 20
34.06671769928662
 30
0.0
 11
23.55302468110251
 21
34.09674859432737
 31
0.0
  0
LINE
  5
3DC
102
{ACAD_REACTORS
330
3D8
102
}
330
21
100
AcDbEntity
  8
GRUNDRISSHALLE2EG
  6
Continuous
 62
     7
100
AcDbLine
 10
22.55297219737122
 20
34.06671769928662
 30
0.0
 11
22.55289211498445
 21
34.09674859432737
 31
0.0
  0
LINE
  5
3DE
102
{ACAD_REACTORS
330
3DD
102
}
330
21
100
AcDbEntity
  8
GRUNDRISSHALLE2EG
  6
Continuous
 62
     7
100
AcDbLine
 10
24.55295403139413
 20
34.09678842509524
 30
0.0
 11
23.55295403139413
 21
34.09678842509524
 31
0.0
  0
LINE
  5
3DF
102
{ACAD_REACTORS
330
3DD
102
}
330
21
100
AcDbEntity
  8
GRUNDRISSHALLE2EG
  6
Continuous
 62
     7
100
AcDbLine
 10
24.55295403139413
 20
34.06678842509523
 30
0.0
 11
23.55295403139413
 21
34.06678842509523
 31
0.0
  0
LINE
  5
3E0
102
{ACAD_REACTORS
330
3DD
102
}
330
21
100
AcDbEntity
  8
GRUNDRISSHALLE2EG
  6
Continuous
 62
     7
100
AcDbLine
 10
24.55302468110251
 20
34.06671769928662
 30
0.0
 11
24.55302468110251
 21
34.09674859432737
 31
0.0
  0
LINE
  5
3E1
102
{ACAD_REACTORS
330
3DD
102
}
330
21
100
AcDbEntity
  8
GRUNDRISSHALLE2EG
  6
Continuous
 62
     7
100
AcDbLine
 10
23.55297219737122
 20
34.06671769928662
 30
0.0
 11
23.55289211498444
 21
34.09674859432737
 31
0.0
  0
LINE
  5
3E3
102
{ACAD_REACTORS
330
3E2
102
}
330
21
100
AcDbEntity
  8
GRUNDRISSHALLE2EG
  6
Continuous
 62
     7
100
AcDbLine
 10
25.55295403139413
 20
34.09678842509524
 30
0.0
 11
24.55295403139414
 21
34.09678842509524
 31
0.0
  0
LINE
  5
3E4
102
{ACAD_REACTORS
330
3E2
102
}
330
21
100
AcDbEntity
  8
GRUNDRISSHALLE2EG
  6
Continuous
 62
     7
100
AcDbLine
 10
25.55295403139413
 20
34.06678842509523
 30
0.0
 11
24.55295403139414
 21
34.06678842509523
 31
0.0
  0
LINE
  5
3E5
102
{ACAD_REACTORS
330
3E2
102
}
330
21
100
AcDbEntity
  8
GRUNDRISSHALLE2EG
  6
Continuous
 62
     7
100
AcDbLine
 10
25.55302468110251
 20
34.06671769928662
 30
0.0
 11
25.55302468110251
 21
34.09674859432737
 31
0.0
  0
LINE
  5
3E6
102
{ACAD_REACTORS
330
3E2
102
}
330
21
100
AcDbEntity
  8
GRUNDRISSHALLE2EG
  6
Continuous
 62
     7
100
AcDbLine
 10
24.55297219737123
 20
34.06671769928662
 30
0.0
 11
24.55289211498445
 21
34.09674859432737
 31
0.0
  0
LINE
  5
3E8
102
{ACAD_REACTORS
330
3E7
102
}
330
21
100
AcDbEntity
  8
GRUNDRISSHALLE2EG
  6
Continuous
 62
     7
100
AcDbLine
 10
26.55295403139414
 20
34.09678842509524
 30
0.0
 11
25.55295403139414
 21
34.09678842509524
 31
0.0
  0
LINE
  5
3E9
102
{ACAD_REACTORS
330
3E7
102
}
330
21
100
AcDbEntity
  8
GRUNDRISSHALLE2EG
  6
Continuous
 62
     7
100
AcDbLine
 10
26.55295403139414
 20
34.06678842509523
 30
0.0
 11
25.55295403139414
 21
34.06678842509523
 31
0.0
  0
LINE
  5
3EA
102
{ACAD_REACTORS
330
3E7
102
}
330
21
100
AcDbEntity
  8
GRUNDRISSHALLE2EG
  6
Continuous
 62
     7
100
AcDbLine
 10
26.55302468110251
 20
34.06671769928662
 30
0.0
 11
26.55302468110251
 21
34.09674859432737
 31
0.0
  0
LINE
  5
3EB
102
{ACAD_REACTORS
330
3E7
102
}
330
21
100
AcDbEntity
  8
GRUNDRISSHALLE2EG
  6
Continuous
 62
     7
100
AcDbLine
 10
25.55297219737122
 20
34.06671769928662
 30
0.0
 11
25.55289211498445
 21
34.09674859432737
 31
0.0
  0
LINE
  5
3ED
102
{ACAD_REACTORS
330
3EC
102
}
330
21
100
AcDbEntity
  8
GRUNDRISSHALLE2EG
  6
Continuous
 62
     7
100
AcDbLine
 10
27.55295403139414
 20
34.09678842509524
 30
0.0
 11
26.55295403139414
 21
34.09678842509524
 31
0.0
  0
LINE
  5
3EE
102
{ACAD_REACTORS
330
3EC
102
}
330
21
100
AcDbEntity
  8
GRUNDRISSHALLE2EG
  6
Continuous
 62
     7
100
AcDbLine
 10
27.55295403139414
 20
34.06678842509523
 30
0.0
 11
26.55295403139414
 21
34.06678842509523
 31
0.0
  0
LINE
  5
3EF
102
{ACAD_REACTORS
330
3EC
102
}
330
21
100
AcDbEntity
  8
GRUNDRISSHALLE2EG
  6
Continuous
 62
     7
100
AcDbLine
 10
27.55302468110251
 20
34.06671769928662
 30
0.0
 11
27.55302468110251
 21
34.09674859432737
 31
0.0
  0
LINE
  5
3F0
102
{ACAD_REACTORS
330
3EC
102
}
330
21
100
AcDbEntity
  8
GRUNDRISSHALLE2EG
  6
Continuous
 62
     7
100
AcDbLine
 10
26.55297219737122
 20
34.06671769928662
 30
0.0
 11
26.55289211498445
 21
34.09674859432737
 31
0.0
  0
LINE
  5
3F2
102
{ACAD_REACTORS
330
3F1
102
}
330
21
100
AcDbEntity
  8
GRUNDRISSHALLE2EG
  6
Continuous
 62
     7
100
AcDbLine
 10
28.55295403139413
 20
34.09678842509524
 30
0.0
 11
27.55295403139414
 21
34.09678842509524
 31
0.0
  0
LINE
  5
3F3
102
{ACAD_REACTORS
330
3F1
102
}
330
21
100
AcDbEntity
  8
GRUNDRISSHALLE2EG
  6
Continuous
 62
     7
100
AcDbLine
 10
28.55295403139413
 20
34.06678842509523
 30
0.0
 11
27.55295403139414
 21
34.06678842509523
 31
0.0
  0
LINE
  5
3F4
102
{ACAD_REACTORS
330
3F1
102
}
330
21
100
AcDbEntity
  8
GRUNDRISSHALLE2EG
  6
Continuous
 62
     7
100
AcDbLine
 10
28.55302468110251
 20
34.06671769928662
 30
0.0
 11
28.55302468110251
 21
34.09674859432737
 31
0.0
  0
LINE
  5
3F5
102
{ACAD_REACTORS
330
3F1
102
}
330
21
100
AcDbEntity
  8
GRUNDRISSHALLE2EG
  6
Continuous
 62
     7
100
AcDbLine
 10
27.55297219737122
 20
34.06671769928662
 30
0.0
 11
27.55289211498445
 21
34.09674859432737
 31
0.0
  0
LINE
  5
3F7
102
{ACAD_REACTORS
330
3F6
102
}
330
21
100
AcDbEntity
  8
GRUNDRISSHALLE2EG
  6
Continuous
 62
     7
100
AcDbLine
 10
29.55295403139414
 20
34.09678842509524
 30
0.0
 11
28.55295403139414
 21
34.09678842509524
 31
0.0
  0
LINE
  5
3F8
102
{ACAD_REACTORS
330
3F6
102
}
330
21
100
AcDbEntity
  8
GRUNDRISSHALLE2EG
  6
Continuous
 62
     7
100
AcDbLine
 10
29.55295403139414
 20
34.06678842509523
 30
0.0
 11
28.55295403139414
 21
34.06678842509523
 31
0.0
  0
LINE
  5
3F9
102
{ACAD_REACTORS
330
3F6
102
}
330
21
100
AcDbEntity
  8
GRUNDRISSHALLE2EG
  6
Continuous
 62
     7
100
AcDbLine
 10
29.55302468110251
 20
34.06671769928662
 30
0.0
 11
29.55302468110251
 21
34.09674859432737
 31
0.0
  0
LINE
  5
3FA
102
{ACAD_REACTORS
330
3F6
102
}
330
21
100
AcDbEntity
  8
GRUNDRISSHALLE2EG
  6
Continuous
 62
     7
100
AcDbLine
 10
28.55297219737123
 20
34.06671769928662
 30
0.0
 11
28.55289211498445
 21
34.09674859432737
 31
0.0
  0
LINE
  5
3FC
102
{ACAD_REACTORS
330
3FB
102
}
330
21
100
AcDbEntity
  8
GRUNDRISSHALLE2EG
  6
Continuous
 62
     7
100
AcDbLine
 10
30.55295403139414
 20
34.09678842509524
 30
0.0
 11
29.55295403139414
 21
34.09678842509524
 31
0.0
  0
LINE
  5
3FD
102
{ACAD_REACTORS
330
3FB
102
}
330
21
100
AcDbEntity
  8
GRUNDRISSHALLE2EG
  6
Continuous
 62
     7
100
AcDbLine
 10
30.55295403139414
 20
34.06678842509523
 30
0.0
 11
29.55295403139414
 21
34.06678842509523
 31
0.0
  0
LINE
  5
3FE
102
{ACAD_REACTORS
330
3FB
102
}
330
21
100
AcDbEntity
  8
GRUNDRISSHALLE2EG
  6
Continuous
 62
     7
100
AcDbLine
 10
30.55302468110252
 20
34.06671769928662
 30
0.0
 11
30.55302468110252
 21
34.09674859432737
 31
0.0
  0
LINE
  5
3FF
102
{ACAD_REACTORS
330
3FB
102
}
330
21
100
AcDbEntity
  8
GRUNDRISSHALLE2EG
  6
Continuous
 62
     7
100
AcDbLine
 10
29.55297219737123
 20
34.06671769928662
 30
0.0
 11
29.55289211498445
 21
34.09674859432737
 31
0.0
  0
LINE
  5
401
102
{ACAD_REACTORS
330
400
102
}
330
21
100
AcDbEntity
  8
GRUNDRISSHALLE2EG
  6
Continuous
 62
     7
100
AcDbLine
 10
31.55295403139414
 20
34.09678842509524
 30
0.0
 11
30.55295403139414
 21
34.09678842509524
 31
0.0
  0
LINE
  5
402
102
{ACAD_REACTORS
330
400
102
}
330
21
100
AcDbEntity
  8
GRUNDRISSHALLE2EG
  6
Continuous
 62
     7
100
AcDbLine
 10
31.55295403139414
 20
34.06678842509523
 30
0.0
 11
30.55295403139414
 21
34.06678842509523
 31
0.0
  0
LINE
  5
403
102
{ACAD_REACTORS
330
400
102
}
330
21
100
AcDbEntity
  8
GRUNDRISSHALLE2EG
  6
Continuous
 62
     7
100
AcDbLine
 10
31.55302468110251
 20
34.06671769928662
 30
0.0
 11
31.55302468110251
 21
34.09674859432737
 31
0.0
  0
LINE
  5
404
102
{ACAD_REACTORS
330
400
102
}
330
21
100
AcDbEntity
  8
GRUNDRISSHALLE2EG
  6
Continuous
 62
     7
100
AcDbLine
 10
30.55297219737123
 20
34.06671769928662
 30
0.0
 11
30.55289211498446
 21
34.09674859432737
 31
0.0
  0
LINE
  5
406
102
{ACAD_REACTORS
330
405
102
}
330
21
100
AcDbEntity
  8
GRUNDRISSHALLE2EG
  6
Continuous
 62
     7
100
AcDbLine
 10
32.55295403139414
 20
34.09678842509524
 30
0.0
 11
31.55295403139414
 21
34.09678842509524
 31
0.0
  0
LINE
  5
407
102
{ACAD_REACTORS
330
405
102
}
330
21
100
AcDbEntity
  8
GRUNDRISSHALLE2EG
  6
Continuous
 62
     7
100
AcDbLine
 10
32.55295403139414
 20
34.06678842509523
 30
0.0
 11
31.55295403139414
 21
34.06678842509523
 31
0.0
  0
LINE
  5
408
102
{ACAD_REACTORS
330
405
102
}
330
21
100
AcDbEntity
  8
GRUNDRISSHALLE2EG
  6
Continuous
 62
     7
100
AcDbLine
 10
32.55302468110251
 20
34.06671769928662
 30
0.0
 11
32.55302468110251
 21
34.09674859432737
 31
0.0
  0
LINE
  5
409
102
{ACAD_REACTORS
330
405
102
}
330
21
100
AcDbEntity
  8
GRUNDRISSHALLE2EG
  6
Continuous
 62
     7
100
AcDbLine
 10
31.55297219737122
 20
34.06671769928662
 30
0.0
 11
31.55289211498445
 21
34.09674859432737
 31
0.0
  0
LINE
  5
40B
102
{ACAD_REACTORS
330
40A
102
}
330
21
100
AcDbEntity
  8
GRUNDRISSHALLE2EG
  6
Continuous
 62
     7
100
AcDbLine
 10
33.55295403139414
 20
34.09678842509524
 30
0.0
 11
32.55295403139415
 21
34.09678842509524
 31
0.0
  0
LINE
  5
40C
102
{ACAD_REACTORS
330
40A
102
}
330
21
100
AcDbEntity
  8
GRUNDRISSHALLE2EG
  6
Continuous
 62
     7
100
AcDbLine
 10
33.55295403139414
 20
34.06678842509523
 30
0.0
 11
32.55295403139415
 21
34.06678842509523
 31
0.0
  0
LINE
  5
40D
102
{ACAD_REACTORS
330
40A
102
}
330
21
100
AcDbEntity
  8
GRUNDRISSHALLE2EG
  6
Continuous
 62
     7
100
AcDbLine
 10
33.55302468110251
 20
34.06671769928662
 30
0.0
 11
33.55302468110251
 21
34.09674859432737
 31
0.0
  0
LINE
  5
40E
102
{ACAD_REACTORS
330
40A
102
}
330
21
100
AcDbEntity
  8
GRUNDRISSHALLE2EG
  6
Continuous
 62
     7
100
AcDbLine
 10
32.55297219737123
 20
34.06671769928662
 30
0.0
 11
32.55289211498445
 21
34.09674859432737
 31
0.0
  0
LINE
  5
410
102
{ACAD_REACTORS
330
40F
102
}
330
21
100
AcDbEntity
  8
GRUNDRISSHALLE2EG
  6
Continuous
 62
     7
100
AcDbLine
 10
34.55295403139415
 20
34.09678842509524
 30
0.0
 11
33.55295403139414
 21
34.09678842509524
 31
0.0
  0
LINE
  5
411
102
{ACAD_REACTORS
330
40F
102
}
330
21
100
AcDbEntity
  8
GRUNDRISSHALLE2EG
  6
Continuous
 62
     7
100
AcDbLine
 10
34.55295403139415
 20
34.06678842509523
 30
0.0
 11
33.55295403139414
 21
34.06678842509523
 31
0.0
  0
LINE
  5
412
102
{ACAD_REACTORS
330
40F
102
}
330
21
100
AcDbEntity
  8
GRUNDRISSHALLE2EG
  6
Continuous
 62
     7
100
AcDbLine
 10
34.55302468110251
 20
34.06671769928662
 30
0.0
 11
34.55302468110251
 21
34.09674859432737
 31
0.0
  0
LINE
  5
413
102
{ACAD_REACTORS
330
40F
102
}
330
21
100
AcDbEntity
  8
GRUNDRISSHALLE2EG
  6
Continuous
 62
     7
100
AcDbLine
 10
33.55297219737123
 20
34.06671769928662
 30
0.0
 11
33.55289211498446
 21
34.09674859432737
 31
0.0
  0
LINE
  5
415
102
{ACAD_REACTORS
330
414
102
}
330
21
100
AcDbEntity
  8
GRUNDRISSHALLE2EG
  6
Continuous
 62
     7
100
AcDbLine
 10
35.55295403139414
 20
34.09678842509524
 30
0.0
 11
34.55295403139415
 21
34.09678842509524
 31
0.0
  0
LINE
  5
416
102
{ACAD_REACTORS
330
414
102
}
330
21
100
AcDbEntity
  8
GRUNDRISSHALLE2EG
  6
Continuous
 62
     7
100
AcDbLine
 10
35.55295403139414
 20
34.06678842509523
 30
0.0
 11
34.55295403139415
 21
34.06678842509523
 31
0.0
  0
LINE
  5
417
102
{ACAD_REACTORS
330
414
102
}
330
21
100
AcDbEntity
  8
GRUNDRISSHALLE2EG
  6
Continuous
 62
     7
100
AcDbLine
 10
35.55302468110252
 20
34.06671769928662
 30
0.0
 11
35.55302468110252
 21
34.09674859432737
 31
0.0
  0
LINE
  5
418
102
{ACAD_REACTORS
330
414
102
}
330
21
100
AcDbEntity
  8
GRUNDRISSHALLE2EG
  6
Continuous
 62
     7
100
AcDbLine
 10
34.55297219737123
 20
34.06671769928662
 30
0.0
 11
34.55289211498445
 21
34.09674859432737
 31
0.0
  0
LINE
  5
41A
102
{ACAD_REACTORS
330
419
102
}
330
21
100
AcDbEntity
  8
GRUNDRISSHALLE2EG
  6
Continuous
 62
     7
100
AcDbLine
 10
36.55295403139414
 20
34.09678842509524
 30
0.0
 11
35.55295403139414
 21
34.09678842509524
 31
0.0
  0
LINE
  5
41B
102
{ACAD_REACTORS
330
419
102
}
330
21
100
AcDbEntity
  8
GRUNDRISSHALLE2EG
  6
Continuous
 62
     7
100
AcDbLine
 10
36.55295403139414
 20
34.06678842509523
 30
0.0
 11
35.55295403139414
 21
34.06678842509523
 31
0.0
  0
LINE
  5
41C
102
{ACAD_REACTORS
330
419
102
}
330
21
100
AcDbEntity
  8
GRUNDRISSHALLE2EG
  6
Continuous
 62
     7
100
AcDbLine
 10
36.55302468110252
 20
34.06671769928662
 30
0.0
 11
36.55302468110252
 21
34.09674859432737
 31
0.0
  0
LINE
  5
41D
102
{ACAD_REACTORS
330
419
102
}
330
21
100
AcDbEntity
  8
GRUNDRISSHALLE2EG
  6
Continuous
 62
     7
100
AcDbLine
 10
35.55297219737123
 20
34.06671769928662
 30
0.0
 11
35.55289211498446
 21
34.09674859432737
 31
0.0
  0
LINE
  5
41F
102
{ACAD_REACTORS
330
41E
102
}
330
21
100
AcDbEntity
  8
GRUNDRISSHALLE2EG
  6
Continuous
 62
     7
100
AcDbLine
 10
37.55295403139415
 20
34.09678842509524
 30
0.0
 11
36.55295403139414
 21
34.09678842509524
 31
0.0
  0
LINE
  5
420
102
{ACAD_REACTORS
330
41E
102
}
330
21
100
AcDbEntity
  8
GRUNDRISSHALLE2EG
  6
Continuous
 62
     7
100
AcDbLine
 10
37.55295403139415
 20
34.06678842509523
 30
0.0
 11
36.55295403139414
 21
34.06678842509523
 31
0.0
  0
LINE
  5
421
102
{ACAD_REACTORS
330
41E
102
}
330
21
100
AcDbEntity
  8
GRUNDRISSHALLE2EG
  6
Continuous
 62
     7
100
AcDbLine
 10
37.55302468110251
 20
34.06671769928662
 30
0.0
 11
37.55302468110251
 21
34.09674859432737
 31
0.0
  0
LINE
  5
422
102
{ACAD_REACTORS
330
41E
102
}
330
21
100
AcDbEntity
  8
GRUNDRISSHALLE2EG
  6
Continuous
 62
     7
100
AcDbLine
 10
36.55297219737124
 20
34.06671769928662
 30
0.0
 11
36.55289211498445
 21
34.09674859432737
 31
0.0
  0
LINE
  5
424
102
{ACAD_REACTORS
330
423
102
}
330
21
100
AcDbEntity
  8
GRUNDRISSHALLE2EG
  6
Continuous
 62
     7
100
AcDbLine
 10
38.55295403139415
 20
34.09678842509524
 30
0.0
 11
37.55295403139415
 21
34.09678842509524
 31
0.0
  0
LINE
  5
425
102
{ACAD_REACTORS
330
423
102
}
330
21
100
AcDbEntity
  8
GRUNDRISSHALLE2EG
  6
Continuous
 62
     7
100
AcDbLine
 10
38.55295403139415
 20
34.06678842509523
 30
0.0
 11
37.55295403139415
 21
34.06678842509523
 31
0.0
  0
LINE
  5
426
102
{ACAD_REACTORS
330
423
102
}
330
21
100
AcDbEntity
  8
GRUNDRISSHALLE2EG
  6
Continuous
 62
     7
100
AcDbLine
 10
38.55302468110252
 20
34.06671769928662
 30
0.0
 11
38.55302468110252
 21
34.09674859432737
 31
0.0
  0
LINE
  5
427
102
{ACAD_REACTORS
330
423
102
}
330
21
100
AcDbEntity
  8
GRUNDRISSHALLE2EG
  6
Continuous
 62
     7
100
AcDbLine
 10
37.55297219737123
 20
34.06671769928662
 30
0.0
 11
37.55289211498446
 21
34.09674859432737
 31
0.0
  0
LINE
  5
429
102
{ACAD_REACTORS
330
428
102
}
330
21
100
AcDbEntity
  8
GRUNDRISSHALLE2EG
  6
Continuous
 62
     7
100
AcDbLine
 10
39.55295403139414
 20
34.09678842509524
 30
0.0
 11
38.55295403139415
 21
34.09678842509524
 31
0.0
  0
LINE
  5
42A
102
{ACAD_REACTORS
330
428
102
}
330
21
100
AcDbEntity
  8
GRUNDRISSHALLE2EG
  6
Continuous
 62
     7
100
AcDbLine
 10
39.55295403139414
 20
34.06678842509523
 30
0.0
 11
38.55295403139415
 21
34.06678842509523
 31
0.0
  0
LINE
  5
42B
102
{ACAD_REACTORS
330
428
102
}
330
21
100
AcDbEntity
  8
GRUNDRISSHALLE2EG
  6
Continuous
 62
     7
100
AcDbLine
 10
39.55302468110252
 20
34.06671769928662
 30
0.0
 11
39.55302468110252
 21
34.09674859432737
 31
0.0
  0
LINE
  5
42C
102
{ACAD_REACTORS
330
428
102
}
330
21
100
AcDbEntity
  8
GRUNDRISSHALLE2EG
  6
Continuous
 62
     7
100
AcDbLine
 10
38.55297219737123
 20
34.06671769928662
 30
0.0
 11
38.55289211498445
 21
34.09674859432737
 31
0.0
  0
LINE
  5
42E
102
{ACAD_REACTORS
330
42D
102
}
330
21
100
AcDbEntity
  8
GRUNDRISSHALLE2EG
  6
Continuous
 62
     7
100
AcDbLine
 10
40.55295403139414
 20
34.09678842509524
 30
0.0
 11
39.55295403139415
 21
34.09678842509524
 31
0.0
  0
LINE
  5
42F
102
{ACAD_REACTORS
330
42D
102
}
330
21
100
AcDbEntity
  8
GRUNDRISSHALLE2EG
  6
Continuous
 62
     7
100
AcDbLine
 10
40.55295403139414
 20
34.06678842509523
 30
0.0
 11
39.55295403139415
 21
34.06678842509523
 31
0.0
  0
LINE
  5
430
102
{ACAD_REACTORS
330
42D
102
}
330
21
100
AcDbEntity
  8
GRUNDRISSHALLE2EG
  6
Continuous
 62
     7
100
AcDbLine
 10
40.55302468110251
 20
34.06671769928662
 30
0.0
 11
40.55302468110251
 21
34.09674859432737
 31
0.0
  0
LINE
  5
431
102
{ACAD_REACTORS
330
42D
102
}
330
21
100
AcDbEntity
  8
GRUNDRISSHALLE2EG
  6
Continuous
 62
     7
100
AcDbLine
 10
39.55297219737122
 20
34.06671769928662
 30
0.0
 11
39.55289211498445
 21
34.09674859432737
 31
0.0
  0
LINE
  5
433
102
{ACAD_REACTORS
330
432
102
}
330
21
100
AcDbEntity
  8
GRUNDRISSHALLE2EG
  6
Continuous
 62
     7
100
AcDbLine
 10
41.55295403139414
 20
34.09678842509524
 30
0.0
 11
40.55295403139414
 21
34.09678842509524
 31
0.0
  0
LINE
  5
434
102
{ACAD_REACTORS
330
432
102
}
330
21
100
AcDbEntity
  8
GRUNDRISSHALLE2EG
  6
Continuous
 62
     7
100
AcDbLine
 10
41.55295403139414
 20
34.06678842509523
 30
0.0
 11
40.55295403139414
 21
34.06678842509523
 31
0.0
  0
LINE
  5
435
102
{ACAD_REACTORS
330
432
102
}
330
21
100
AcDbEntity
  8
GRUNDRISSHALLE2EG
  6
Continuous
 62
     7
100
AcDbLine
 10
41.55302468110252
 20
34.06671769928662
 30
0.0
 11
41.55302468110252
 21
34.09674859432737
 31
0.0
  0
LINE
  5
436
102
{ACAD_REACTORS
330
432
102
}
330
21
100
AcDbEntity
  8
GRUNDRISSHALLE2EG
  6
Continuous
 62
     7
100
AcDbLine
 10
40.55297219737123
 20
34.06671769928662
 30
0.0
 11
40.55289211498446
 21
34.09674859432737
 31
0.0
  0
LINE
  5
438
102
{ACAD_REACTORS
330
437
102
}
330
21
100
AcDbEntity
  8
GRUNDRISSHALLE2EG
  6
Continuous
 62
     7
100
AcDbLine
 10
42.55295403139414
 20
34.09678842509524
 30
0.0
 11
41.55295403139414
 21
34.09678842509524
 31
0.0
  0
LINE
  5
439
102
{ACAD_REACTORS
330
437
102
}
330
21
100
AcDbEntity
  8
GRUNDRISSHALLE2EG
  6
Continuous
 62
     7
100
AcDbLine
 10
42.55295403139414
 20
34.06678842509523
 30
0.0
 11
41.55295403139414
 21
34.06678842509523
 31
0.0
  0
LINE
  5
43A
102
{ACAD_REACTORS
330
437
102
}
330
21
100
AcDbEntity
  8
GRUNDRISSHALLE2EG
  6
Continuous
 62
     7
100
AcDbLine
 10
42.55302468110251
 20
34.06671769928662
 30
0.0
 11
42.55302468110251
 21
34.09674859432737
 31
0.0
  0
LINE
  5
43B
102
{ACAD_REACTORS
330
437
102
}
330
21
100
AcDbEntity
  8
GRUNDRISSHALLE2EG
  6
Continuous
 62
     7
100
AcDbLine
 10
41.55297219737123
 20
34.06671769928662
 30
0.0
 11
41.55289211498446
 21
34.09674859432737
 31
0.0
  0
LINE
  5
43D
102
{ACAD_REACTORS
330
43C
102
}
330
21
100
AcDbEntity
  8
GRUNDRISSHALLE2EG
  6
Continuous
 62
     7
100
AcDbLine
 10
43.55295403139414
 20
34.09678842509524
 30
0.0
 11
42.55295403139415
 21
34.09678842509524
 31
0.0
  0
LINE
  5
43E
102
{ACAD_REACTORS
330
43C
102
}
330
21
100
AcDbEntity
  8
GRUNDRISSHALLE2EG
  6
Continuous
 62
     7
100
AcDbLine
 10
43.55295403139414
 20
34.06678842509523
 30
0.0
 11
42.55295403139415
 21
34.06678842509523
 31
0.0
  0
LINE
  5
43F
102
{ACAD_REACTORS
330
43C
102
}
330
21
100
AcDbEntity
  8
GRUNDRISSHALLE2EG
  6
Continuous
 62
     7
100
AcDbLine
 10
43.55302468110251
 20
34.06671769928662
 30
0.0
 11
43.55302468110251
 21
34.09674859432737
 31
0.0
  0
LINE
  5
440
102
{ACAD_REACTORS
330
43C
102
}
330
21
100
AcDbEntity
  8
GRUNDRISSHALLE2EG
  6
Continuous
 62
     7
100
AcDbLine
 10
42.55297219737123
 20
34.06671769928662
 30
0.0
 11
42.55289211498445
 21
34.09674859432737
 31
0.0
  0
LINE
  5
442
102
{ACAD_REACTORS
330
441
102
}
330
21
100
AcDbEntity
  8
GRUNDRISSHALLE2EG
  6
Continuous
 62
     7
100
AcDbLine
 10
44.55295403139414
 20
34.09678842509524
 30
0.0
 11
43.55295403139414
 21
34.09678842509524
 31
0.0
  0
LINE
  5
443
102
{ACAD_REACTORS
330
441
102
}
330
21
100
AcDbEntity
  8
GRUNDRISSHALLE2EG
  6
Continuous
 62
     7
100
AcDbLine
 10
44.55295403139414
 20
34.06678842509523
 30
0.0
 11
43.55295403139414
 21
34.06678842509523
 31
0.0
  0
LINE
  5
444
102
{ACAD_REACTORS
330
441
102
}
330
21
100
AcDbEntity
  8
GRUNDRISSHALLE2EG
  6
Continuous
 62
     7
100
AcDbLine
 10
44.55302468110252
 20
34.06671769928662
 30
0.0
 11
44.55302468110252
 21
34.09674859432737
 31
0.0
  0
LINE
  5
445
102
{ACAD_REACTORS
330
441
102
}
330
21
100
AcDbEntity
  8
GRUNDRISSHALLE2EG
  6
Continuous
 62
     7
100
AcDbLine
 10
43.55297219737123
 20
34.06671769928662
 30
0.0
 11
43.55289211498446
 21
34.09674859432737
 31
0.0
  0
LINE
  5
447
102
{ACAD_REACTORS
330
446
102
}
330
21
100
AcDbEntity
  8
GRUNDRISSHALLE2EG
  6
Continuous
 62
     7
100
AcDbLine
 10
45.55295403139414
 20
34.09678842509524
 30
0.0
 11
44.55295403139414
 21
34.09678842509524
 31
0.0
  0
LINE
  5
448
102
{ACAD_REACTORS
330
446
102
}
330
21
100
AcDbEntity
  8
GRUNDRISSHALLE2EG
  6
Continuous
 62
     7
100
AcDbLine
 10
45.55295403139414
 20
34.06678842509523
 30
0.0
 11
44.55295403139414
 21
34.06678842509523
 31
0.0
  0
LINE
  5
449
102
{ACAD_REACTORS
330
446
102
}
330
21
100
AcDbEntity
  8
GRUNDRISSHALLE2EG
  6
Continuous
 62
     7
100
AcDbLine
 10
45.55302468110251
 20
34.06671769928662
 30
0.0
 11
45.55302468110251
 21
34.09674859432737
 31
0.0
  0
LINE
  5
44A
102
{ACAD_REACTORS
330
446
102
}
330
21
100
AcDbEntity
  8
GRUNDRISSHALLE2EG
  6
Continuous
 62
     7
100
AcDbLine
 10
44.55297219737123
 20
34.06671769928662
 30
0.0
 11
44.55289211498445
 21
34.09674859432737
 31
0.0
  0
LINE
  5
44C
102
{ACAD_REACTORS
330
44B
102
}
330
21
100
AcDbEntity
  8
GRUNDRISSHALLE2EG
  6
Continuous
 62
     7
100
AcDbLine
 10
46.55295403139414
 20
34.09678842509524
 30
0.0
 11
45.55295403139414
 21
34.09678842509524
 31
0.0
  0
LINE
  5
44D
102
{ACAD_REACTORS
330
44B
102
}
330
21
100
AcDbEntity
  8
GRUNDRISSHALLE2EG
  6
Continuous
 62
     7
100
AcDbLine
 10
46.55295403139414
 20
34.06678842509523
 30
0.0
 11
45.55295403139414
 21
34.06678842509523
 31
0.0
  0
LINE
  5
44E
102
{ACAD_REACTORS
330
44B
102
}
330
21
100
AcDbEntity
  8
GRUNDRISSHALLE2EG
  6
Continuous
 62
     7
100
AcDbLine
 10
46.55302468110251
 20
34.06671769928662
 30
0.0
 11
46.55302468110251
 21
34.09674859432737
 31
0.0
  0
LINE
  5
44F
102
{ACAD_REACTORS
330
44B
102
}
330
21
100
AcDbEntity
  8
GRUNDRISSHALLE2EG
  6
Continuous
 62
     7
100
AcDbLine
 10
45.55297219737123
 20
34.06671769928662
 30
0.0
 11
45.55289211498445
 21
34.09674859432737
 31
0.0
  0
LINE
  5
451
102
{ACAD_REACTORS
330
450
102
}
330
21
100
AcDbEntity
  8
GRUNDRISSHALLE2EG
  6
Continuous
 62
     7
100
AcDbLine
 10
47.55295403139413
 20
34.09678842509524
 30
0.0
 11
46.55295403139414
 21
34.09678842509524
 31
0.0
  0
LINE
  5
452
102
{ACAD_REACTORS
330
450
102
}
330
21
100
AcDbEntity
  8
GRUNDRISSHALLE2EG
  6
Continuous
 62
     7
100
AcDbLine
 10
47.55295403139413
 20
34.06678842509523
 30
0.0
 11
46.55295403139414
 21
34.06678842509523
 31
0.0
  0
LINE
  5
453
102
{ACAD_REACTORS
330
450
102
}
330
21
100
AcDbEntity
  8
GRUNDRISSHALLE2EG
  6
Continuous
 62
     7
100
AcDbLine
 10
47.55302468110251
 20
34.06671769928662
 30
0.0
 11
47.55302468110251
 21
34.09674859432737
 31
0.0
  0
LINE
  5
454
102
{ACAD_REACTORS
330
450
102
}
330
21
100
AcDbEntity
  8
GRUNDRISSHALLE2EG
  6
Continuous
 62
     7
100
AcDbLine
 10
46.55297219737122
 20
34.06671769928662
 30
0.0
 11
46.55289211498445
 21
34.09674859432737
 31
0.0
  0
LINE
  5
456
102
{ACAD_REACTORS
330
455
102
}
330
21
100
AcDbEntity
  8
GRUNDRISSHALLE2EG
  6
Continuous
 62
     7
100
AcDbLine
 10
48.55295403139414
 20
34.09678842509524
 30
0.0
 11
47.55295403139413
 21
34.09678842509524
 31
0.0
  0
LINE
  5
457
102
{ACAD_REACTORS
330
455
102
}
330
21
100
AcDbEntity
  8
GRUNDRISSHALLE2EG
  6
Continuous
 62
     7
100
AcDbLine
 10
48.55295403139414
 20
34.06678842509523
 30
0.0
 11
47.55295403139413
 21
34.06678842509523
 31
0.0
  0
LINE
  5
458
102
{ACAD_REACTORS
330
455
102
}
330
21
100
AcDbEntity
  8
GRUNDRISSHALLE2EG
  6
Continuous
 62
     7
100
AcDbLine
 10
48.55302468110251
 20
34.06671769928662
 30
0.0
 11
48.55302468110251
 21
34.09674859432737
 31
0.0
  0
LINE
  5
459
102
{ACAD_REACTORS
330
455
102
}
330
21
100
AcDbEntity
  8
GRUNDRISSHALLE2EG
  6
Continuous
 62
     7
100
AcDbLine
 10
47.55297219737122
 20
34.06671769928662
 30
0.0
 11
47.55289211498445
 21
34.09674859432737
 31
0.0
  0
LINE
  5
45B
102
{ACAD_REACTORS
330
45A
102
}
330
21
100
AcDbEntity
  8
GRUNDRISSHALLE2EG
  6
Continuous
 62
     7
100
AcDbLine
 10
49.55295403139412
 20
34.09678842509524
 30
0.0
 11
48.55295403139414
 21
34.09678842509524
 31
0.0
  0
LINE
  5
45C
102
{ACAD_REACTORS
330
45A
102
}
330
21
100
AcDbEntity
  8
GRUNDRISSHALLE2EG
  6
Continuous
 62
     7
100
AcDbLine
 10
49.55295403139412
 20
34.06678842509523
 30
0.0
 11
48.55295403139414
 21
34.06678842509523
 31
0.0
  0
LINE
  5
45D
102
{ACAD_REACTORS
330
45A
102
}
330
21
100
AcDbEntity
  8
GRUNDRISSHALLE2EG
  6
Continuous
 62
     7
100
AcDbLine
 10
49.5530246811025
 20
34.06671769928662
 30
0.0
 11
49.5530246811025
 21
34.09674859432737
 31
0.0
  0
LINE
  5
45E
102
{ACAD_REACTORS
330
45A
102
}
330
21
100
AcDbEntity
  8
GRUNDRISSHALLE2EG
  6
Continuous
 62
     7
100
AcDbLine
 10
48.55297219737122
 20
34.06671769928662
 30
0.0
 11
48.55289211498444
 21
34.09674859432737
 31
0.0
  0
LINE
  5
460
102
{ACAD_REACTORS
330
45F
102
}
330
21
100
AcDbEntity
  8
GRUNDRISSHALLE2EG
  6
Continuous
 62
     7
100
AcDbLine
 10
50.55295403139413
 20
34.09678842509524
 30
0.0
 11
49.55295403139412
 21
34.09678842509524
 31
0.0
  0
LINE
  5
461
102
{ACAD_REACTORS
330
45F
102
}
330
21
100
AcDbEntity
  8
GRUNDRISSHALLE2EG
  6
Continuous
 62
     7
100
AcDbLine
 10
50.55295403139413
 20
34.06678842509523
 30
0.0
 11
49.55295403139412
 21
34.06678842509523
 31
0.0
  0
LINE
  5
462
102
{ACAD_REACTORS
330
45F
102
}
330
21
100
AcDbEntity
  8
GRUNDRISSHALLE2EG
  6
Continuous
 62
     7
100
AcDbLine
 10
50.55302468110251
 20
34.06671769928662
 30
0.0
 11
50.55302468110251
 21
34.09674859432737
 31
0.0
  0
LINE
  5
463
102
{ACAD_REACTORS
330
45F
102
}
330
21
100
AcDbEntity
  8
GRUNDRISSHALLE2EG
  6
Continuous
 62
     7
100
AcDbLine
 10
49.55297219737122
 20
34.06671769928662
 30
0.0
 11
49.55289211498445
 21
34.09674859432737
 31
0.0
  0
LINE
  5
465
102
{ACAD_REACTORS
330
464
102
}
330
21
100
AcDbEntity
  8
GRUNDRISSHALLE2EG
  6
Continuous
 62
     7
100
AcDbLine
 10
51.55295403139413
 20
34.09678842509524
 30
0.0
 11
50.55295403139413
 21
34.09678842509524
 31
0.0
  0
LINE
  5
466
102
{ACAD_REACTORS
330
464
102
}
330
21
100
AcDbEntity
  8
GRUNDRISSHALLE2EG
  6
Continuous
 62
     7
100
AcDbLine
 10
51.55295403139413
 20
34.06678842509523
 30
0.0
 11
50.55295403139413
 21
34.06678842509523
 31
0.0
  0
LINE
  5
467
102
{ACAD_REACTORS
330
464
102
}
330
21
100
AcDbEntity
  8
GRUNDRISSHALLE2EG
  6
Continuous
 62
     7
100
AcDbLine
 10
51.55302468110249
 20
34.06671769928662
 30
0.0
 11
51.55302468110249
 21
34.09674859432737
 31
0.0
  0
LINE
  5
468
102
{ACAD_REACTORS
330
464
102
}
330
21
100
AcDbEntity
  8
GRUNDRISSHALLE2EG
  6
Continuous
 62
     7
100
AcDbLine
 10
50.55297219737122
 20
34.06671769928662
 30
0.0
 11
50.55289211498444
 21
34.09674859432737
 31
0.0
  0
LINE
  5
46A
102
{ACAD_REACTORS
330
469
102
}
330
21
100
AcDbEntity
  8
GRUNDRISSHALLE2EG
  6
Continuous
 62
     7
100
AcDbLine
 10
52.55295403139413
 20
34.09678842509524
 30
0.0
 11
51.55295403139413
 21
34.09678842509524
 31
0.0
  0
LINE
  5
46B
102
{ACAD_REACTORS
330
469
102
}
330
21
100
AcDbEntity
  8
GRUNDRISSHALLE2EG
  6
Continuous
 62
     7
100
AcDbLine
 10
52.55295403139413
 20
34.06678842509523
 30
0.0
 11
51.55295403139413
 21
34.06678842509523
 31
0.0
  0
LINE
  5
46C
102
{ACAD_REACTORS
330
469
102
}
330
21
100
AcDbEntity
  8
GRUNDRISSHALLE2EG
  6
Continuous
 62
     7
100
AcDbLine
 10
52.5530246811025
 20
34.06671769928662
 30
0.0
 11
52.5530246811025
 21
34.09674859432737
 31
0.0
  0
LINE
  5
46D
102
{ACAD_REACTORS
330
469
102
}
330
21
100
AcDbEntity
  8
GRUNDRISSHALLE2EG
  6
Continuous
 62
     7
100
AcDbLine
 10
51.55297219737121
 20
34.06671769928662
 30
0.0
 11
51.55289211498444
 21
34.09674859432737
 31
0.0
  0
LINE
  5
46F
102
{ACAD_REACTORS
330
46E
102
}
330
21
100
AcDbEntity
  8
GRUNDRISSHALLE2EG
  6
Continuous
 62
     7
100
AcDbLine
 10
53.55295403139411
 20
34.09678842509524
 30
0.0
 11
52.55295403139413
 21
34.09678842509524
 31
0.0
  0
LINE
  5
470
102
{ACAD_REACTORS
330
46E
102
}
330
21
100
AcDbEntity
  8
GRUNDRISSHALLE2EG
  6
Continuous
 62
     7
100
AcDbLine
 10
53.55295403139411
 20
34.06678842509523
 30
0.0
 11
52.55295403139413
 21
34.06678842509523
 31
0.0
  0
LINE
  5
471
102
{ACAD_REACTORS
330
46E
102
}
330
21
100
AcDbEntity
  8
GRUNDRISSHALLE2EG
  6
Continuous
 62
     7
100
AcDbLine
 10
53.55302468110249
 20
34.06671769928662
 30
0.0
 11
53.55302468110249
 21
34.09674859432737
 31
0.0
  0
LINE
  5
472
102
{ACAD_REACTORS
330
46E
102
}
330
21
100
AcDbEntity
  8
GRUNDRISSHALLE2EG
  6
Continuous
 62
     7
100
AcDbLine
 10
52.55297219737122
 20
34.06671769928662
 30
0.0
 11
52.55289211498444
 21
34.09674859432737
 31
0.0
  0
LINE
  5
474
102
{ACAD_REACTORS
330
473
102
}
330
21
100
AcDbEntity
  8
GRUNDRISSHALLE2EG
  6
Continuous
 62
     7
100
AcDbLine
 10
54.55295403139412
 20
34.09678842509524
 30
0.0
 11
53.55295403139411
 21
34.09678842509524
 31
0.0
  0
LINE
  5
475
102
{ACAD_REACTORS
330
473
102
}
330
21
100
AcDbEntity
  8
GRUNDRISSHALLE2EG
  6
Continuous
 62
     7
100
AcDbLine
 10
54.55295403139412
 20
34.06678842509523
 30
0.0
 11
53.55295403139411
 21
34.06678842509523
 31
0.0
  0
LINE
  5
476
102
{ACAD_REACTORS
330
473
102
}
330
21
100
AcDbEntity
  8
GRUNDRISSHALLE2EG
  6
Continuous
 62
     7
100
AcDbLine
 10
54.55302468110249
 20
34.06671769928662
 30
0.0
 11
54.55302468110249
 21
34.09674859432737
 31
0.0
  0
LINE
  5
477
102
{ACAD_REACTORS
330
473
102
}
330
21
100
AcDbEntity
  8
GRUNDRISSHALLE2EG
  6
Continuous
 62
     7
100
AcDbLine
 10
53.55297219737121
 20
34.06671769928662
 30
0.0
 11
53.55289211498444
 21
34.09674859432737
 31
0.0
  0
LINE
  5
479
102
{ACAD_REACTORS
330
478
102
}
330
21
100
AcDbEntity
  8
GRUNDRISSHALLE2EG
  6
Continuous
 62
     7
100
AcDbLine
 10
55.55295403139412
 20
34.09678842509524
 30
0.0
 11
54.55295403139412
 21
34.09678842509524
 31
0.0
  0
LINE
  5
47A
102
{ACAD_REACTORS
330
478
102
}
330
21
100
AcDbEntity
  8
GRUNDRISSHALLE2EG
  6
Continuous
 62
     7
100
AcDbLine
 10
55.55295403139412
 20
34.06678842509523
 30
0.0
 11
54.55295403139412
 21
34.06678842509523
 31
0.0
  0
LINE
  5
47B
102
{ACAD_REACTORS
330
478
102
}
330
21
100
AcDbEntity
  8
GRUNDRISSHALLE2EG
  6
Continuous
 62
     7
100
AcDbLine
 10
55.5530246811025
 20
34.06671769928662
 30
0.0
 11
55.5530246811025
 21
34.09674859432737
 31
0.0
  0
LINE
  5
47C
102
{ACAD_REACTORS
330
478
102
}
330
21
100
AcDbEntity
  8
GRUNDRISSHALLE2EG
  6
Continuous
 62
     7
100
AcDbLine
 10
54.5529721973712
 20
34.06671769928662
 30
0.0
 11
54.55289211498443
 21
34.09674859432737
 31
0.0
  0
LINE
  5
47E
102
{ACAD_REACTORS
330
47D
102
}
330
21
100
AcDbEntity
  8
GRUNDRISSHALLE2EG
  6
Continuous
 62
     7
100
AcDbLine
 10
56.30079544732518
 20
34.09678842509524
 30
0.0
 11
55.55293841960654
 21
34.09678842509524
 31
0.0
  0
LINE
  5
47F
102
{ACAD_REACTORS
330
47D
102
}
330
21
100
AcDbEntity
  8
GRUNDRISSHALLE2EG
  6
Continuous
 62
     7
100
AcDbLine
 10
56.30079544732518
 20
34.06678842509523
 30
0.0
 11
55.55293841960654
 21
34.06678842509523
 31
0.0
  0
LINE
  5
480
102
{ACAD_REACTORS
330
47D
102
}
330
21
100
AcDbEntity
  8
GRUNDRISSHALLE2EG
  6
Continuous
 62
     7
100
AcDbLine
 10
56.3008482832061
 20
34.06671769928662
 30
0.0
 11
56.3008482832061
 21
34.09674859432737
 31
0.0
  0
LINE
  5
481
102
{ACAD_REACTORS
330
47D
102
}
330
21
100
AcDbEntity
  8
GRUNDRISSHALLE2EG
  6
Continuous
 62
     7
100
AcDbLine
 10
55.55295200516018
 20
34.06671769928662
 30
0.0
 11
55.55289211498443
 21
34.09674859432737
 31
0.0
  0
LINE
  5
482
330
21
100
AcDbEntity
  8
GRUNDRISSHALLE2EG
  6
Continuous
 62
     7
100
AcDbLine
 10
21.49205749598694
 20
34.35012484516603
 30
0.0
 11
26.38205749598693
 21
34.35012484516603
 31
0.0
  0
LINE
  5
483
330
21
100
AcDbEntity
  8
GRUNDRISSHALLE2EG
  6
Continuous
 62
     7
100
AcDbLine
 10
26.48813410865536
 20
34.35012484516603
 30
0.0
 11
31.37813410865536
 21
34.35012484516603
 31
0.0
  0
LINE
  5
484
330
21
100
AcDbEntity
  8
GRUNDRISSHALLE2EG
  6
Continuous
 62
     7
100
AcDbLine
 10
31.49354565744748
 20
34.35012484516603
 30
0.0
 11
36.38354565744747
 21
34.35012484516603
 31
0.0
  0
LINE
  5
485
330
21
100
AcDbEntity
  8
GRUNDRISSHALLE2EG
  6
Continuous
 62
     7
100
AcDbLine
 10
36.4806222701159
 20
34.35012484516603
 30
0.0
 11
41.3706222701159
 21
34.35012484516603
 31
0.0
  0
LINE
  5
486
330
21
100
AcDbEntity
  8
GRUNDRISSHALLE2EG
  6
Continuous
 62
     7
100
AcDbLine
 10
41.49020128696983
 20
34.35012484516603
 30
0.0
 11
46.38020128696983
 21
34.35012484516603
 31
0.0
  0
LINE
  5
487
330
21
100
AcDbEntity
  8
GRUNDRISSHALLE2EG
  6
Continuous
 62
     7
100
AcDbLine
 10
51.48738739998845
 20
34.35012484516603
 30
0.0
 11
56.37738739998845
 21
34.35012484516603
 31
0.0
  0
LINE
  5
488
330
21
100
AcDbEntity
  8
GRUNDRISSHALLE2EG
  6
Continuous
 62
     7
100
AcDbLine
 10
46.48194983822665
 20
34.35012484516603
 30
0.0
 11
51.37194983822666
 21
34.35012484516603
 31
0.0
  0
LINE
  5
489
330
21
100
AcDbEntity
  8
GRUNDRISSHALLE2EG
  6
Continuous
 62
     7
100
AcDbLine
 10
16.47728499810193
 20
34.35012484516603
 30
0.0
 11
18.61680420712067
 21
34.35012484516603
 31
0.0
  0
LINE
  5
48A
330
21
100
AcDbEntity
  8
STANDZUTEILUNG
  6
Continuous
 62
     0
100
AcDbLine
 10
52.00000000000001
 20
29.25
 30
0.0
 11
52.00000000000001
 21
23.24999999999999
 31
0.0
  0
LINE
  5
48B
330
21
100
AcDbEntity
  8
STANDZUTEILUNG
  6
Continuous
 62
     0
100
AcDbLine
 10
34.0
 20
26.0
 30
0.0
 11
39.0
 21
26.0
 31
0.0
  0
LINE
  5
48C
330
21
100
AcDbEntity
  8
STANDZUTEILUNG
  6
Continuous
 62
     0
100
AcDbLine
 10
37.0
 20
26.0
 30
0.0
 11
37.0
 21
20.0
 31
0.0
  0
LINE
  5
48D
330
21
100
AcDbEntity
  8
STANDZUTEILUNG
  6
Continuous
 62
     0
100
AcDbLine
 10
31.00000000000001
 20
23.0
 30
0.0
 11
31.00000000000001
 21
20.0
 31
0.0
  0
LINE
  5
48E
330
21
100
AcDbEntity
  8
STANDZUTEILUNG
  6
Continuous
 62
     0
100
AcDbLine
 10
26.00000000000001
 20
23.0
 30
0.0
 11
26.00000000000001
 21
20.0
 31
0.0
  0
LINE
  5
48F
330
21
100
AcDbEntity
  8
STANDZUTEILUNG
  6
Continuous
 62
     0
100
AcDbLine
 10
23.0
 20
26.0
 30
0.0
 11
20.0
 21
26.0
 31
0.0
  0
LINE
  5
490
330
21
100
AcDbEntity
  8
STANDZUTEILUNG
  6
Continuous
 62
     0
100
AcDbLine
 10
67.0
 20
35.25000000000003
 30
0.0
 11
69.0
 21
35.25000000000003
 31
0.0
  0
LINE
  5
491
330
21
100
AcDbEntity
  8
STANDZUTEILUNG
  6
Continuous
 62
     0
100
AcDbLine
 10
69.0
 20
35.25000000000003
 30
0.0
 11
69.0
 21
23.24999999999999
 31
0.0
  0
LINE
  5
492
330
21
100
AcDbEntity
  8
STANDZUTEILUNG
  6
Continuous
 62
     0
100
AcDbLine
 10
60.25000000000001
 20
29.0
 30
0.0
 11
60.25000000000001
 21
35.5
 31
0.0
  0
LINE
  5
493
330
21
100
AcDbEntity
  8
STANDZUTEILUNG
  6
Continuous
 62
     0
100
AcDbLine
 10
54.25
 20
32.0
 30
0.0
 11
54.25
 21
35.5
 31
0.0
  0
LINE
  5
494
330
21
100
AcDbEntity
  8
STANDZUTEILUNG
  6
Continuous
 62
     0
100
AcDbLine
 10
69.0
 20
35.25000000000003
 30
0.0
 11
67.0
 21
35.25000000000003
 31
0.0
  0
LINE
  5
495
330
21
100
AcDbEntity
  8
STANDZUTEILUNG
  6
Continuous
 62
     0
100
AcDbLine
 10
69.0
 20
35.25000000000003
 30
0.0
 11
69.0
 21
23.24999999999999
 31
0.0
  0
LINE
  5
496
330
21
100
AcDbEntity
  8
STANDZUTEILUNG
  6
Continuous
 62
     0
100
AcDbLine
 10
69.0
 20
23.25
 30
0.0
 11
45.0
 21
23.25
 31
0.0
  0
LINE
  5
497
330
21
100
AcDbEntity
  8
STANDZUTEILUNG
  6
Continuous
 62
     0
100
AcDbLine
 10
64.25
 20
35.5
 30
0.0
 11
44.24999999999999
 21
35.5
 31
0.0
  0
LINE
  5
498
330
21
100
AcDbEntity
  8
STANDZUTEILUNG
  6
Continuous
 62
     0
100
AcDbLine
 10
43.75
 20
35.5
 30
0.0
 11
8.750000000000001
 21
35.5
 31
0.0
  0
LINE
  5
499
330
21
100
AcDbEntity
  8
STANDZUTEILUNG
  6
Continuous
 62
     0
100
AcDbLine
 10
6.0
 20
35.5
 30
0.0
 11
4.0
 21
35.5
 31
0.0
  0
LINE
  5
49A
330
21
100
AcDbEntity
  8
STANDZUTEILUNG
  6
Continuous
 62
     0
100
AcDbLine
 10
4.0
 20
35.5
 30
0.0
 11
4.0
 21
20.0
 31
0.0
  0
LINE
  5
49B
330
21
100
AcDbEntity
  8
STANDZUTEILUNG
  6
Continuous
 62
     0
100
AcDbLine
 10
4.0
 20
20.0
 30
0.0
 11
43.75
 21
20.0
 31
0.0
  0
LINE
  5
49C
330
21
100
AcDbEntity
  8
STANDZUTEILUNG
  6
Continuous
 62
     0
100
AcDbLine
 10
43.75
 20
20.0
 30
0.0
 11
43.75
 21
23.0
 31
0.0
  0
LINE
  5
49D
330
21
100
AcDbEntity
  8
STANDZUTEILUNG
  6
Continuous
 62
     0
100
AcDbLine
 10
43.75
 20
26.0
 30
0.0
 11
43.74999999999999
 21
35.5
 31
0.0
  0
LINE
  5
49E
330
21
100
AcDbEntity
  8
STANDZUTEILUNG
  6
Continuous
 62
     0
100
AcDbLine
 10
44.24999999999999
 20
35.5
 30
0.0
 11
44.24999999999999
 21
26.5
 31
0.0
  0
LINE
  5
49F
330
21
100
AcDbEntity
  8
STANDZUTEILUNG
  6
Continuous
 62
     0
100
AcDbLine
 10
6.0
 20
31.0
 30
0.0
 11
4.0
 21
31.0
 31
0.0
  0
LINE
  5
4A0
330
21
100
AcDbEntity
  8
STANDZUTEILUNG
  6
Continuous
 62
     0
100
AcDbLine
 10
6.0
 20
25.0
 30
0.0
 11
4.0
 21
25.0
 31
0.0
  0
LINE
  5
4A1
330
21
100
AcDbEntity
  8
STANDZUTEILUNG
  6
Continuous
 62
     0
100
AcDbLine
 10
9.0
 20
23.0
 30
0.0
 11
9.0
 21
20.0
 31
0.0
  0
LINE
  5
4A2
330
21
100
AcDbEntity
  8
STANDZUTEILUNG
  6
Continuous
 62
     0
100
AcDbLine
 10
13.0
 20
23.0
 30
0.0
 11
13.0
 21
20.0
 31
0.0
  0
LINE
  5
4A3
330
21
100
AcDbEntity
  8
STANDZUTEILUNG
  6
Continuous
 62
     0
100
AcDbLine
 10
8.75
 20
30.0
 30
0.0
 11
13.75
 21
30.0
 31
0.0
  0
LINE
  5
4A4
330
21
100
AcDbEntity
  8
STANDZUTEILUNG
  6
Continuous
 62
     0
100
AcDbLine
 10
10.75
 20
30.0
 30
0.0
 11
10.74999999999999
 21
35.5
 31
0.0
  0
LINE
  5
4A5
330
21
100
AcDbEntity
  8
STANDZUTEILUNG
  6
Continuous
 62
     0
100
AcDbLine
 10
28.25
 20
35.5
 30
0.0
 11
28.25000000000001
 21
30.5
 31
0.0
  0
LINE
  5
4A6
330
21
100
AcDbEntity
  8
STANDZUTEILUNG
  6
Continuous
 62
     0
100
AcDbLine
 10
30.75
 20
30.5
 30
0.0
 11
28.25
 21
30.5
 31
0.0
  0
LINE
  5
4A7
330
21
100
AcDbEntity
  8
RUNDGANG
  6
Continuous
 62
     0
100
AcDbLine
 10
8.749999999999994
 20
35.49999999999999
 30
0.0
 11
43.74999999999999
 21
35.49999999999999
 31
0.0
  0
LINE
  5
4A8
330
21
100
AcDbEntity
  8
RUNDGANG
  6
Continuous
 62
     0
100
AcDbLine
 10
8.749999999999998
 20
35.5
 30
0.0
 11
8.750000000000005
 21
26.0
 31
0.0
  0
LINE
  5
4A9
330
21
100
AcDbEntity
  8
RUNDGANG
  6
Continuous
 62
     0
100
AcDbLine
 10
8.749999999999998
 20
32.5
 30
0.0
 11
13.75
 21
32.5
 31
0.0
  0
LINE
  5
4AA
330
21
100
AcDbEntity
  8
RUNDGANG
  6
Continuous
 62
     0
100
AcDbLine
 10
8.749999999999998
 20
33.50000000000001
 30
0.0
 11
43.74999999999999
 21
33.50000000000001
 31
0.0
  0
LINE
  5
4AB
330
21
100
AcDbEntity
  8
RUNDGANG
  6
Continuous
 62
     0
100
AcDbLine
 10
8.749999999999998
 20
34.5
 30
0.0
 11
43.74999999999999
 21
34.5
 31
0.0
  0
LINE
  5
4AC
330
21
100
AcDbEntity
  8
RUNDGANG
  6
Continuous
 62
     0
100
AcDbLine
 10
8.749999999999998
 20
35.5
 30
0.0
 11
13.75
 21
35.5
 31
0.0
  0
LINE
  5
4AD
330
21
100
AcDbEntity
  8
RUNDGANG
  6
Continuous
 62
     0
100
AcDbLine
 10
9.749999999999998
 20
35.5
 30
0.0
 11
9.750000000000005
 21
26.0
 31
0.0
  0
LINE
  5
4AE
330
21
100
AcDbEntity
  8
RUNDGANG
  6
Continuous
 62
     0
100
AcDbLine
 10
10.75
 20
35.5
 30
0.0
 11
10.75
 21
26.0
 31
0.0
  0
LINE
  5
4AF
330
21
100
AcDbEntity
  8
RUNDGANG
  6
Continuous
 62
     0
100
AcDbLine
 10
11.75
 20
35.5
 30
0.0
 11
11.75
 21
26.0
 31
0.0
  0
LINE
  5
4B0
330
21
100
AcDbEntity
  8
RUNDGANG
  6
Continuous
 62
     0
100
AcDbLine
 10
12.75
 20
35.5
 30
0.0
 11
12.75
 21
26.0
 31
0.0
  0
LINE
  5
4B1
330
21
100
AcDbEntity
  8
RUNDGANG
  6
Continuous
 62
     0
100
AcDbLine
 10
13.75
 20
35.5
 30
0.0
 11
13.75
 21
26.0
 31
0.0
  0
LINE
  5
4B2
330
21
100
AcDbEntity
  8
RUNDGANG
  6
Continuous
 62
     0
100
AcDbLine
 10
25.75000000000001
 20
32.5
 30
0.0
 11
30.75
 21
32.5
 31
0.0
  0
LINE
  5
4B3
330
21
100
AcDbEntity
  8
RUNDGANG
  6
Continuous
 62
     0
100
AcDbLine
 10
43.75
 20
32.5
 30
0.0
 11
41.25
 21
32.5
 31
0.0
  0
LINE
  5
4B4
330
21
100
AcDbEntity
  8
RUNDGANG
  6
Continuous
 62
     0
100
AcDbLine
 10
14.75
 20
35.5
 30
0.0
 11
14.75
 21
33.0
 31
0.0
  0
LINE
  5
4B5
330
21
100
AcDbEntity
  8
RUNDGANG
  6
Continuous
 62
     0
100
AcDbLine
 10
25.75000000000001
 20
35.5
 30
0.0
 11
25.75000000000001
 21
25.5
 31
0.0
  0
LINE
  5
4B6
330
21
100
AcDbEntity
  8
RUNDGANG
  6
Continuous
 62
     0
100
AcDbLine
 10
31.75000000000001
 20
35.5
 30
0.0
 11
31.75000000000001
 21
33.0
 31
0.0
  0
LINE
  5
4B7
330
21
100
AcDbEntity
  8
RUNDGANG
  6
Continuous
 62
     0
100
AcDbLine
 10
41.75000000000001
 20
35.5
 30
0.0
 11
41.75000000000001
 21
26.0
 31
0.0
  0
LINE
  5
4B8
330
21
100
AcDbEntity
  8
RUNDGANG
  6
Continuous
 62
     0
100
AcDbLine
 10
42.75000000000001
 20
35.5
 30
0.0
 11
42.75000000000001
 21
26.0
 31
0.0
  0
LINE
  5
4B9
330
21
100
AcDbEntity
  8
RUNDGANG
  6
Continuous
 62
     0
100
AcDbLine
 10
43.75
 20
35.5
 30
0.0
 11
43.75000000000001
 21
26.0
 31
0.0
  0
LINE
  5
4BA
330
21
100
AcDbEntity
  8
RUNDGANG
  6
Continuous
 62
     0
100
AcDbLine
 10
26.75000000000001
 20
35.5
 30
0.0
 11
26.75000000000001
 21
25.5
 31
0.0
  0
LINE
  5
4BB
330
21
100
AcDbEntity
  8
RUNDGANG
  6
Continuous
 62
     0
100
AcDbLine
 10
27.75
 20
35.5
 30
0.0
 11
27.75000000000001
 21
25.5
 31
0.0
  0
LINE
  5
4BC
330
21
100
AcDbEntity
  8
RUNDGANG
  6
Continuous
 62
     0
100
AcDbLine
 10
28.75
 20
35.5
 30
0.0
 11
28.75000000000001
 21
25.5
 31
0.0
  0
LINE
  5
4BD
330
21
100
AcDbEntity
  8
RUNDGANG
  6
Continuous
 62
     0
100
AcDbLine
 10
29.75000000000001
 20
35.5
 30
0.0
 11
29.75000000000001
 21
25.5
 31
0.0
  0
LINE
  5
4BE
330
21
100
AcDbEntity
  8
RUNDGANG
  6
Continuous
 62
     0
100
AcDbLine
 10
30.75
 20
35.5
 30
0.0
 11
30.75000000000001
 21
25.5
 31
0.0
  0
LINE
  5
4BF
330
21
100
AcDbEntity
  8
RUNDGANG
  6
Continuous
 62
     0
100
AcDbLine
 10
41.25
 20
33.0
 30
0.0
 11
41.25
 21
26.0
 31
0.0
  0
LINE
  5
4C0
330
21
100
AcDbEntity
  8
RUNDGANG
  6
Continuous
 62
     0
100
AcDbLine
 10
8.749999999999998
 20
31.5
 30
0.0
 11
13.75
 21
31.5
 31
0.0
  0
LINE
  5
4C1
330
21
100
AcDbEntity
  8
RUNDGANG
  6
Continuous
 62
     0
100
AcDbLine
 10
8.749999999999998
 20
30.5
 30
0.0
 11
13.75
 21
30.5
 31
0.0
  0
LINE
  5
4C2
330
21
100
AcDbEntity
  8
RUNDGANG
  6
Continuous
 62
     0
100
AcDbLine
 10
8.749999999999998
 20
29.50000000000001
 30
0.0
 11
13.75
 21
29.50000000000001
 31
0.0
  0
LINE
  5
4C3
330
21
100
AcDbEntity
  8
RUNDGANG
  6
Continuous
 62
     0
100
AcDbLine
 10
8.749999999999998
 20
28.50000000000001
 30
0.0
 11
13.75
 21
28.50000000000001
 31
0.0
  0
LINE
  5
4C4
330
21
100
AcDbEntity
  8
RUNDGANG
  6
Continuous
 62
     0
100
AcDbLine
 10
8.749999999999998
 20
27.5
 30
0.0
 11
13.75
 21
27.5
 31
0.0
  0
LINE
  5
4C5
330
21
100
AcDbEntity
  8
RUNDGANG
  6
Continuous
 62
     0
100
AcDbLine
 10
8.749999999999998
 20
26.5
 30
0.0
 11
13.75
 21
26.5
 31
0.0
  0
LINE
  5
4C6
330
21
100
AcDbEntity
  8
RUNDGANG
  6
Continuous
 62
     0
100
AcDbLine
 10
8.749999999999998
 20
26.0
 30
0.0
 11
13.75
 21
26.0
 31
0.0
  0
LINE
  5
4C7
330
21
100
AcDbEntity
  8
RUNDGANG
  6
Continuous
 62
     0
100
AcDbLine
 10
25.75000000000001
 20
31.5
 30
0.0
 11
30.75
 21
31.5
 31
0.0
  0
LINE
  5
4C8
330
21
100
AcDbEntity
  8
RUNDGANG
  6
Continuous
 62
     0
100
AcDbLine
 10
25.75000000000001
 20
30.5
 30
0.0
 11
30.75
 21
30.5
 31
0.0
  0
LINE
  5
4C9
330
21
100
AcDbEntity
  8
RUNDGANG
  6
Continuous
 62
     0
100
AcDbLine
 10
25.75000000000001
 20
29.50000000000001
 30
0.0
 11
30.75
 21
29.50000000000001
 31
0.0
  0
LINE
  5
4CA
330
21
100
AcDbEntity
  8
RUNDGANG
  6
Continuous
 62
     0
100
AcDbLine
 10
25.75000000000001
 20
28.50000000000001
 30
0.0
 11
30.75
 21
28.50000000000001
 31
0.0
  0
LINE
  5
4CB
330
21
100
AcDbEntity
  8
RUNDGANG
  6
Continuous
 62
     0
100
AcDbLine
 10
25.75000000000001
 20
27.5
 30
0.0
 11
30.75
 21
27.5
 31
0.0
  0
LINE
  5
4CC
330
21
100
AcDbEntity
  8
RUNDGANG
  6
Continuous
 62
     0
100
AcDbLine
 10
25.75000000000001
 20
26.5
 30
0.0
 11
30.75
 21
26.5
 31
0.0
  0
LINE
  5
4CD
330
21
100
AcDbEntity
  8
RUNDGANG
  6
Continuous
 62
     0
100
AcDbLine
 10
25.75000000000001
 20
25.50000000000001
 30
0.0
 11
30.75
 21
25.50000000000001
 31
0.0
  0
LINE
  5
4CE
330
21
100
AcDbEntity
  8
RUNDGANG
  6
Continuous
 62
     0
100
AcDbLine
 10
43.75
 20
31.5
 30
0.0
 11
41.25
 21
31.5
 31
0.0
  0
LINE
  5
4CF
330
21
100
AcDbEntity
  8
RUNDGANG
  6
Continuous
 62
     0
100
AcDbLine
 10
43.75
 20
30.5
 30
0.0
 11
41.25
 21
30.5
 31
0.0
  0
LINE
  5
4D0
330
21
100
AcDbEntity
  8
RUNDGANG
  6
Continuous
 62
     0
100
AcDbLine
 10
43.75
 20
29.50000000000001
 30
0.0
 11
41.25
 21
29.50000000000001
 31
0.0
  0
LINE
  5
4D1
330
21
100
AcDbEntity
  8
RUNDGANG
  6
Continuous
 62
     0
100
AcDbLine
 10
43.75
 20
28.50000000000001
 30
0.0
 11
41.25
 21
28.50000000000001
 31
0.0
  0
LINE
  5
4D2
330
21
100
AcDbEntity
  8
RUNDGANG
  6
Continuous
 62
     0
100
AcDbLine
 10
43.75
 20
27.5
 30
0.0
 11
41.25
 21
27.5
 31
0.0
  0
LINE
  5
4D3
330
21
100
AcDbEntity
  8
RUNDGANG
  6
Continuous
 62
     0
100
AcDbLine
 10
43.75
 20
26.5
 30
0.0
 11
41.25
 21
26.5
 31
0.0
  0
LINE
  5
4D4
330
21
100
AcDbEntity
  8
RUNDGANG
  6
Continuous
 62
     0
100
AcDbLine
 10
43.65
 20
26.0
 30
0.0
 11
41.15
 21
26.0
 31
0.0
  0
LINE
  5
4D5
330
21
100
AcDbEntity
  8
RUNDGANG
  6
Continuous
 62
     0
100
AcDbLine
 10
32.75000000000001
 20
35.5
 30
0.0
 11
32.75000000000001
 21
33.0
 31
0.0
  0
LINE
  5
4D6
330
21
100
AcDbEntity
  8
RUNDGANG
  6
Continuous
 62
     0
100
AcDbLine
 10
33.75000000000002
 20
35.5
 30
0.0
 11
33.75000000000002
 21
33.0
 31
0.0
  0
LINE
  5
4D7
330
21
100
AcDbEntity
  8
RUNDGANG
  6
Continuous
 62
     0
100
AcDbLine
 10
34.75000000000001
 20
35.5
 30
0.0
 11
34.75000000000001
 21
33.0
 31
0.0
  0
LINE
  5
4D8
330
21
100
AcDbEntity
  8
RUNDGANG
  6
Continuous
 62
     0
100
AcDbLine
 10
35.75000000000001
 20
35.5
 30
0.0
 11
35.75000000000001
 21
33.0
 31
0.0
  0
LINE
  5
4D9
330
21
100
AcDbEntity
  8
RUNDGANG
  6
Continuous
 62
     0
100
AcDbLine
 10
36.75000000000002
 20
35.5
 30
0.0
 11
36.75000000000002
 21
33.0
 31
0.0
  0
LINE
  5
4DA
330
21
100
AcDbEntity
  8
RUNDGANG
  6
Continuous
 62
     0
100
AcDbLine
 10
37.75000000000001
 20
35.5
 30
0.0
 11
37.75000000000001
 21
33.0
 31
0.0
  0
LINE
  5
4DB
330
21
100
AcDbEntity
  8
RUNDGANG
  6
Continuous
 62
     0
100
AcDbLine
 10
38.75000000000002
 20
35.5
 30
0.0
 11
38.75000000000002
 21
33.0
 31
0.0
  0
LINE
  5
4DC
330
21
100
AcDbEntity
  8
RUNDGANG
  6
Continuous
 62
     0
100
AcDbLine
 10
39.75000000000001
 20
35.5
 30
0.0
 11
39.75000000000001
 21
33.0
 31
0.0
  0
LINE
  5
4DD
330
21
100
AcDbEntity
  8
RUNDGANG
  6
Continuous
 62
     0
100
AcDbLine
 10
40.75000000000001
 20
35.5
 30
0.0
 11
40.75000000000001
 21
33.0
 31
0.0
  0
LINE
  5
4DE
330
21
100
AcDbEntity
  8
RUNDGANG
  6
Continuous
 62
     0
100
AcDbLine
 10
30.75
 20
33.0
 30
0.0
 11
41.25
 21
33.0
 31
0.0
  0
LINE
  5
4DF
330
21
100
AcDbEntity
  8
RUNDGANG
  6
Continuous
 62
     0
100
AcDbLine
 10
15.75
 20
35.5
 30
0.0
 11
15.75
 21
33.0
 31
0.0
  0
LINE
  5
4E0
330
21
100
AcDbEntity
  8
RUNDGANG
  6
Continuous
 62
     0
100
AcDbLine
 10
16.75
 20
35.5
 30
0.0
 11
16.75
 21
33.0
 31
0.0
  0
LINE
  5
4E1
330
21
100
AcDbEntity
  8
RUNDGANG
  6
Continuous
 62
     0
100
AcDbLine
 10
17.75
 20
35.5
 30
0.0
 11
17.75
 21
33.0
 31
0.0
  0
LINE
  5
4E2
330
21
100
AcDbEntity
  8
RUNDGANG
  6
Continuous
 62
     0
100
AcDbLine
 10
18.75
 20
35.5
 30
0.0
 11
18.75
 21
33.0
 31
0.0
  0
LINE
  5
4E3
330
21
100
AcDbEntity
  8
RUNDGANG
  6
Continuous
 62
     0
100
AcDbLine
 10
19.75
 20
35.5
 30
0.0
 11
19.75
 21
33.0
 31
0.0
  0
LINE
  5
4E4
330
21
100
AcDbEntity
  8
RUNDGANG
  6
Continuous
 62
     0
100
AcDbLine
 10
20.75
 20
35.5
 30
0.0
 11
20.75000000000001
 21
33.0
 31
0.0
  0
LINE
  5
4E5
330
21
100
AcDbEntity
  8
RUNDGANG
  6
Continuous
 62
     0
100
AcDbLine
 10
21.75
 20
35.5
 30
0.0
 11
21.75
 21
33.0
 31
0.0
  0
LINE
  5
4E6
330
21
100
AcDbEntity
  8
RUNDGANG
  6
Continuous
 62
     0
100
AcDbLine
 10
22.75
 20
35.5
 30
0.0
 11
22.75
 21
33.0
 31
0.0
  0
LINE
  5
4E7
330
21
100
AcDbEntity
  8
RUNDGANG
  6
Continuous
 62
     0
100
AcDbLine
 10
23.75
 20
35.5
 30
0.0
 11
23.75
 21
33.0
 31
0.0
  0
LINE
  5
4E8
330
21
100
AcDbEntity
  8
RUNDGANG
  6
Continuous
 62
     0
100
AcDbLine
 10
24.75
 20
35.5
 30
0.0
 11
24.75
 21
33.0
 31
0.0
  0
LINE
  5
4E9
330
21
100
AcDbEntity
  8
RUNDGANG
  6
Continuous
 62
     0
100
AcDbLine
 10
13.75
 20
33.0
 30
0.0
 11
25.75
 21
33.0
 31
0.0
  0
LINE
  5
4EA
330
21
100
AcDbEntity
  8
STANDZUTEILUNG
  6
Continuous
 62
     0
100
AcDbLine
 10
15.75
 20
35.5
 30
0.0
 11
15.75
 21
33.0
 31
0.0
  0
LINE
  5
4EB
330
21
100
AcDbEntity
  8
STANDZUTEILUNG
  6
Continuous
 62
     0
100
AcDbLine
 10
22.75
 20
35.5
 30
0.0
 11
22.75
 21
33.0
 31
0.0
  0
LINE
  5
4EC
330
21
100
AcDbEntity
  8
STANDZUTEILUNG
  6
Continuous
 62
     0
100
AcDbLine
 10
33.75
 20
33.0
 30
0.0
 11
33.75
 21
35.5
 31
0.0
  0
LINE
  5
4ED
330
21
100
AcDbEntity
  8
STANDZUTEILUNG
  6
Continuous
 62
     0
100
AcDbLine
 10
38.75
 20
35.5
 30
0.0
 11
38.75
 21
33.0
 31
0.0
  0
LINE
  5
4EE
330
21
100
AcDbEntity
  8
STANDZUTEILUNG
  6
Continuous
 62
     0
100
AcDbLine
 10
43.75
 20
30.0
 30
0.0
 11
41.25
 21
30.0
 31
0.0
  0
LINE
  5
4EF
330
21
100
AcDbEntity
  8
STANDZUTEILUNG
  6
Continuous
 62
     0
100
AcDbLine
 10
69.0
 20
28.25
 30
0.0
 11
67.0
 21
28.25
 31
0.0
  0
LINE
  5
4F0
330
21
100
AcDbEntity
  8
STANDZUTEILUNG
  6
Continuous
 62
     0
100
AcDbLine
 10
20.0
 20
30.0
 30
0.0
 11
20.0
 21
20.0
 31
0.0
  0
TEXT
  5
4F2
330
21
100
AcDbEntity
  8
BESCHRIFTUNG
  6
Continuous
 62
     0
100
AcDbText
 10
66.92531952570444
 20
33.07538331644813
 30
0.0
 40
0.5000000000000002
  1
Ruwex
  7
ARIAL
 72
     1
 11
67.99285022147524
 21
33.07538331644813
 31
0.0
100
AcDbText
  0
TEXT
  5
4F4
330
21
100
AcDbEntity
  8
BESCHRIFTUNG
  6
Continuous
 62
     0
100
AcDbText
 10
67.9941208154913
 20
32.32538331644812
 30
0.0
 40
0.5000000000000002
  1
AG
  7
ARIAL
 72
     1
 11
68.49821358493196
 21
32.32538331644812
 31
0.0
100
AcDbText
  0
TEXT
  5
4F5
330
21
100
AcDbEntity
  8
BESCHRIFTUNG
  6
Continuous
 62
     0
100
AcDbText
 10
67.11006606950654
 20
31.57538331644812
 30
0.0
 40
0.5000000000000002
  1
Räter-
  7
ARIAL
 72
     1
 11
68.0803934910618
 21
31.57538331644812
 31
0.0
100
AcDbText
  0
TEXT
  5
4F6
330
21
100
AcDbEntity
  8
BESCHRIFTUNG
  6
Continuous
 62
     0
100
AcDbText
 10
67.1826918376525
 20
30.82538331644812
 30
0.0
 40
0.5000000000000002
  1
schen
  7
ARIAL
 72
     1
 11
68.11464954570161
 21
30.82538331644812
 31
0.0
100
AcDbText
  0
TEXT
  5
4F7
330
21
100
AcDbEntity
  8
BESCHRIFTUNG
  6
Continuous
 62
     0
100
AcDbText
 10
60.64536280444244
 20
33.62046829548422
 30
0.0
 40
0.5000000000000002
  1
G. Neuen-
  7
ARIAL
 72
     1
 11
62.25654970758023
 21
33.62046829548422
 31
0.0
100
AcDbText
  0
TEXT
  5
4F8
330
21
100
AcDbEntity
  8
BESCHRIFTUNG
  6
Continuous
 62
     0
100
AcDbText
 10
60.49292908139177
 20
32.87046829548422
 30
0.0
 40
0.5000000000000002
  1
schwander
  7
ARIAL
 72
     1
 11
62.18665350158277
 21
32.87046829548422
 31
0.0
100
AcDbText
  0
TEXT
  5
4F9
330
21
100
AcDbEntity
  8
BESCHRIFTUNG
  6
Continuous
 62
     0
100
AcDbText
 10
60.66180376465825
 20
32.12046829548421
 30
0.0
 40
0.5000000000000002
  1
Söhne AG
  7
ARIAL
 72
     1
 11
62.2733317319161
 21
32.12046829548421
 31
0.0
100
AcDbText
  0
TEXT
  5
4FA
330
21
100
AcDbEntity
  8
BESCHRIFTUNG
  6
Continuous
 62
     0
100
AcDbText
 10
62.00879709733642
 20
31.37046829548421
 30
0.0
 40
0.5000000000000002
  1
Ober-
  7
ARIAL
 72
     1
 11
62.90153243157925
 21
31.37046829548421
 31
0.0
100
AcDbText
  0
TEXT
  5
4FB
330
21
100
AcDbEntity
  8
BESCHRIFTUNG
  6
Continuous
 62
     0
100
AcDbText
 10
60.7183321076544
 20
30.62046829548421
 30
0.0
 40
0.5000000000000002
  1
diessbach
  7
ARIAL
 72
     1
 11
62.29097876522603
 21
30.62046829548421
 31
0.0
100
AcDbText
  0
TEXT
  5
4FC
330
21
100
AcDbEntity
  8
BESCHRIFTUNG
  6
Continuous
 62
     0
100
AcDbText
 10
56.23531869739752
 20
25.38696122001679
 30
0.0
 40
0.5000000000000002
  1
Brevag AG
  7
ARIAL
 72
     1
 11
57.94353834269085
 21
25.38696122001679
 31
0.0
100
AcDbText
  0
TEXT
  5
4FD
330
21
100
AcDbEntity
  8
BESCHRIFTUNG
  6
Continuous
 62
     0
100
AcDbText
 10
55.67155608813943
 20
24.63696122001679
 30
0.0
 40
0.5000000000000002
  1
Gwatt / Thun
  7
ARIAL
 72
     1
 11
57.67087395989932
 21
24.63696122001679
 31
0.0
100
AcDbText
  0
TEXT
  5
4FE
330
21
100
AcDbEntity
  8
BESCHRIFTUNG
  6
Continuous
 62
     0
100
AcDbText
 10
63.81858096842123
 20
25.30774110739446
 30
0.0
 40
0.5000000000000002
  1
Rückenzentrum
  7
ARIAL
 72
     1
 11
66.26435177333256
 21
25.30774110739446
 31
0.0
100
AcDbText
  0
TEXT
  5
4FF
330
21
100
AcDbEntity
  8
BESCHRIFTUNG
  6
Continuous
 62
     0
100
AcDbText
 10
67.06002113270854
 20
24.55774110739446
 30
0.0
 40
0.5000000000000002
  1
Bern
  7
ARIAL
 72
     1
 11
67.79774282438657
 21
24.55774110739446
 31
0.0
100
AcDbText
  0
TEXT
  5
500
330
21
100
AcDbEntity
  8
BESCHRIFTUNG
  6
Continuous
 62
     0
100
AcDbText
 10
56.19924393909386
 20
34.54149634161388
 30
0.0
 40
0.5000000000000002
  1
AVAG
  7
ARIAL
 72
     1
 11
57.16923029652905
 21
34.54149634161388
 31
0.0
100
AcDbText
  0
TEXT
  5
501
330
21
100
AcDbEntity
  8
BESCHRIFTUNG
  6
Continuous
 62
     0
100
AcDbText
 10
55.89533432133736
 20
33.79149634161388
 30
0.0
 40
0.5000000000000002
  1
AG für 
  7
ARIAL
 72
     1
 11
57.00106419855427
 21
33.79149634161388
 31
0.0
100
AcDbText
  0
TEXT
  5
502
330
21
100
AcDbEntity
  8
BESCHRIFTUNG
  6
Continuous
 62
     0
100
AcDbText
 10
53.05789216977741
 20
33.04149634161387
 30
0.0
 40
0.5000000000000002
  1
Abfallverwertung
  7
ARIAL
 72
     1
 11
55.65867661725354
 21
33.04149634161387
 31
0.0
100
AcDbText
  0
TEXT
  5
503
330
21
100
AcDbEntity
  8
BESCHRIFTUNG
  6
Continuous
 62
     0
100
AcDbText
 10
55.96744848119157
 20
32.29149634161387
 30
0.0
 40
0.5000000000000002
  1
Jaberg
  7
ARIAL
 72
     1
 11
57.03532024108243
 21
32.29149634161387
 31
0.0
100
AcDbText
  0
TEXT
  5
504
330
21
100
AcDbEntity
  8
BESCHRIFTUNG
  6
Continuous
 62
     0
100
AcDbText
 10
50.02847785134437
 20
26.75831572049056
 30
0.0
 40
0.5000000000000002
  1
Saro-
  7
ARIAL
 72
     1
 11
50.88250240796101
 21
26.75831572049056
 31
0.0
100
AcDbText
  0
TEXT
  5
505
330
21
100
AcDbEntity
  8
BESCHRIFTUNG
  6
Continuous
 62
     0
100
AcDbText
 10
50.21270534373772
 20
26.00831572049056
 30
0.0
 40
0.5000000000000002
  1
Gem
  7
ARIAL
 72
     1
 11
50.96952662613881
 21
26.00831572049056
 31
0.0
100
AcDbText
  0
TEXT
  5
506
330
21
100
AcDbEntity
  8
BESCHRIFTUNG
  6
Continuous
 62
     0
100
AcDbText
 10
49.25430216999423
 20
25.25831572049056
 30
0.0
 40
0.5000000000000002
  1
Bettlach
  7
ARIAL
 72
     1
 11
50.51623941419613
 21
25.25831572049056
 31
0.0
100
AcDbText
  0
TEXT
  5
507
330
21
100
AcDbEntity
  8
BESCHRIFTUNG
  6
Continuous
 62
     0
100
AcDbText
 10
46.55281561904316
 20
33.58088782501966
 30
0.0
 40
0.5000000000000002
  1
Thermofonte AG
  7
ARIAL
 72
     1
 11
49.13450047579623
 21
33.58088782501966
 31
0.0
100
AcDbText
  0
TEXT
  5
508
330
21
100
AcDbEntity
  8
BESCHRIFTUNG
  6
Continuous
 62
     0
100
AcDbText
 10
49.74072460345733
 20
32.83088782501966
 30
0.0
 40
0.5000000000000002
  1
Flawil
  7
ARIAL
 72
     1
 11
50.63328940564014
 21
32.83088782501966
 31
0.0
100
AcDbText
  0
TEXT
  5
509
330
21
100
AcDbEntity
  8
BESCHRIFTUNG
  6
Continuous
 62
     0
100
AcDbText
 10
40.69662346521146
 20
28.0
 30
0.0
 40
0.5000000000000002
  1
La Tienda
  7
ARIAL
 72
     1
 11
42.25
 21
28.0
 31
0.0
100
AcDbText
  0
TEXT
  5
50A
330
21
100
AcDbEntity
  8
BESCHRIFTUNG
  6
Continuous
 62
     0
100
AcDbText
 10
41.45383667610274
 20
27.25
 30
0.0
 40
0.5000000000000002
  1
Adlikon
  7
ARIAL
 72
     1
 11
42.59878892712593
 21
27.25
 31
0.0
100
AcDbText
  0
TEXT
  5
50B
330
21
100
AcDbEntity
  8
BESCHRIFTUNG
  6
Continuous
 62
     0
100
AcDbText
 10
38.28939776138445
 20
22.13780921551716
 30
0.0
 40
0.5000000000000002
  1
Graffiti GmbH
  7
ARIAL
 72
     1
 11
40.42394755674598
 21
22.13780921551716
 31
0.0
100
AcDbText
  0
TEXT
  5
50C
330
21
100
AcDbEntity
  8
BESCHRIFTUNG
  6
Continuous
 62
     0
100
AcDbText
 10
40.60260697105401
 20
21.38780921551715
 30
0.0
 40
0.5000000000000002
  1
Nidau
  7
ARIAL
 72
     1
 11
41.51512402426002
 21
21.38780921551715
 31
0.0
100
AcDbText
  0
TEXT
  5
50D
330
21
100
AcDbEntity
  8
BESCHRIFTUNG
  6
Continuous
 62
     0
100
AcDbText
 10
35.13938588503526
 20
28.09560923015278
 30
0.0
 40
0.5000000000000002
  1
Tuck Box
  7
ARIAL
 72
     1
 11
36.59504754942817
 21
28.09560923015278
 31
0.0
100
AcDbText
  0
TEXT
  5
50E
330
21
100
AcDbEntity
  8
BESCHRIFTUNG
  6
Continuous
 62
     0
100
AcDbText
 10
36.30596786902211
 20
27.34560923015277
 30
0.0
 40
0.5000000000000002
  1
OIlon
  7
ARIAL
 72
     1
 11
37.14072230285567
 21
27.34560923015277
 31
0.0
100
AcDbText
  0
TEXT
  5
50F
330
21
100
AcDbEntity
  8
BESCHRIFTUNG
  6
Continuous
 62
     0
100
AcDbText
 10
28.91807445380422
 20
34.6515473911045
 30
0.0
 40
0.5000000000000002
  1
Wollkarderei
  7
ARIAL
 72
     1
 11
30.85889982897475
 21
34.6515473911045
 31
0.0
100
AcDbText
  0
TEXT
  5
510
330
21
100
AcDbEntity
  8
BESCHRIFTUNG
  6
Continuous
 62
     0
100
AcDbText
 10
27.5118431252707
 20
33.9015473911045
 30
0.0
 40
0.5000000000000002
  1
Brechbühl GmbH
  7
ARIAL
 72
     1
 11
30.1905607241793
 21
33.9015473911045
 31
0.0
100
AcDbText
  0
TEXT
  5
511
330
21
100
AcDbEntity
  8
BESCHRIFTUNG
  6
Continuous
 62
     0
100
AcDbText
 10
29.1688773269603
 20
33.15154739110449
 30
0.0
 40
0.5000000000000002
  1
Guggisberg
  7
ARIAL
 72
     1
 11
30.97447077852919
 21
33.15154739110449
 31
0.0
100
AcDbText
  0
TEXT
  5
512
330
21
100
AcDbEntity
  8
BESCHRIFTUNG
  6
Continuous
 62
     0
100
AcDbText
 10
33.53958893943237
 20
34.55412720815534
 30
0.0
 40
0.5000000000000002
  1
Joho Schreinerei
  7
ARIAL
 72
     1
 11
36.16049616999172
 21
34.55412720815534
 31
0.0
100
AcDbText
  0
TEXT
  5
513
330
21
100
AcDbEntity
  8
BESCHRIFTUNG
  6
Continuous
 62
     0
100
AcDbText
 10
35.01342378298069
 20
33.80412720815534
 30
0.0
 40
0.5000000000000002
  1
Brenzikofen
  7
ARIAL
 72
     1
 11
36.85772801217578
 21
33.80412720815534
 31
0.0
100
AcDbText
  0
TEXT
  5
514
330
21
100
AcDbEntity
  8
BESCHRIFTUNG
  6
Continuous
 62
     0
100
AcDbText
 10
29.36282905917569
 20
28.64818904720363
 30
0.0
 40
0.5000000000000002
  1
Stars
  7
ARIAL
 72
     1
 11
30.17797230610611
 21
28.64818904720363
 31
0.0
100
AcDbText
  0
TEXT
  5
515
330
21
100
AcDbEntity
  8
BESCHRIFTUNG
  6
Continuous
 62
     0
100
AcDbText
 10
28.14739463760418
 20
27.89818904720362
 30
0.0
 40
0.5000000000000002
  1
Cosmetic
  7
ARIAL
 72
     1
 11
29.60288576993706
 21
27.89818904720362
 31
0.0
100
AcDbText
  0
TEXT
  5
516
330
21
100
AcDbEntity
  8
BESCHRIFTUNG
  6
Continuous
 62
     0
100
AcDbText
 10
28.81585095731107
 20
27.14818904720362
 30
0.0
 40
0.5000000000000002
  1
Schaff-
  7
ARIAL
 72
     1
 11
29.9222629627681
 21
27.14818904720362
 31
0.0
100
AcDbText
  0
TEXT
  5
517
330
21
100
AcDbEntity
  8
BESCHRIFTUNG
  6
Continuous
 62
     0
100
AcDbText
 10
28.73510855865646
 20
26.39818904720362
 30
0.0
 40
0.5000000000000002
  1
hausen
  7
ARIAL
 72
     1
 11
29.88091346997979
 21
26.39818904720362
 31
0.0
100
AcDbText
  0
TEXT
  5
518
330
21
100
AcDbEntity
  8
BESCHRIFTUNG
  6
Continuous
 62
     0
100
AcDbText
 10
20.05449917427174
 20
22.08010004610615
 30
0.0
 40
0.5000000000000002
  1
Portas Fachbetrieb
  7
ARIAL
 72
     1
 11
23.00521540892386
 21
22.08010004610615
 31
0.0
100
AcDbText
  0
TEXT
  5
519
330
21
100
AcDbEntity
  8
BESCHRIFTUNG
  6
Continuous
 62
     0
100
AcDbText
 10
20.68041864041994
 20
21.33010004610615
 30
0.0
 40
0.5000000000000002
  1
W. Willimann AG
  7
ARIAL
 72
     1
 11
23.31940226934218
 21
21.33010004610615
 31
0.0
100
AcDbText
  0
TEXT
  5
51A
330
21
100
AcDbEntity
  8
BESCHRIFTUNG
  6
Continuous
 62
     0
100
AcDbText
 10
22.73131460867102
 20
20.58010004610615
 30
0.0
 40
0.5000000000000002
  1
Uetendorf
  7
ARIAL
 72
     1
 11
24.27718773281836
 21
20.58010004610615
 31
0.0
100
AcDbText
  0
TEXT
  5
51B
330
21
100
AcDbEntity
  8
BESCHRIFTUNG
  6
Continuous
 62
     0
100
AcDbText
 10
22.76363157957113
 20
34.57114188799432
 30
0.0
 40
0.5000000000000002
  1
Naturwollprodukte
  7
ARIAL
 72
     1
 11
25.5784337623815
 21
34.57114188799432
 31
0.0
100
AcDbText
  0
TEXT
  5
51C
330
21
100
AcDbEntity
  8
BESCHRIFTUNG
  6
Continuous
 62
     0
100
AcDbText
 10
24.05732272990517
 20
33.82114188799433
 30
0.0
 40
0.5000000000000002
  1
P. Ming & Co.
  7
ARIAL
 72
     1
 11
26.21182477628989
 21
33.82114188799433
 31
0.0
100
AcDbText
  0
TEXT
  5
51D
330
21
100
AcDbEntity
  8
BESCHRIFTUNG
  6
Continuous
 62
     0
100
AcDbText
 10
26.33781566381373
 20
33.07114188799432
 30
0.0
 40
0.5000000000000002
  1
Giswil
  7
ARIAL
 72
     1
 11
27.26909124362273
 21
33.07114188799432
 31
0.0
100
AcDbText
  0
TEXT
  5
51E
330
21
100
AcDbEntity
  8
BESCHRIFTUNG
  6
Continuous
 62
     0
100
AcDbText
 10
9.686572081875514
 20
28.62176488096319
 30
0.0
 40
0.5000000000000002
  1
Dormisan 
  7
ARIAL
 72
     1
 11
11.27797726605014
 21
28.62176488096319
 31
0.0
100
AcDbText
  0
TEXT
  5
51F
330
21
100
AcDbEntity
  8
BESCHRIFTUNG
  6
Continuous
 62
     0
100
AcDbText
 10
10.79160344551173
 20
27.87176488096319
 30
0.0
 40
0.5000000000000002
  1
GmbH
  7
ARIAL
 72
     1
 11
11.80064164469317
 21
27.87176488096319
 31
0.0
100
AcDbText
  0
TEXT
  5
520
330
21
100
AcDbEntity
  8
BESCHRIFTUNG
  6
Continuous
 62
     0
100
AcDbText
 10
9.464053238622623
 20
27.12176488096319
 30
0.0
 40
0.5000000000000002
  1
Münsingen
  7
ARIAL
 72
     1
 11
11.17261394803599
 21
27.12176488096319
 31
0.0
100
AcDbText
  0
TEXT
  5
521
330
21
100
AcDbEntity
  8
BESCHRIFTUNG
  6
Continuous
 62
     0
100
AcDbText
 10
17.28956858145159
 20
34.64690977676127
 30
0.0
 40
0.5000000000000002
  1
Lachs-Bar
  7
ARIAL
 72
     1
 11
18.88608972742703
 21
34.64690977676127
 31
0.0
100
AcDbText
  0
TEXT
  5
522
330
21
100
AcDbEntity
  8
BESCHRIFTUNG
  6
Continuous
 62
     0
100
AcDbText
 10
17.40422748565888
 20
33.89690977676127
 30
0.0
 40
0.5000000000000002
  1
Fankhaus
  7
ARIAL
 72
     1
 11
18.93799283354428
 21
33.89690977676127
 31
0.0
100
AcDbText
  0
TEXT
  5
523
330
21
100
AcDbEntity
  8
BESCHRIFTUNG
  6
Continuous
 62
     0
100
AcDbText
 10
11.31857281612794
 20
34.63711252831636
 30
0.0
 40
0.5000000000000002
  1
Mineral- und
  7
ARIAL
 72
     1
 11
13.25973925541853
 21
34.63711252831636
 31
0.0
100
AcDbText
  0
TEXT
  5
524
330
21
100
AcDbEntity
  8
BESCHRIFTUNG
  6
Continuous
 62
     0
100
AcDbText
 10
10.59826687149003
 20
33.88711252831637
 30
0.0
 40
0.5000000000000002
  1
Heilquellen AG
  7
ARIAL
 72
     1
 11
12.92790534352278
 21
33.88711252831637
 31
0.0
100
AcDbText
  0
TEXT
  5
525
330
21
100
AcDbEntity
  8
BESCHRIFTUNG
  6
Continuous
 62
     0
100
AcDbText
 10
11.83313944667954
 20
33.13711252831636
 30
0.0
 40
0.5000000000000002
  1
Adelboden
  7
ARIAL
 72
     1
 11
13.50281884640669
 21
33.13711252831636
 31
0.0
100
AcDbText
  0
TEXT
  5
526
330
21
100
AcDbEntity
  8
BESCHRIFTUNG
  6
Continuous
 62
     0
100
AcDbText
 10
8.595402264105826
 20
34.57996510245979
 30
0.0
 40
0.5000000000000002
  1
Turbo-
  7
ARIAL
 72
     1
 11
9.624051650190411
 21
34.57996510245979
 31
0.0
100
AcDbText
  0
TEXT
  5
527
330
21
100
AcDbEntity
  8
BESCHRIFTUNG
  6
Continuous
 62
     0
100
AcDbText
 10
7.950551728137671
 20
33.82996510245979
 30
0.0
 40
0.5000000000000002
  1
Klebstoff
  7
ARIAL
 72
     1
 11
9.321629490757045
 21
33.82996510245979
 31
0.0
100
AcDbText
  0
TEXT
  5
528
330
21
100
AcDbEntity
  8
BESCHRIFTUNG
  6
Continuous
 62
     0
100
AcDbText
 10
8.249782143816673
 20
33.07996510245979
 30
0.0
 40
0.5000000000000002
  1
Technik
  7
ARIAL
 72
     1
 11
9.472667546272335
 21
33.07996510245979
 31
0.0
100
AcDbText
  0
TEXT
  5
529
330
21
100
AcDbEntity
  8
BESCHRIFTUNG
  6
Continuous
 62
     0
100
AcDbText
 10
8.620722780327964
 20
32.32996510245978
 30
0.0
 40
0.5000000000000002
  1
GmbH
  7
ARIAL
 72
     1
 11
9.629760979509411
 21
32.32996510245978
 31
0.0
100
AcDbText
  0
TEXT
  5
52A
330
21
100
AcDbEntity
  8
BESCHRIFTUNG
  6
Continuous
 62
     0
100
AcDbText
 10
8.435808205690934
 20
31.57996510245978
 30
0.0
 40
0.5000000000000002
  1
Bazen-
  7
ARIAL
 72
     1
 11
9.542390743207988
 21
31.57996510245978
 31
0.0
100
AcDbText
  0
TEXT
  5
52B
330
21
100
AcDbEntity
  8
BESCHRIFTUNG
  6
Continuous
 62
     0
100
AcDbText
 10
9.282609637019538
 20
30.82996510245978
 30
0.0
 40
0.5000000000000002
  1
heid
  7
ARIAL
 72
     1
 11
9.942909773445187
 21
30.82996510245978
 31
0.0
100
AcDbText
  0
TEXT
  5
52C
330
21
100
AcDbEntity
  8
BESCHRIFTUNG
  6
Continuous
 62
     0
100
AcDbText
 10
9.282131598390586
 20
22.12973650346537
 30
0.0
 40
0.5000000000000002
  1
Wasner AG
  7
ARIAL
 72
     1
 11
11.08704292171937
 21
22.12973650346537
 31
0.0
100
AcDbText
  0
TEXT
  5
52D
330
21
100
AcDbEntity
  8
BESCHRIFTUNG
  6
Continuous
 62
     0
100
AcDbText
 10
11.16764285524703
 20
21.37973650346538
 30
0.0
 40
0.5000000000000002
  1
Thun
  7
ARIAL
 72
     1
 11
11.9636865114544
 21
21.37973650346538
 31
0.0
100
AcDbText
  0
TEXT
  5
52E
330
21
100
AcDbEntity
  8
BESCHRIFTUNG
  6
Continuous
 62
     0
100
AcDbText
 10
14.41044381489035
 20
22.12925195019765
 30
0.0
 40
0.5000000000000002
  1
Lüthi Fritz AG
  7
ARIAL
 72
     1
 11
16.54533467437193
 21
22.12925195019765
 31
0.0
100
AcDbText
  0
TEXT
  5
52F
330
21
100
AcDbEntity
  8
BESCHRIFTUNG
  6
Continuous
 62
     0
100
AcDbText
 10
16.93372009064
 20
21.37925195019766
 30
0.0
 40
0.5000000000000002
  1
Thun
  7
ARIAL
 72
     1
 11
17.72976374684737
 21
21.37925195019766
 31
0.0
100
AcDbText
  0
TEXT
  5
530
330
21
100
AcDbEntity
  8
BESCHRIFTUNG
  6
Continuous
 62
     0
100
AcDbText
 10
4.722151035107022
 20
22.12304109182979
 30
0.0
 40
0.5000000000000002
  1
Hans-Otto's
  7
ARIAL
 72
     1
 11
6.555029616280283
 21
22.12304109182979
 31
0.0
100
AcDbText
  0
TEXT
  5
531
330
21
100
AcDbEntity
  8
BESCHRIFTUNG
  6
Continuous
 62
     0
100
AcDbText
 10
4.700344776762242
 20
21.37304109182979
 30
0.0
 40
0.5000000000000002
  1
Bazar-Shop
  7
ARIAL
 72
     1
 11
6.544649005957332
 21
21.37304109182979
 31
0.0
100
AcDbText
  0
TEXT
  5
532
330
21
100
AcDbEntity
  8
BESCHRIFTUNG
  6
Continuous
 62
     0
100
AcDbText
 10
6.689608813113611
 20
20.62304109182979
 30
0.0
 40
0.5000000000000002
  1
Thun
  7
ARIAL
 72
     1
 11
7.485652469320979
 21
20.62304109182979
 31
0.0
100
AcDbText
  0
TEXT
  5
533
330
21
100
AcDbEntity
  8
BESCHRIFTUNG
  6
Continuous
 62
     0
100
AcDbText
 10
4.378028750544006
 20
29.11898606072812
 30
0.0
 40
0.5000000000000002
  1
Zurli
  7
ARIAL
 72
     1
 11
5.057087413572655
 21
29.11898606072812
 31
0.0
100
AcDbText
  0
TEXT
  5
534
330
21
100
AcDbEntity
  8
BESCHRIFTUNG
  6
Continuous
 62
     0
100
AcDbText
 10
3.23487903905423
 20
28.36898606072811
 30
0.0
 40
0.5000000000000002
  1
Handels
  7
ARIAL
 72
     1
 11
4.516256938099251
 21
28.36898606072811
 31
0.0
100
AcDbText
  0
TEXT
  5
535
330
21
100
AcDbEntity
  8
BESCHRIFTUNG
  6
Continuous
 62
     0
100
AcDbText
 10
3.751682420567967
 20
27.61898606072811
 30
0.0
 40
0.5000000000000002
  1
GmbH
  7
ARIAL
 72
     1
 11
4.760720619749414
 21
27.61898606072811
 31
0.0
100
AcDbText
  0
TEXT
  5
536
330
21
100
AcDbEntity
  8
BESCHRIFTUNG
  6
Continuous
 62
     0
100
AcDbText
 10
3.492765424184171
 20
26.86898606072811
 30
0.0
 40
0.5000000000000002
  1
Bellach
  7
ARIAL
 72
     1
 11
4.638229271387446
 21
26.86898606072811
 31
0.0
100
AcDbText
  0
TEXT
  5
537
330
21
100
AcDbEntity
  8
BESCHRIFTUNG
  6
Continuous
 62
     0
100
AcDbText
 10
4.130203125408833
 20
34.42147045580037
 30
0.0
 40
0.5000000000000002
  1
Pudol
  7
ARIAL
 72
     1
 11
5.023450055831752
 21
34.42147045580037
 31
0.0
100
AcDbText
  0
TEXT
  5
538
330
21
100
AcDbEntity
  8
BESCHRIFTUNG
  6
Continuous
 62
     0
100
AcDbText
 10
3.541458574935204
 20
33.67147045580036
 30
0.0
 40
0.5000000000000002
  1
Chemie
  7
ARIAL
 72
     1
 11
4.744903322547756
 21
33.67147045580036
 31
0.0
100
AcDbText
  0
TEXT
  5
539
330
21
100
AcDbEntity
  8
BESCHRIFTUNG
  6
Continuous
 62
     0
100
AcDbText
 10
4.868319240746338
 20
32.92147045580036
 30
0.0
 40
0.5000000000000002
  1
AG
  7
ARIAL
 72
     1
 11
5.372412010186994
 21
32.92147045580036
 31
0.0
100
AcDbText
  0
TEXT
  5
53A
330
21
100
AcDbEntity
  8
BESCHRIFTUNG
  6
Continuous
 62
     0
100
AcDbText
 10
3.73174393416379
 20
32.17147045580036
 30
0.0
 40
0.5000000000000002
  1
Schaff-
  7
ARIAL
 72
     1
 11
4.838155939620817
 21
32.17147045580036
 31
0.0
100
AcDbText
  0
TEXT
  5
53B
330
21
100
AcDbEntity
  8
BESCHRIFTUNG
  6
Continuous
 62
     0
100
AcDbText
 10
3.651001535509174
 20
31.42147045580035
 30
0.0
 40
0.5000000000000002
  1
hausen
  7
ARIAL
 72
     1
 11
4.796806446832503
 21
31.42147045580035
 31
0.0
100
AcDbText
  0
TEXT
  5
53C
330
21
100
AcDbEntity
  8
BESCHRIFTUNG
  6
Continuous
 62
     0
100
AcDbText
 10
65.16377659706764
 20
35.03693568935786
 30
0.0
 40
0.5000000000000002
  1
NA
  7
ARIAL
 72
     2
 11
66.13512721098306
 21
35.03693568935786
 31
0.0
100
AcDbText
  0
TEXT
  5
53D
330
21
100
AcDbEntity
  8
BESCHRIFTUNG
  6
Continuous
 62
     0
100
AcDbText
 10
44.08924786261287
 20
23.4940033728005
 30
0.0
 40
0.5000000000000002
  1
NA
  7
ARIAL
 72
     2
 11
45.06059847652828
 21
23.4940033728005
 31
0.0
100
AcDbText
  0
TEXT
  5
53E
330
21
100
AcDbEntity
  8
BESCHRIFTUNG
  6
Continuous
 62
     0
100
AcDbText
 10
6.404860208579013
 20
35.49138474310108
 30
0.0
 40
0.5000000000000002
  1
NA
  7
ARIAL
 72
     2
 11
7.37621082249443
 21
35.49138474310108
 31
0.0
100
AcDbText
  0
TEXT
  5
540
102
{ACAD_REACTORS
330
53F
102
}
330
21
100
AcDbEntity
  8
BESCHRIFTUNG
  6
Continuous
100
AcDbText
 10
65.92762002353416
 20
31.59711091526286
 30
0.0
 40
0.5000000000000002
  1
Rundgang
 50
90.00000000000005
  7
ARIAL
 72
     1
 11
65.92762002353416
 21
33.20897994664076
 31
0.0
100
AcDbText
  0
LWPOLYLINE
  5
541
102
{ACAD_REACTORS
330
53F
102
}
330
21
100
AcDbEntity
  8
BESCHRIFTUNG
  6
Continuous
 62
     7
100
AcDbPolyline
 90
        7
 70
     1
 43
0.0
 10
64.92126757083117
 20
31.80809924766919
 10
65.31962354380365
 20
31.80809924766917
 10
65.31962354380367
 20
34.74937986625181
 10
66.16612998637023
 20
34.74937986625181
 10
66.16612998637022
 20
31.80809924766917
 10
66.56448595934275
 20
31.80809924766919
 10
65.71797951677618
 20
30.82767237480832
  0
TEXT
  5
543
102
{ACAD_REACTORS
330
542
102
}
330
21
100
AcDbEntity
  8
BESCHRIFTUNG
  6
Continuous
100
AcDbText
 10
7.665485987023425
 20
29.51797915028643
 30
0.0
 40
0.5000000000000002
  1
Rundgang
 50
90.00000000000005
  7
ARIAL
 72
     1
 11
7.665485987023423
 21
31.12984818166433
 31
0.0
100
AcDbText
  0
LWPOLYLINE
  5
544
102
{ACAD_REACTORS
330
542
102
}
330
21
100
AcDbEntity
  8
BESCHRIFTUNG
  6
Continuous
 62
     7
100
AcDbPolyline
 90
        7
 70
     1
 43
0.0
 10
6.670540347887325
 20
32.63922653747382
 10
7.068896320859828
 20
32.63922653747382
 10
7.068896320859828
 20
29.56422653747381
 10
7.915402763426396
 20
29.56422653747381
 10
7.915402763426396
 20
32.63922653747382
 10
8.313758736398909
 20
32.63922653747382
 10
7.46725229383233
 20
33.66422653747381
  0
TEXT
  5
545
330
21
100
AcDbEntity
  8
BESCHRIFTUNG
  6
Continuous
100
AcDbText
 10
63.80303916390835
 20
37.2504545479353
 30
0.0
 40
0.5000000000000002
  1
zur Halle 1
  7
ARIAL
 72
     1
 11
65.47237749951545
 21
37.2504545479353
 31
0.0
100
AcDbText
  0
TEXT
  5
546
330
21
100
AcDbEntity
  8
BESCHRIFTUNG
  6
Continuous
100
AcDbText
 10
3.889193705922769
 20
19.07387054948838
 30
0.0
 40
0.5000000000000002
  1
OHA 2005
  7
ARIAL
 72
     1
 11
5.519991795963697
 21
19.07387054948838
 31
0.0
100
AcDbText
  0
TEXT
  5
547
330
21
100
AcDbEntity
  8
BESCHRIFTUNG
  6
Continuous
100
AcDbText
 10
4.903611149480552
 20
18.32387054948838
 30
0.0
 40
0.5000000000000002
  1
Halle 2
  7
ARIAL
 72
     1
 11
5.990753032154494
 21
18.32387054948838
 31
0.0
100
AcDbText
  0
TEXT
  5
548
330
21
100
AcDbEntity
  8
BESCHRIFTUNG
  6
Continuous
100
AcDbText
 10
6.643178717598908
 20
38.05
 30
0.0
 40
0.5000000000000002
  1
zum 
  7
ARIAL
 72
     1
 11
7.4
 21
38.05
 31
0.0
100
AcDbText
  0
TEXT
  5
549
330
21
100
AcDbEntity
  8
BESCHRIFTUNG
  6
Continuous
100
AcDbText
 10
3.510072939566342
 20
37.3
 30
0.0
 40
0.5000000000000002
  1
Aussengelände
  7
ARIAL
 72
     1
 11
5.917474030971527
 21
37.3
 31
0.0
100
AcDbText
  0
TEXT
  5
54A
330
21
100
AcDbEntity
  8
BESCHRIFTUNG
  6
Continuous
 62
     0
100
AcDbText
 10
60.1575376104193
 20
28.42749937555849
 30
0.0
 40
0.5000000000000002
  1
201
  7
ARIAL
 72
     1
 11
60.74024565953253
 21
28.42749937555849
 31
0.0
100
AcDbText
  0
TEXT
  5
54B
330
21
100
AcDbEntity
  8
BESCHRIFTUNG
  6
Continuous
 62
     0
100
AcDbText
 10
65.82151101693202
 20
28.51822414687206
 30
0.0
 40
0.5000000000000002
  1
202
  7
ARIAL
 72
     1
 11
66.40421906604526
 21
28.51822414687206
 31
0.0
100
AcDbText
  0
TEXT
  5
54C
330
21
100
AcDbEntity
  8
BESCHRIFTUNG
  6
Continuous
 62
     0
100
AcDbText
 10
62.94313302937268
 20
26.40480304185933
 30
0.0
 40
0.5000000000000002
  1
204
  7
ARIAL
 72
     1
 11
63.52584107848592
 21
26.40480304185933
 31
0.0
100
AcDbText
  0
TEXT
  5
54D
330
21
100
AcDbEntity
  8
BESCHRIFTUNG
  6
Continuous
 62
     0
100
AcDbText
 10
52.04571826788146
 20
29.34263695214637
 30
0.0
 40
0.5000000000000002
  1
206
  7
ARIAL
 72
     1
 11
52.6284263169947
 21
29.34263695214637
 31
0.0
100
AcDbText
  0
TEXT
  5
54E
330
21
100
AcDbEntity
  8
BESCHRIFTUNG
  6
Continuous
100
AcDbText
 10
54.09870091538429
 20
31.40381956582545
 30
0.0
 40
0.5000000000000002
  1
203
  7
ARIAL
 72
     1
 11
54.68140896449753
 21
31.40381956582545
 31
0.0
100
AcDbText
  0
TEXT
  5
54F
330
21
100
AcDbEntity
  8
BESCHRIFTUNG
  6
Continuous
100
AcDbText
 10
47.25739356082918
 20
26.8120204732534
 30
0.0
 40
0.5000000000000002
  1
205
  7
ARIAL
 72
     1
 11
47.84010160994242
 21
26.8120204732534
 31
0.0
100
AcDbText
  0
TEXT
  5
550
330
21
100
AcDbEntity
  8
BESCHRIFTUNG
  6
Continuous
100
AcDbText
 10
48.79348071779954
 20
23.55013514577458
 30
0.0
 40
0.5000000000000002
  1
208
  7
ARIAL
 72
     1
 11
49.37618876691278
 21
23.55013514577458
 31
0.0
100
AcDbText
  0
TEXT
  5
551
330
21
100
AcDbEntity
  8
BESCHRIFTUNG
  6
Continuous
 62
     0
100
AcDbText
 10
38.9799761266798
 20
25.26561404807967
 30
0.0
 40
0.5000000000000002
  1
210
  7
ARIAL
 72
     1
 11
39.56268417579304
 21
25.26561404807967
 31
0.0
100
AcDbText
  0
TEXT
  5
552
330
21
100
AcDbEntity
  8
BESCHRIFTUNG
  6
Continuous
 62
     0
100
AcDbText
 10
40.09545502898489
 20
29.26874616663054
 30
0.0
 40
0.5000000000000002
  1
207
  7
ARIAL
 72
     1
 11
40.67816307809812
 21
29.26874616663054
 31
0.0
100
AcDbText
  0
TEXT
  5
553
330
21
100
AcDbEntity
  8
BESCHRIFTUNG
  6
Continuous
100
AcDbText
 10
38.63255594373065
 20
32.45228378829156
 30
0.0
 40
0.5000000000000002
  1
209
  7
ARIAL
 72
     1
 11
39.21526399284389
 21
32.45228378829156
 31
0.0
100
AcDbText
  0
TEXT
  5
554
330
21
100
AcDbEntity
  8
BESCHRIFTUNG
  6
Continuous
 62
     0
100
AcDbText
 10
33.63559721705691
 20
32.3832113111602
 30
0.0
 40
0.5000000000000002
  1
211
  7
ARIAL
 72
     1
 11
34.21830526617014
 21
32.3832113111602
 31
0.0
100
AcDbText
  0
TEXT
  5
555
330
21
100
AcDbEntity
  8
BESCHRIFTUNG
  6
Continuous
 62
     0
100
AcDbText
 10
30.79742198105266
 20
30.72237002319833
 30
0.0
 40
0.5000000000000002
  1
213
  7
ARIAL
 72
     1
 11
31.38013003016589
 21
30.72237002319833
 31
0.0
100
AcDbText
  0
TEXT
  5
556
330
21
100
AcDbEntity
  8
BESCHRIFTUNG
  6
Continuous
100
AcDbText
 10
30.69742198105266
 20
25.60170120505001
 30
0.0
 40
0.5000000000000002
  1
215
  7
ARIAL
 72
     1
 11
31.28013003016589
 21
25.60170120505001
 31
0.0
100
AcDbText
  0
TEXT
  5
557
330
21
100
AcDbEntity
  8
BESCHRIFTUNG
  6
Continuous
 62
     0
100
AcDbText
 10
22.80762748140751
 20
32.35950121968564
 30
0.0
 40
0.5000000000000002
  1
217
  7
ARIAL
 72
     1
 11
23.39033553052074
 21
32.35950121968564
 31
0.0
100
AcDbText
  0
TEXT
  5
558
330
21
100
AcDbEntity
  8
BESCHRIFTUNG
  6
Continuous
 62
     0
100
AcDbText
 10
33.89745226279419
 20
30.07184800343985
 30
0.0
 40
0.5000000000000002
  1
212
  7
ARIAL
 72
     1
 11
34.48016031190743
 21
30.07184800343985
 31
0.0
100
AcDbText
  0
TEXT
  5
559
330
21
100
AcDbEntity
  8
BESCHRIFTUNG
  6
Continuous
 62
     0
100
AcDbText
 10
30.88814675236622
 20
23.09239569462203
 30
0.0
 40
0.5000000000000002
  1
214
  7
ARIAL
 72
     1
 11
31.47085480147945
 21
23.09239569462203
 31
0.0
100
AcDbText
  0
TEXT
  5
55A
330
21
100
AcDbEntity
  8
BESCHRIFTUNG
  6
Continuous
 62
     0
100
AcDbText
 10
25.92519446274651
 20
23.13775808027881
 30
0.0
 40
0.5000000000000002
  1
216
  7
ARIAL
 72
     1
 11
26.50790251185974
 21
23.13775808027881
 31
0.0
100
AcDbText
  0
TEXT
  5
55B
330
21
100
AcDbEntity
  8
BESCHRIFTUNG
  6
Continuous
 62
     0
100
AcDbText
 10
23.03238161239904
 20
25.20375900234238
 30
0.0
 40
0.5000000000000002
  1
218
  7
ARIAL
 72
     1
 11
23.61508966151227
 21
25.20375900234238
 31
0.0
100
AcDbText
  0
TEXT
  5
55C
330
21
100
AcDbEntity
  8
BESCHRIFTUNG
  6
Continuous
 62
     0
100
AcDbText
 10
19.9179467496109
 20
30.10689112089325
 30
0.0
 40
0.5000000000000002
  1
220
  7
ARIAL
 72
     1
 11
20.50065479872413
 21
30.10689112089325
 31
0.0
100
AcDbText
  0
TEXT
  5
55D
330
21
100
AcDbEntity
  8
BESCHRIFTUNG
  6
Continuous
 62
     0
100
AcDbText
 10
12.95082976323532
 20
23.06868560314746
 30
0.0
 40
0.5000000000000002
  1
222
  7
ARIAL
 72
     1
 11
13.53353781234855
 21
23.06868560314746
 31
0.0
100
AcDbText
  0
TEXT
  5
55E
330
21
100
AcDbEntity
  8
BESCHRIFTUNG
  6
Continuous
 62
     0
100
AcDbText
 10
8.871407736159042
 20
23.06146817175339
 30
0.0
 40
0.5000000000000002
  1
224
  7
ARIAL
 72
     1
 11
9.454115785272275
 21
23.06146817175339
 31
0.0
100
AcDbText
  0
TEXT
  5
55F
330
21
100
AcDbEntity
  8
BESCHRIFTUNG
  6
Continuous
 62
     0
100
AcDbText
 10
6.011580205972589
 20
24.16251221127034
 30
0.0
 40
0.5000000000000002
  1
226
  7
ARIAL
 72
     1
 11
6.594288255085823
 21
24.16251221127034
 31
0.0
100
AcDbText
  0
TEXT
  5
560
330
21
100
AcDbEntity
  8
BESCHRIFTUNG
  6
Continuous
 62
     0
100
AcDbText
 10
6.117291950886765
 20
25.3
 30
0.0
 40
0.5000000000000002
  1
228
  7
ARIAL
 72
     1
 11
6.699999999999999
 21
25.3
 31
0.0
100
AcDbText
  0
TEXT
  5
561
330
21
100
AcDbEntity
  8
BESCHRIFTUNG
  6
Continuous
 62
     0
100
AcDbText
 10
6.023957271468353
 20
34.78013975609241
 30
0.0
 40
0.5000000000000002
  1
230
  7
ARIAL
 72
     1
 11
6.606665320581587
 21
34.78013975609241
 31
0.0
100
AcDbText
  0
TEXT
  5
562
330
21
100
AcDbEntity
  8
BESCHRIFTUNG
  6
Continuous
 62
     0
100
AcDbText
 10
15.66220453226765
 20
32.37599387976614
 30
0.0
 40
0.5000000000000002
  1
219
  7
ARIAL
 72
     1
 11
16.24491258138089
 21
32.37599387976614
 31
0.0
100
AcDbText
  0
TEXT
  5
563
330
21
100
AcDbEntity
  8
BESCHRIFTUNG
  6
Continuous
 62
     0
100
AcDbText
 10
13.74156599586086
 20
30.45741314065172
 30
0.0
 40
0.5000000000000002
  1
221
  7
ARIAL
 72
     1
 11
14.3242740449741
 21
30.45741314065172
 31
0.0
100
AcDbText
  0
TEXT
  5
564
330
21
100
AcDbEntity
  8
BESCHRIFTUNG
  6
Continuous
 62
     0
100
AcDbText
 10
7.617291950886767
 20
28.8
 30
0.0
 40
0.5000000000000002
  1
223
  7
ARIAL
 72
     1
 11
8.200000000000001
 21
28.8
 31
0.0
100
AcDbText
  0
TEXT
  5
565
330
21
100
AcDbEntity
  8
BESCHRIFTUNG
  6
Continuous
 62
     0
100
AcDbText
 10
7.522943513692935
 20
34.78013975609241
 30
0.0
 40
0.5000000000000002
  1
225
  7
ARIAL
 72
     1
 11
8.105651562806169
 21
34.78013975609241
 31
0.0
100
AcDbText
  0
TEXT
  5
566
330
21
100
AcDbEntity
  8
STANDBAU
  6
Continuous
 62
     1
100
AcDbText
 10
3.807728939445636
 20
41.4818221496804
 30
0.0
 40
0.5000000000000002
  1
Standbau
  7
ARIAL
 72
     1
 11
5.3031245738249
 21
41.4818221496804
 31
0.0
100
AcDbText
  0
LINE
  5
568
102
{ACAD_REACTORS
330
567
102
}
330
21
100
AcDbEntity
  8
STANDBAU
  6
Continuous
 62
     1
100
AcDbLine
 10
61.3013844846656
 20
29.24611770491245
 30
0.0
 11
63.29861551533439
 21
28.73690866026601
 31
0.0
  0
LINE
  5
569
102
{ACAD_REACTORS
330
567
102
}
330
21
100
AcDbEntity
  8
STANDBAU
  6
Continuous
 62
     1
100
AcDbLine
 10
61.29572660639175
 20
28.75388229508756
 30
0.0
 11
63.30427339360824
 21
29.26309133973399
 31
0.0
  0
TEXT
  5
56A
330
21
100
AcDbEntity
  8
STANDBAU
  6
Continuous
 62
     1
100
AcDbText
 10
60.41840988741386
 20
34.67504100651432
 30
0.0
 40
0.5000000000000002
  1
< 6.5x4 >
  7
ARIAL
 72
     1
 11
61.87475368004687
 21
34.67504100651432
 31
0.0
100
AcDbText
  0
TEXT
  5
56B
330
21
100
AcDbEntity
  8
MALER
  6
Continuous
 62
    30
100
AcDbText
 10
3.866577481905236
 20
40.88182214968041
 30
0.0
 40
0.5000000000000002
  1
Maler
  7
ARIAL
 72
     1
 11
4.744647058985728
 21
40.88182214968041
 31
0.0
100
AcDbText
  0
TEXT
  5
56C
330
21
100
AcDbEntity
  8
MALER
  6
Continuous
 62
    30
100
AcDbText
 10
60.34460288381183
 20
29.83047138315191
 30
0.0
 40
0.5000000000000002
  1
F=W
  7
ARIAL
 72
     1
 11
61.09153330673134
 21
29.83047138315191
 31
0.0
100
AcDbText
  0
TEXT
  5
56D
330
21
100
AcDbEntity
  8
STOFFBESPANNUNG
  6
Continuous
 62
    13
100
AcDbText
 10
3.684758936584238
 20
40.18182214968041
 30
0.0
 40
0.5000000000000002
  1
Stoffbespannung
  7
ARIAL
 72
     1
 11
6.325788950226804
 21
40.18182214968041
 31
0.0
100
AcDbText
  0
TEXT
  5
56E
330
21
100
AcDbEntity
  8
SANITÄR
  6
Continuous
 62
     5
100
AcDbText
 10
3.960564001629849
 20
39.58182214968041
 30
0.0
 40
0.5000000000000002
  1
Sanitär
  7
ARIAL
100
AcDbText
  0
TEXT
  5
56F
330
21
100
AcDbEntity
  8
SANITÄR
  6
Continuous
 62
     5
100
AcDbText
 10
16.36430766180153
 20
34.8261121140912
 30
0.0
 40
0.5000000000000002
  1
KW
  7
ARIAL
100
AcDbText
  0
TEXT
  5
570
330
21
100
AcDbEntity
  8
KOMMUNIKATION
  6
Continuous
 62
   102
100
AcDbText
 10
3.714749688770759
 20
38.98182214968041
 30
0.0
 40
0.5000000000000002
  1
Kommunikation
  7
ARIAL
 72
     1
 11
6.121809716055889
 21
38.98182214968041
 31
0.0
100
AcDbText
  0
LINE
  5
572
102
{ACAD_REACTORS
330
571
102
}
330
21
100
AcDbEntity
  8
STANDBAU
  6
Continuous
 62
     1
100
AcDbLine
 10
63.95388229508755
 20
31.50138448466561
 30
0.0
 11
64.463091339734
 21
33.4986155153344
 31
0.0
  0
LINE
  5
573
102
{ACAD_REACTORS
330
571
102
}
330
21
100
AcDbEntity
  8
STANDBAU
  6
Continuous
 62
     1
100
AcDbLine
 10
64.44611770491244
 20
31.49572660639176
 30
0.0
 11
63.93690866026602
 21
33.50427339360825
 31
0.0
  0
TEXT
  5
574
330
21
100
AcDbEntity
  8
STANDBAU
  6
Continuous
 62
     1
100
AcDbText
 10
66.60994338370833
 20
34.42683030737561
 30
0.0
 40
0.5000000000000002
  1
< 7x2 >
  7
ARIAL
 72
     1
 11
67.77501841781473
 21
34.42683030737561
 31
0.0
100
AcDbText
  0
LINE
  5
576
102
{ACAD_REACTORS
330
575
102
}
330
21
100
AcDbEntity
  8
STANDBAU
  6
Continuous
 62
     1
100
AcDbLine
 10
49.90138448466561
 20
29.44611770491245
 30
0.0
 11
51.89861551533439
 21
28.93690866026601
 31
0.0
  0
LINE
  5
577
102
{ACAD_REACTORS
330
575
102
}
330
21
100
AcDbEntity
  8
STANDBAU
  6
Continuous
 62
     1
100
AcDbLine
 10
49.89572660639176
 20
28.95388229508755
 30
0.0
 11
51.90427339360825
 21
29.46309133973399
 31
0.0
  0
LINE
  5
579
102
{ACAD_REACTORS
330
578
102
}
330
21
100
AcDbEntity
  8
STANDBAU
  6
Continuous
 62
     1
100
AcDbLine
 10
35.1013844846656
 20
33.14611770491244
 30
0.0
 11
37.09861551533439
 21
32.636908660266
 31
0.0
  0
LINE
  5
57A
102
{ACAD_REACTORS
330
578
102
}
330
21
100
AcDbEntity
  8
STANDBAU
  6
Continuous
 62
     1
100
AcDbLine
 10
35.09572660639176
 20
32.65388229508755
 30
0.0
 11
37.10427339360824
 21
33.16309133973399
 31
0.0
  0
LINE
  5
57C
102
{ACAD_REACTORS
330
57B
102
}
330
21
100
AcDbEntity
  8
STANDBAU
  6
Continuous
 62
     1
100
AcDbLine
 10
30.85388229508755
 20
27.1013844846656
 30
0.0
 11
31.363091339734
 21
29.09861551533439
 31
0.0
  0
LINE
  5
57D
102
{ACAD_REACTORS
330
57B
102
}
330
21
100
AcDbEntity
  8
STANDBAU
  6
Continuous
 62
     1
100
AcDbLine
 10
31.34611770491244
 20
27.09572660639175
 30
0.0
 11
30.83690866026601
 21
29.10427339360824
 31
0.0
  0
LINE
  5
57F
102
{ACAD_REACTORS
330
57E
102
}
330
21
100
AcDbEntity
  8
STANDBAU
  6
Continuous
 62
     1
100
AcDbLine
 10
28.8013844846656
 20
25.74611770491245
 30
0.0
 11
30.79861551533439
 21
25.23690866026601
 31
0.0
  0
LINE
  5
580
102
{ACAD_REACTORS
330
57E
102
}
330
21
100
AcDbEntity
  8
STANDBAU
  6
Continuous
 62
     1
100
AcDbLine
 10
28.79572660639176
 20
25.25388229508755
 30
0.0
 11
30.80427339360824
 21
25.763091339734
 31
0.0
  0
TEXT
  5
581
330
21
100
AcDbEntity
  8
STANDBAU
  6
Continuous
 62
     1
100
AcDbText
 10
28.78523121265569
 20
29.7201127756992
 30
0.0
 40
0.5000000000000002
  1
< 5x2 >
  7
ARIAL
 72
     1
 11
29.9503062467621
 21
29.7201127756992
 31
0.0
100
AcDbText
  0
TEXT
  5
582
330
21
100
AcDbEntity
  8
STANDBAU
  6
Continuous
 62
     1
100
AcDbText
 10
28.72820180211332
 20
20.24592268004142
 30
0.0
 40
0.5000000000000002
  1
< 5x3 >
  7
ARIAL
 72
     1
 11
29.89327683621974
 21
20.24592268004142
 31
0.0
100
AcDbText
  0
TEXT
  5
583
330
21
100
AcDbEntity
  8
MALER
  6
Continuous
 62
    30
100
AcDbText
 10
33.75154168642543
 20
33.14722765199571
 30
0.0
 40
0.5000000000000002
  1
F=W
  7
ARIAL
 72
     1
 11
34.49847210934494
 21
33.14722765199571
 31
0.0
100
AcDbText
  0
TEXT
  5
584
330
21
100
AcDbEntity
  8
MALER
  6
Continuous
 62
    30
100
AcDbText
 10
21.45314406491584
 20
25.25413453146292
 30
0.0
 40
0.5000000000000002
  1
F=W
  7
ARIAL
 72
     1
 11
22.20007448783535
 21
25.25413453146292
 31
0.0
100
AcDbText
  0
TEXT
  5
585
330
21
100
AcDbEntity
  8
MALER
  6
Continuous
 62
    30
100
AcDbText
 10
11.37584796540534
 20
20.78916662244461
 30
0.0
 40
0.5000000000000002
  1
F=W
  7
ARIAL
 72
     1
 11
12.12277838832485
 21
20.78916662244461
 31
0.0
100
AcDbText
  0
TEXT
  5
586
330
21
100
AcDbEntity
  8
STANDBAU
  6
Continuous
 62
     1
100
AcDbText
 10
10.55488007225501
 20
35.72005767818806
 30
0.0
 40
0.5000000000000002
  1
< 5x2.5 / 5.5x3 >
  7
ARIAL
 72
     1
 11
13.1566877120913
 21
35.72005767818806
 31
0.0
100
AcDbText
  0
LINE
  5
588
102
{ACAD_REACTORS
330
587
102
}
330
21
100
AcDbEntity
  8
STANDBAU
  6
Continuous
 62
     1
100
AcDbLine
 10
13.05388229508754
 20
30.60138448466561
 30
0.0
 11
13.56309133973399
 21
32.5986155153344
 31
0.0
  0
LINE
  5
589
102
{ACAD_REACTORS
330
587
102
}
330
21
100
AcDbEntity
  8
STANDBAU
  6
Continuous
 62
     1
100
AcDbLine
 10
13.54611770491243
 20
30.59572660639176
 30
0.0
 11
13.036908660266
 21
32.60427339360824
 31
0.0
  0
LINE
  5
58B
102
{ACAD_REACTORS
330
58A
102
}
330
21
100
AcDbEntity
  8
STANDBAU
  6
Continuous
 62
     1
100
AcDbLine
 10
13.53902674328051
 20
32.92930006211399
 30
0.0
 11
15.5362577739493
 21
32.42009101746756
 31
0.0
  0
LINE
  5
58C
102
{ACAD_REACTORS
330
58A
102
}
330
21
100
AcDbEntity
  8
STANDBAU
  6
Continuous
 62
     1
100
AcDbLine
 10
13.53336886500666
 20
32.4370646522891
 30
0.0
 11
15.54191565222315
 21
32.94627369693554
 31
0.0
  0
TEXT
  5
58D
330
21
100
AcDbEntity
  8
STANDBAU
  6
Continuous
 62
     1
100
AcDbText
 10
37.03021117162978
 20
20.25818809416442
 30
0.0
 40
0.5000000000000002
  1
< 6x2 / 6.8x3 >
  7
ARIAL
 72
     1
 11
39.34075005293946
 21
20.25818809416442
 31
0.0
100
AcDbText
  0
LINE
  5
58F
102
{ACAD_REACTORS
330
58E
102
}
330
21
100
AcDbEntity
  8
STANDBAU
  6
Continuous
 62
     1
100
AcDbLine
 10
40.13065978828801
 20
23.48526802573767
 30
0.0
 11
42.12789081895679
 21
22.97605898109123
 31
0.0
  0
LINE
  5
590
102
{ACAD_REACTORS
330
58E
102
}
330
21
100
AcDbEntity
  8
STANDBAU
  6
Continuous
 62
     1
100
AcDbLine
 10
40.12500191001415
 20
22.99303261591278
 30
0.0
 11
42.13354869723064
 21
23.50224166055922
 31
0.0
  0
TEXT
  5
591
330
21
100
AcDbEntity
  8
STANDBAU
  6
Continuous
 62
     1
100
AcDbText
 10
18.54891335915191
 20
35.74603538286644
 30
0.0
 40
0.5000000000000002
  1
< 7.0x2.5 >
  7
ARIAL
 72
     1
 11
20.29652591031153
 21
35.74603538286644
 31
0.0
100
AcDbText
  0
TEXT
  5
592
330
21
100
AcDbEntity
  8
SANITÄR
  6
Continuous
 62
     5
100
AcDbText
 10
16.0
 20
34.9
 30
0.0
 40
0.5000000000000002
  1
o
  7
ARIAL
100
AcDbText
  0
TEXT
  5
593
330
21
100
AcDbEntity
  8
SANITÄR
  6
Continuous
 62
     5
100
AcDbText
 10
16.30714850392658
 20
34.30811625948234
 30
0.0
 40
0.5000000000000002
  1
SB
  7
ARIAL
100
AcDbText
  0
TEXT
  5
594
330
21
100
AcDbEntity
  8
SANITÄR
  6
Continuous
 62
     5
100
AcDbText
 10
16.30714850392658
 20
33.71257071279347
 30
0.0
 40
0.5000000000000002
  1
AP
  7
ARIAL
100
AcDbText
  0
LINE
  5
596
102
{ACAD_REACTORS
330
595
102
}
330
21
100
AcDbEntity
  8
STANDBAU
  6
Continuous
 62
     1
100
AcDbLine
 10
41.49270748565642
 20
26.25980963148816
 30
0.0
 11
43.48993851632521
 21
25.75060058684172
 31
0.0
  0
LINE
  5
597
102
{ACAD_REACTORS
330
595
102
}
330
21
100
AcDbEntity
  8
STANDBAU
  6
Continuous
 62
     1
100
AcDbLine
 10
41.48704960738258
 20
25.76757422166326
 30
0.0
 11
43.49559639459906
 21
26.27678326630971
 31
0.0
  0
LINE
  5
599
102
{ACAD_REACTORS
330
598
102
}
330
21
100
AcDbEntity
  8
STANDBAU
  6
Continuous
 62
     1
100
AcDbLine
 10
38.78198128723879
 20
22.99515739162796
 30
0.0
 11
39.33313682691714
 21
25.15691189725521
 31
0.0
  0
LINE
  5
59A
102
{ACAD_REACTORS
330
598
102
}
330
21
100
AcDbEntity
  8
STANDBAU
  6
Continuous
 62
     1
100
AcDbLine
 10
39.31476497559451
 20
22.98903344118709
 30
0.0
 11
38.76360943591619
 21
25.16303584769608
 31
0.0
  0
LINE
  5
59C
102
{ACAD_REACTORS
330
59B
102
}
330
21
100
AcDbEntity
  8
STANDBAU
  6
Continuous
 62
     1
100
AcDbLine
 10
40.44759867271635
 20
26.72817700663771
 30
0.0
 11
40.99875421239472
 21
28.88993151226496
 31
0.0
  0
LINE
  5
59D
102
{ACAD_REACTORS
330
59B
102
}
330
21
100
AcDbEntity
  8
STANDBAU
  6
Continuous
 62
     1
100
AcDbLine
 10
40.9803823610721
 20
26.72205305619684
 30
0.0
 11
40.42922682139376
 21
28.89605546270583
 31
0.0
  0
LINE
  5
59F
102
{ACAD_REACTORS
330
59E
102
}
330
21
100
AcDbEntity
  8
STANDBAU
  6
Continuous
 62
     1
100
AcDbLine
 10
33.6878063968879
 20
26.87951563967864
 30
0.0
 11
34.23896193656626
 21
29.04127014530589
 31
0.0
  0
LINE
  5
5A0
102
{ACAD_REACTORS
330
59E
102
}
330
21
100
AcDbEntity
  8
STANDBAU
  6
Continuous
 62
     1
100
AcDbLine
 10
34.22059008524364
 20
26.87339168923777
 30
0.0
 11
33.66943454556531
 21
29.04739409574677
 31
0.0
  0
LINE
  5
5A2
102
{ACAD_REACTORS
330
5A1
102
}
330
21
100
AcDbEntity
  8
STANDBAU
  6
Continuous
 62
     1
100
AcDbLine
 10
38.73830690367667
 20
26.85752599881336
 30
0.0
 11
39.28946244335503
 21
29.01928050444062
 31
0.0
  0
LINE
  5
5A3
102
{ACAD_REACTORS
330
5A1
102
}
330
21
100
AcDbEntity
  8
STANDBAU
  6
Continuous
 62
     1
100
AcDbLine
 10
39.2710905920324
 20
26.8514020483725
 30
0.0
 11
38.71993505235407
 21
29.02540445488149
 31
0.0
  0
LINE
  5
5A5
102
{ACAD_REACTORS
330
5A4
102
}
330
21
100
AcDbEntity
  8
STANDBAU
  6
Continuous
 62
     1
100
AcDbLine
 10
35.66524835138777
 20
30.26995623642643
 30
0.0
 11
37.66247938205655
 21
29.76074719177999
 31
0.0
  0
LINE
  5
5A6
102
{ACAD_REACTORS
330
5A4
102
}
330
21
100
AcDbEntity
  8
STANDBAU
  6
Continuous
 62
     1
100
AcDbLine
 10
35.65959047311392
 20
29.77772082660154
 30
0.0
 11
37.66813726033041
 21
30.28692987124797
 31
0.0
  0
LINE
  5
5A8
102
{ACAD_REACTORS
330
5A7
102
}
330
21
100
AcDbEntity
  8
STANDBAU
  6
Continuous
 62
     1
100
AcDbLine
 10
49.26141229940845
 20
25.14114599782351
 30
0.0
 11
49.77062134405489
 21
27.13837702849229
 31
0.0
  0
LINE
  5
5A9
102
{ACAD_REACTORS
330
5A7
102
}
330
21
100
AcDbEntity
  8
STANDBAU
  6
Continuous
 62
     1
100
AcDbLine
 10
49.75364770923334
 20
25.13548811954966
 30
0.0
 11
49.24443866458691
 21
27.14403490676614
 31
0.0
  0
TEXT
  5
5AA
330
21
100
AcDbEntity
  8
BESCHRIFTUNG
  6
Continuous
 62
     0
100
AcDbText
 10
65.71557025013347
 20
2.43296641302435
 30
0.0
 40
0.5000000000000002
  1
04.07.2005
  7
ARIAL
 72
     1
 11
67.46352386541314
 21
2.43296641302435
 31
0.0
100
AcDbText
  0
LINE
  5
5AB
330
21
100
AcDbEntity
  8
STANDZUTEILUNG
  6
Continuous
 62
     0
100
AcDbLine
 10
28.8
 20
30.5
 30
0.0
 11
28.80000000000001
 21
25.5
 31
0.0
  0
TEXT
  5
5AC
330
21
100
AcDbEntity
  8
STANDBAU
  6
Continuous
 62
     1
100
AcDbText
 10
47.85167238765478
 20
34.62065199579309
 30
0.0
 40
0.5000000000000002
  1
<überall Tiefe 3.10 >
  7
ARIAL
 72
     1
 11
51.05528766732736
 21
34.62065199579309
 31
0.0
100
AcDbText
  0
LINE
  5
5AE
102
{ACAD_REACTORS
330
5AD
102
}
330
21
100
AcDbEntity
  8
STANDBAU
  6
Continuous
 62
     1
100
AcDbLine
 10
49.32960378093742
 20
32.24524964935691
 30
0.0
 11
51.32683481160622
 21
31.73604060471047
 31
0.0
  0
LINE
  5
5AF
102
{ACAD_REACTORS
330
5AD
102
}
330
21
100
AcDbEntity
  8
STANDBAU
  6
Continuous
 62
     1
100
AcDbLine
 10
49.32394590266358
 20
31.75301423953202
 30
0.0
 11
51.33249268988006
 21
32.26222328417846
 31
0.0
  0
LINE
  5
5B1
102
{ACAD_REACTORS
330
5B0
102
}
330
21
100
AcDbEntity
  8
STANDBAU
  6
Continuous
 62
     1
100
AcDbLine
 10
44.86002976580574
 20
26.74348917177407
 30
0.0
 11
46.85726079647454
 21
26.23428012712763
 31
0.0
  0
LINE
  5
5B2
102
{ACAD_REACTORS
330
5B0
102
}
330
21
100
AcDbEntity
  8
STANDBAU
  6
Continuous
 62
     1
100
AcDbLine
 10
44.8543718875319
 20
26.25125376194918
 30
0.0
 11
46.86291867474838
 21
26.76046280659561
 31
0.0
  0
LINE
  5
5B4
102
{ACAD_REACTORS
330
5B3
102
}
330
21
100
AcDbEntity
  8
STANDBAU
  6
Continuous
 62
     1
100
AcDbLine
 10
47.04585418339958
 20
28.53623767667342
 30
0.0
 11
47.55506322804602
 21
30.53346870734221
 31
0.0
  0
LINE
  5
5B5
102
{ACAD_REACTORS
330
5B3
102
}
330
21
100
AcDbEntity
  8
STANDBAU
  6
Continuous
 62
     1
100
AcDbLine
 10
47.53808959322447
 20
28.53057979839958
 30
0.0
 11
47.02888054857804
 21
30.53912658561606
 31
0.0
  0
TEXT
  5
5B6
330
21
100
AcDbEntity
  8
MALER
  6
Continuous
 62
    30
100
AcDbText
 10
9.839532235155726
 20
26.26946163442479
 30
0.0
 40
0.5000000000000002
  1
F=W
  7
ARIAL
 72
     1
 11
10.58646265807523
 21
26.26946163442479
 31
0.0
100
AcDbText
  0
TEXT
  5
5B7
330
21
100
AcDbEntity
  8
BESCHRIFTUNG
  6
Continuous
 62
     0
100
AcDbText
 10
26.19503426034855
 20
22.08126650651706
 30
0.0
 40
0.5000000000000002
  1
Kieser Training
  7
ARIAL
 72
     1
 11
28.54377232310435
 21
22.08126650651706
 31
0.0
100
AcDbText
  0
TEXT
  5
5B8
330
21
100
AcDbEntity
  8
BESCHRIFTUNG
  6
Continuous
 62
     0
100
AcDbText
 10
25.32913323224106
 20
21.33126650651706
 30
0.0
 40
0.5000000000000002
  1
Norm Training AG
  7
ARIAL
 72
     1
 11
28.14325328681132
 21
21.33126650651706
 31
0.0
100
AcDbText
  0
TEXT
  5
5B9
330
21
100
AcDbEntity
  8
BESCHRIFTUNG
  6
Continuous
 62
     0
100
AcDbText
 10
29.12437227255838
 20
20.58126650651706
 30
0.0
 40
0.5000000000000002
  1
Thun
  7
ARIAL
 72
     1
 11
29.92041592876574
 21
20.58126650651706
 31
0.0
100
AcDbText
  0
TEXT
  5
5BA
330
21
100
AcDbEntity
  8
BESCHRIFTUNG
  6
Continuous
 62
     0
100
AcDbText
 10
20.56498773492926
 20
29.38584494595081
 30
0.0
 40
0.5000000000000002
  1
Kowi's
  7
ARIAL
 72
     1
 11
21.56328241432898
 21
29.38584494595081
 31
0.0
100
AcDbText
  0
TEXT
  5
5BB
330
21
100
AcDbEntity
  8
BESCHRIFTUNG
  6
Continuous
 62
     0
100
AcDbText
 10
20.39689929875954
 20
28.63584494595081
 30
0.0
 40
0.5000000000000002
  1
Mode- 
  7
ARIAL
 72
     1
 11
21.48387064937346
 21
28.63584494595081
 31
0.0
100
AcDbText
  0
TEXT
  5
5BC
330
21
100
AcDbEntity
  8
BESCHRIFTUNG
  6
Continuous
 62
     0
100
AcDbText
 10
21.16970079745483
 20
27.88584494595081
 30
0.0
 40
0.5000000000000002
  1
und 
  7
ARIAL
 72
     1
 11
21.84944158872359
 21
27.88584494595081
 31
0.0
100
AcDbText
  0
TEXT
  5
5BD
330
21
100
AcDbEntity
  8
BESCHRIFTUNG
  6
Continuous
 62
     0
100
AcDbText
 10
19.48060363168928
 20
27.1358449459508
 30
0.0
 40
0.5000000000000002
  1
Stoffladen
  7
ARIAL
 72
     1
 11
21.05342082132094
 21
27.1358449459508
 31
0.0
100
AcDbText
  0
TEXT
  5
5BE
330
21
100
AcDbEntity
  8
BESCHRIFTUNG
  6
Continuous
 62
     0
100
AcDbText
 10
20.10381344497829
 20
26.3858449459508
 30
0.0
 40
0.5000000000000002
  1
Wimmis
  7
ARIAL
 72
     1
 11
21.3451163099169
 21
26.3858449459508
 31
0.0
100
AcDbText
  0
TEXT
  5
5BF
330
21
100
AcDbEntity
  8
BESCHRIFTUNG
  6
Continuous
 62
     0
100
AcDbText
 10
39.99029511975193
 20
34.62375093667106
 30
0.0
 40
0.5000000000000002
  1
Gottlieb
  7
ARIAL
 72
     1
 11
41.19391039942451
 21
34.62375093667106
 31
0.0
100
AcDbText
  0
TEXT
  5
5C0
330
21
100
AcDbEntity
  8
BESCHRIFTUNG
  6
Continuous
 62
     0
100
AcDbText
 10
37.96514450828225
 20
33.87375093667105
 30
0.0
 40
0.5000000000000002
  1
Schmid GmbH
  7
ARIAL
 72
     1
 11
40.23577888754554
 21
33.87375093667105
 31
0.0
100
AcDbText
  0
TEXT
  5
5C1
330
21
100
AcDbEntity
  8
BESCHRIFTUNG
  6
Continuous
 62
     0
100
AcDbText
 10
40.40154963534745
 20
33.12375093667105
 30
0.0
 40
0.5000000000000002
  1
Wengi
  7
ARIAL
 72
     1
 11
41.39148824380584
 21
33.12375093667105
 31
0.0
100
AcDbText
  0
TEXT
  5
5C2
330
21
100
AcDbEntity
  8
BESCHRIFTUNG
  6
Continuous
 62
     0
100
AcDbText
 10
31.97434167492707
 20
22.10230770390601
 30
0.0
 40
0.5000000000000002
  1
DomoSan AG
  7
ARIAL
 72
     1
 11
34.12901425337182
 21
22.10230770390601
 31
0.0
100
AcDbText
  0
TEXT
  5
5C3
330
21
100
AcDbEntity
  8
BESCHRIFTUNG
  6
Continuous
 62
     0
100
AcDbText
 10
33.68824777284633
 20
21.35230770390601
 30
0.0
 40
0.5000000000000002
  1
Balsthal
  7
ARIAL
 72
     1
 11
34.93074436220513
 21
21.35230770390601
 31
0.0
100
AcDbText
  0
TEXT
  5
5C4
330
21
100
AcDbEntity
  8
STANDBAU
  6
Continuous
 62
     1
100
AcDbText
 10
62.92197879640446
 20
23.56088749458458
 30
0.0
 40
0.5000000000000002
  1
< 6x3 / 5x2 >
  7
ARIAL
 72
     1
 11
64.94124891918755
 21
23.56088749458458
 31
0.0
100
AcDbText
  0
LINE
  5
5C6
102
{ACAD_REACTORS
330
5C5
102
}
330
21
100
AcDbEntity
  8
STANDBAU
  6
Continuous
 62
     1
100
AcDbLine
 10
64.06648572434912
 20
26.45849389023212
 30
0.0
 11
66.0637167550179
 21
25.94928484558569
 31
0.0
  0
LINE
  5
5C7
102
{ACAD_REACTORS
330
5C5
102
}
330
21
100
AcDbEntity
  8
STANDBAU
  6
Continuous
 62
     1
100
AcDbLine
 10
64.06082784607527
 20
25.96625848040723
 30
0.0
 11
66.06937463329174
 21
26.47546752505367
 31
0.0
  0
LINE
  5
5C9
102
{ACAD_REACTORS
330
5C8
102
}
330
21
100
AcDbEntity
  8
STANDBAU
  6
Continuous
 62
     1
100
AcDbLine
 10
66.75388229508754
 20
26.20138448466561
 30
0.0
 11
67.26309133973399
 21
28.19861551533439
 31
0.0
  0
LINE
  5
5CA
102
{ACAD_REACTORS
330
5C8
102
}
330
21
100
AcDbEntity
  8
STANDBAU
  6
Continuous
 62
     1
100
AcDbLine
 10
67.24611770491243
 20
26.19572660639176
 30
0.0
 11
66.73690866026601
 21
28.20427339360824
 31
0.0
  0
TEXT
  5
5CB
330
21
100
AcDbEntity
  8
STOFFBESPANNUNG
  6
Continuous
 62
    13
100
AcDbText
 10
67.09695896247571
 20
23.59213258630078
 30
0.0
 40
0.5000000000000002
  1
C=W
  7
ARIAL
 72
     1
 11
67.88277069508144
 21
23.59213258630078
 31
0.0
100
AcDbText
  0
TEXT
  5
5CC
330
21
100
AcDbEntity
  8
MALER
  6
Continuous
 62
    30
100
AcDbText
 10
36.74095185075576
 20
20.86879954816481
 30
0.0
 40
0.5000000000000002
  1
F=W (nur innen Kabine)
  7
ARIAL
 72
     1
 11
40.45838022729054
 21
20.86879954816481
 31
0.0
100
AcDbText
  0
LINE
  5
5CD
330
21
100
AcDbEntity
  8
STANDBAU
  6
Continuous
 62
     1
100
AcDbLine
 10
42.0
 20
23.0
 30
0.0
 11
42.0
 21
20.0
 31
0.0
  0
LINE
  5
5CE
330
21
100
AcDbEntity
  8
STANDBAU
  6
Continuous
 62
     1
100
AcDbLine
 10
43.7
 20
23.0
 30
0.0
 11
43.0
 21
23.0
 31
0.0
  0
LINE
  5
5CF
330
21
100
AcDbEntity
  8
STANDBAU
  6
Continuous
 62
     1
100
AcDbLine
 10
42.0
 20
23.0
 30
0.0
 11
42.0
 21
24.0
 31
0.0
  0
ARC
  5
5D0
330
21
100
AcDbEntity
  8
STANDBAU
  6
Continuous
 62
     1
100
AcDbCircle
 10
42.0
 20
23.0
 30
0.0
 40
0.9999999999999992
100
AcDbArc
 50
0.0000000000000509
 51
90.00000000000005
  0
TEXT
  5
5D1
330
21
100
AcDbEntity
  8
STANDBAU
  6
Continuous
 62
     1
100
AcDbText
 10
39.19945730081295
 20
24.33784085262284
 30
0.0
 40
0.5000000000000002
  1
Tür abschliessbar
  7
ARIAL
 72
     1
 11
41.96054188471472
 21
24.33784085262284
 31
0.0
100
AcDbText
  0
LINE
  5
5D3
102
{ACAD_REACTORS
330
5D2
102
}
330
21
100
AcDbEntity
  8
STANDBAU
  6
Continuous
 62
     1
100
AcDbLine
 10
31.30138448466561
 20
32.94611770491245
 30
0.0
 11
33.2986155153344
 21
32.43690866026601
 31
0.0
  0
LINE
  5
5D4
102
{ACAD_REACTORS
330
5D2
102
}
330
21
100
AcDbEntity
  8
STANDBAU
  6
Continuous
 62
     1
100
AcDbLine
 10
31.29572660639176
 20
32.45388229508756
 30
0.0
 11
33.30427339360824
 21
32.96309133973399
 31
0.0
  0
LINE
  5
5D6
102
{ACAD_REACTORS
330
5D5
102
}
330
21
100
AcDbEntity
  8
STANDBAU
  6
Continuous
 62
     1
100
AcDbLine
 10
30.49918425302947
 20
30.91042852359908
 30
0.0
 11
31.00839329767592
 21
32.90765955426787
 31
0.0
  0
LINE
  5
5D7
102
{ACAD_REACTORS
330
5D5
102
}
330
21
100
AcDbEntity
  8
STANDBAU
  6
Continuous
 62
     1
100
AcDbLine
 10
30.99141966285437
 20
30.90477064532523
 30
0.0
 11
30.48221061820794
 21
32.91331743254172
 31
0.0
  0
TEXT
  5
5D8
330
21
100
AcDbEntity
  8
STANDBAU
  6
Continuous
 62
     1
100
AcDbText
 10
27.91599351288463
 20
35.72949044424801
 30
0.0
 40
0.5000000000000002
  1
< 5.5x2.5 / 5.0x2.5 >
  7
ARIAL
 72
     1
 11
31.10033866977413
 21
35.72949044424801
 31
0.0
100
AcDbText
  0
TEXT
  5
5D9
330
21
100
AcDbEntity
  8
STANDBAU
  6
Continuous
 62
     1
100
AcDbText
 10
27.00349788108058
 20
24.35063976817524
 30
0.0
 40
0.5000000000000002
  1
Blende muss 
  7
ARIAL
 72
     1
 11
29.11945968189914
 21
24.35063976817524
 31
0.0
100
AcDbText
  0
TEXT
  5
5DA
330
21
100
AcDbEntity
  8
STANDBAU
  6
Continuous
 62
     1
100
AcDbText
 10
26.70783918438821
 20
23.60063976817524
 30
0.0
 40
0.5000000000000002
  1
2.55 hoch sein
  7
ARIAL
 72
     1
 11
28.9796672880717
 21
23.60063976817524
 31
0.0
100
AcDbText
  0
LINE
  5
5DB
330
21
100
AcDbEntity
  8
STANDBAU
  6
Continuous
 62
     1
100
AcDbLine
 10
30.1
 20
22.9
 30
0.0
 11
29.6
 21
23.4
 31
0.0
  0
TEXT
  5
5DC
330
21
100
AcDbEntity
  8
MALER
  6
Continuous
 62
    30
100
AcDbText
 10
22.9665364550466
 20
33.06305635126827
 30
0.0
 40
0.5000000000000002
  1
F=W
  7
ARIAL
 72
     1
 11
23.7134668779661
 21
33.06305635126827
 31
0.0
100
AcDbText
  0
TEXT
  5
5DD
330
21
100
AcDbEntity
  8
STANDBAU
  6
Continuous
 62
     1
100
AcDbText
 10
8.68852428654902
 20
29.30802886475521
 30
0.0
 40
0.5000000000000002
  1
< 5.0x4.0 >
  7
ARIAL
 72
     1
 11
10.43613683770864
 21
29.30802886475521
 31
0.0
100
AcDbText
  0
TEXT
  5
5DE
330
21
100
AcDbEntity
  8
STANDBAU
  6
Continuous
 62
     1
100
AcDbText
 10
8.830412326775439
 20
20.16192312965869
 30
0.0
 40
0.5000000000000002
  1
< 4.0x3.0 >
  7
ARIAL
 72
     1
 11
10.57802487793506
 21
20.16192312965869
 31
0.0
100
AcDbText
  0
TEXT
  5
5DF
330
21
100
AcDbEntity
  8
STANDBAU
  6
Continuous
 62
     1
100
AcDbText
 10
3.703531329379451
 20
32.14760574728257
 30
0.0
 40
0.5000000000000002
  1
< 4.0x2.0 >
 50
90.00000000000005
  7
ARIAL
 72
     1
 11
3.703531329379449
 21
33.89521829844219
 31
0.0
100
AcDbText
  0
LINE
  5
5E1
102
{ACAD_REACTORS
330
5E0
102
}
330
21
100
AcDbEntity
  8
STANDBAU
  6
Continuous
 62
     1
100
AcDbLine
 10
5.753882295087542
 20
32.00138448466561
 30
0.0
 11
6.263091339733992
 21
33.99861551533439
 31
0.0
  0
LINE
  5
5E2
102
{ACAD_REACTORS
330
5E0
102
}
330
21
100
AcDbEntity
  8
STANDBAU
  6
Continuous
 62
     1
100
AcDbLine
 10
6.246117704912434
 20
31.99572660639176
 30
0.0
 11
5.736908660266007
 21
34.00427339360824
 31
0.0
  0
TEXT
  5
5E3
330
21
100
AcDbEntity
  8
KOMMUNIKATION
  6
Continuous
 62
   102
100
AcDbText
 10
42.2036979477571
 20
30.3977598963584
 30
0.0
 40
0.5000000000000002
  1
1Am
  7
ARIAL
 72
     1
 11
42.921808452532
 21
30.3977598963584
 31
0.0
100
AcDbText
  0
TEXT
  5
5E4
330
21
100
AcDbEntity
  8
MALER
  6
Continuous
 62
    30
100
AcDbText
 10
58.5327848856201
 20
29.81313380378623
 30
0.0
 40
0.5000000000000002
  1
F=W
  7
ARIAL
 72
     1
 11
59.27971530853962
 21
29.81313380378623
 31
0.0
100
AcDbText
  0
TEXT
  5
5E5
330
21
100
AcDbEntity
  8
MALER
  6
Continuous
 62
    30
100
AcDbText
 10
2.25306957708049
 20
31.3
 30
0.0
 40
0.5000000000000002
  1
F=W
  7
ARIAL
 72
     1
 11
2.999999999999999
 21
31.3
 31
0.0
100
AcDbText
  0
TEXT
  5
5E6
330
21
100
AcDbEntity
  8
STOFFBESPANNUNG
  6
Continuous
 62
    13
100
AcDbText
 10
58.03867102480015
 20
29.3758819817991
 30
0.0
 40
0.5000000000000002
  1
C=W
  7
ARIAL
 72
     1
 11
58.82448275740588
 21
29.3758819817991
 31
0.0
100
AcDbText
  0
TEXT
  5
5E7
330
21
100
AcDbEntity
  8
HALLE_0_1_EG
  6
Continuous
100
AcDbText
 10
51.66132259968584
 20
10.18584284156105
 30
0.0
 40
0.375
  1
Veranstalter
  7
ARIAL
100
AcDbText
  0
TEXT
  5
5E8
330
21
100
AcDbEntity
  8
HALLE_0_1_EG
  6
Continuous
100
AcDbText
 10
51.66706284112833
 20
9.412054950399717
 30
0.0
 40
0.375
  1
Projekt
  7
ARIAL
100
AcDbText
  0
TEXT
  5
5E9
330
21
100
AcDbEntity
  8
HALLE_0_1_EG
  6
Continuous
100
AcDbText
 10
51.66132259968585
 20
8.659581673170388
 30
0.0
 40
0.375
  1
Zeit/Datum
  7
ARIAL
100
AcDbText
  0
TEXT
  5
5EA
330
21
100
AcDbEntity
  8
HALLE_0_1_EG
  6
Continuous
100
AcDbText
 10
51.66132259968585
 20
6.229521940062221
 30
0.0
 40
0.375
  1
Massstab 1:250
  7
ARIAL
100
AcDbText
  0
TEXT
  5
5EB
330
21
100
AcDbEntity
  8
HALLE_0_1_EG
  6
Continuous
100
AcDbText
 10
56.82147193245649
 20
6.200535851938048
 30
0.0
 40
0.375
  1
Thun,
  7
ARIAL
100
AcDbText
  0
TEXT
  5
5EC
330
21
100
AcDbEntity
  8
HALLE_0_1_EG
  6
Continuous
100
AcDbText
 10
51.66132259968587
 20
7.330903689117435
 30
0.0
 40
0.7500000000000001
  1
Grundriss EG Zelthalle 2
 41
0.9557471422623475
  7
ARIAL
100
AcDbText
  0
LWPOLYLINE
  5
5ED
330
21
100
AcDbEntity
  8
HALLE_0_1_EG
  6
Continuous
100
AcDbPolyline
 90
        4
 70
     1
 43
0.0
 10
51.2
 20
10.95121291883894
 10
67.49251746576129
 20
10.95121291883894
 10
67.49251746576129
 20
5.906202782375171
 10
51.2
 20
5.906202782375171
  0
LINE
  5
5EE
330
21
100
AcDbEntity
  8
HALLE_0_1_EG
  6
Continuous
100
AcDbLine
 10
61.504195231551
 20
10.94501013646377
 30
0.0
 11
61.504195231551
 21
5.899999999999997
 31
0.0
  0
LINE
  5
5EF
330
21
100
AcDbEntity
  8
HALLE_0_1_EG
  6
Continuous
100
AcDbLine
 10
51.2
 20
8.349721762482889
 30
0.0
 11
61.504195231551
 21
8.349721762482889
 31
0.0
  0
LINE
  5
5F0
330
21
100
AcDbEntity
  8
HALLE_0_1_EG
  6
Continuous
100
AcDbLine
 10
51.2
 20
6.953280357867641
 30
0.0
 11
61.504195231551
 21
6.953280357867641
 31
0.0
  0
LINE
  5
5F1
330
21
100
AcDbEntity
  8
HALLE_0_1_EG
  6
Continuous
100
AcDbLine
 10
56.4083923445208
 20
6.941051232143773
 30
0.0
 11
56.4083923445208
 21
5.916315542348595
 31
0.0
  0
TEXT
  5
5F2
330
21
100
AcDbEntity
  8
HALLE_0_1_EG
  6
Continuous
100
AcDbText
 10
61.97315547478013
 20
10.19448199173397
 30
0.0
 40
0.375
  1
Thun-Expo
  7
ARIAL
100
AcDbText
  0
TEXT
  5
5F3
330
21
100
AcDbEntity
  8
HALLE_0_1_EG
  6
Continuous
100
AcDbText
 10
61.97315547478013
 20
9.631981991733976
 30
0.0
 40
0.375
  1
Mittlere Strasse 27
  7
ARIAL
100
AcDbText
  0
TEXT
  5
5F4
330
21
100
AcDbEntity
  8
HALLE_0_1_EG
  6
Continuous
100
AcDbText
 10
61.97315547478013
 20
9.069481991733974
 30
0.0
 40
0.375
  1
Postfach 879
  7
ARIAL
100
AcDbText
  0
TEXT
  5
5F5
330
21
100
AcDbEntity
  8
HALLE_0_1_EG
  6
Continuous
100
AcDbText
 10
61.97315547478013
 20
8.506981991733974
 30
0.0
 40
0.375
  1
3607 Thun
  7
ARIAL
100
AcDbText
  0
TEXT
  5
5F6
330
21
100
AcDbEntity
  8
HALLE_0_1_EG
  6
Continuous
100
AcDbText
 10
61.96934165623957
 20
7.329089397787573
 30
0.0
 40
0.3750000000000001
  1
Fon  +41 33 225 11 20
  7
ARIAL
100
AcDbText
  0
TEXT
  5
5F7
330
21
100
AcDbEntity
  8
HALLE_0_1_EG
  6
Continuous
100
AcDbText
 10
61.96934165623957
 20
6.766589397787572
 30
0.0
 40
0.3750000000000001
  1
Fax  +41 33 225 11 28
  7
ARIAL
100
AcDbText
  0
TEXT
  5
5F8
330
21
100
AcDbEntity
  8
HALLE_0_1_EG
  6
Continuous
100
AcDbText
 10
61.96934165623957
 20
6.204089397787572
 30
0.0
 40
0.3750000000000001
  1
Mail  info@thun-expo.ch
  7
ARIAL
100
AcDbText
  0
ENDSEC
  0
SECTION
  2
OBJECTS
  0
DICTIONARY
  5
C
330
0
100
AcDbDictionary
281
     1
  3
ACAD_COLOR
350
1C
  3
ACAD_GROUP
350
D
  3
ACAD_LAYOUT
350
1A
  3
ACAD_MATERIAL
350
1B
  3
ACAD_MLINESTYLE
350
17
  3
ACAD_PLOTSETTINGS
350
19
  3
ACAD_PLOTSTYLENAME
350
E
  3
ACDBHEADERROUNDTRIPXREC
350
5FD
  3
AcDbVariableDictionary
350
5F9
  0
DICTIONARY
  5
1C
102
{ACAD_REACTORS
330
C
102
}
330
C
100
AcDbDictionary
281
     1
  0
DICTIONARY
  5
D
102
{ACAD_REACTORS
330
C
102
}
330
C
100
AcDbDictionary
281
     1
  3
*A1
350
F7
  3
*A10
350
162
  3
*A100
350
3E2
  3
*A101
350
3E7
  3
*A102
350
3EC
  3
*A103
350
3F1
  3
*A104
350
3F6
  3
*A105
350
3FB
  3
*A106
350
400
  3
*A107
350
405
  3
*A108
350
40A
  3
*A109
350
40F
  3
*A11
350
16F
  3
*A110
350
414
  3
*A111
350
419
  3
*A112
350
41E
  3
*A113
350
423
  3
*A114
350
428
  3
*A115
350
42D
  3
*A116
350
432
  3
*A117
350
437
  3
*A118
350
43C
  3
*A119
350
441
  3
*A12
350
17C
  3
*A120
350
446
  3
*A121
350
44B
  3
*A122
350
450
  3
*A123
350
455
  3
*A124
350
45A
  3
*A125
350
45F
  3
*A126
350
464
  3
*A127
350
469
  3
*A128
350
46E
  3
*A129
350
473
  3
*A13
350
1E9
  3
*A130
350
478
  3
*A131
350
47D
  3
*A132
350
53F
  3
*A133
350
542
  3
*A134
350
567
  3
*A135
350
571
  3
*A136
350
575
  3
*A137
350
578
  3
*A138
350
57B
  3
*A139
350
57E
  3
*A14
350
1F6
  3
*A140
350
587
  3
*A141
350
58A
  3
*A142
350
58E
  3
*A143
350
595
  3
*A144
350
598
  3
*A145
350
59B
  3
*A146
350
59E
  3
*A147
350
5A1
  3
*A148
350
5A4
  3
*A149
350
5A7
  3
*A15
350
203
  3
*A150
350
5AD
  3
*A151
350
5B0
  3
*A152
350
5B3
  3
*A153
350
5C5
  3
*A154
350
5C8
  3
*A155
350
5D2
  3
*A156
350
5D5
  3
*A157
350
5E0
  3
*A16
350
210
  3
*A17
350
21D
  3
*A18
350
22A
  3
*A19
350
237
  3
*A2
350
102
  3
*A20
350
244
  3
*A21
350
251
  3
*A22
350
257
  3
*A23
350
25D
  3
*A24
350
266
  3
*A25
350
26B
  3
*A26
350
270
  3
*A27
350
275
  3
*A28
350
27A
  3
*A29
350
27F
  3
*A3
350
107
  3
*A30
350
284
  3
*A31
350
289
  3
*A32
350
28E
  3
*A33
350
293
  3
*A34
350
298
  3
*A35
350
29D
  3
*A36
350
2A2
  3
*A37
350
2A7
  3
*A38
350
2AC
  3
*A39
350
2B1
  3
*A4
350
114
  3
*A40
350
2B6
  3
*A41
350
2BB
  3
*A42
350
2C0
  3
*A43
350
2C5
  3
*A44
350
2CA
  3
*A45
350
2CF
  3
*A46
350
2D4
  3
*A47
350
2D9
  3
*A48
350
2DE
  3
*A49
350
2E3
  3
*A5
350
121
  3
*A50
350
2E8
  3
*A51
350
2ED
  3
*A52
350
2F2
  3
*A53
350
2F7
  3
*A54
350
2FC
  3
*A55
350
301
  3
*A56
350
306
  3
*A57
350
30B
  3
*A58
350
310
  3
*A59
350
315
  3
*A6
350
12E
  3
*A60
350
31A
  3
*A61
350
31F
  3
*A62
350
324
  3
*A63
350
329
  3
*A64
350
32E
  3
*A65
350
333
  3
*A66
350
338
  3
*A67
350
33D
  3
*A68
350
342
  3
*A69
350
347
  3
*A7
350
13B
  3
*A70
350
34C
  3
*A71
350
351
  3
*A72
350
356
  3
*A73
350
35B
  3
*A74
350
360
  3
*A75
350
365
  3
*A76
350
36A
  3
*A77
350
36F
  3
*A78
350
374
  3
*A79
350
379
  3
*A8
350
148
  3
*A80
350
37E
  3
*A81
350
383
  3
*A82
350
388
  3
*A83
350
38D
  3
*A84
350
392
  3
*A85
350
397
  3
*A86
350
39C
  3
*A87
350
3A1
  3
*A88
350
3A6
  3
*A89
350
3AB
  3
*A9
350
155
  3
*A90
350
3B0
  3
*A91
350
3B5
  3
*A92
350
3BA
  3
*A93
350
3BF
  3
*A94
350
3C4
  3
*A95
350
3C9
  3
*A96
350
3CE
  3
*A97
350
3D3
  3
*A98
350
3D8
  3
*A99
350
3DD
  0
DICTIONARY
  5
1A
102
{ACAD_REACTORS
330
C
102
}
330
C
100
AcDbDictionary
281
     1
  3
Layout1
350
20
  3
Layout2
350
28
  3
Model
350
24
  0
DICTIONARY
  5
1B
102
{ACAD_REACTORS
330
C
102
}
330
C
100
AcDbDictionary
281
     1
  0
DICTIONARY
  5
17
102
{ACAD_REACTORS
330
C
102
}
330
C
100
AcDbDictionary
281
     1
  3
Standard
350
18
  0
DICTIONARY
  5
19
102
{ACAD_REACTORS
330
C
102
}
330
C
100
AcDbDictionary
281
     1
  0
ACDBDICTIONARYWDFLT
  5
E
102
{ACAD_REACTORS
330
C
102
}
330
C
100
AcDbDictionary
281
     1
  3
Normal
350
F
100
AcDbDictionaryWithDefault
340
F
  0
DICTIONARY
  5
5FD
102
{ACAD_REACTORS
330
C
102
}
330
C
100
AcDbDictionary
281
     1
  0
DICTIONARY
  5
5F9
102
{ACAD_REACTORS
330
C
102
}
330
C
100
AcDbDictionary
281
     1
  3
DIMASSOC
350
5FB
  3
HIDETEXT
350
5FA
  3
PROJECTNAME
350
5FC
  0
GROUP
  5
F7
102
{ACAD_REACTORS
330
D
102
}
330
D
100
AcDbGroup
300

 70
     0
 71
     1
340
F8
340
F9
340
FA
340
FB
340
FC
340
FD
340
FE
340
FF
340
100
340
101
  0
GROUP
  5
162
102
{ACAD_REACTORS
330
D
102
}
330
D
100
AcDbGroup
300

 70
     0
 71
     1
340
163
340
164
340
165
340
166
340
167
340
168
340
169
340
16A
340
16B
340
16C
340
16D
340
16E
  0
GROUP
  5
3E2
102
{ACAD_REACTORS
330
D
102
}
330
D
100
AcDbGroup
300

 70
     0
 71
     1
340
3E3
340
3E4
340
3E5
340
3E6
  0
GROUP
  5
3E7
102
{ACAD_REACTORS
330
D
102
}
330
D
100
AcDbGroup
300

 70
     0
 71
     1
340
3E8
340
3E9
340
3EA
340
3EB
  0
GROUP
  5
3EC
102
{ACAD_REACTORS
330
D
102
}
330
D
100
AcDbGroup
300

 70
     0
 71
     1
340
3ED
340
3EE
340
3EF
340
3F0
  0
GROUP
  5
3F1
102
{ACAD_REACTORS
330
D
102
}
330
D
100
AcDbGroup
300

 70
     0
 71
     1
340
3F2
340
3F3
340
3F4
340
3F5
  0
GROUP
  5
3F6
102
{ACAD_REACTORS
330
D
102
}
330
D
100
AcDbGroup
300

 70
     0
 71
     1
340
3F7
340
3F8
340
3F9
340
3FA
  0
GROUP
  5
3FB
102
{ACAD_REACTORS
330
D
102
}
330
D
100
AcDbGroup
300

 70
     0
 71
     1
340
3FC
340
3FD
340
3FE
340
3FF
  0
GROUP
  5
400
102
{ACAD_REACTORS
330
D
102
}
330
D
100
AcDbGroup
300

 70
     0
 71
     1
340
401
340
402
340
403
340
404
  0
GROUP
  5
405
102
{ACAD_REACTORS
330
D
102
}
330
D
100
AcDbGroup
300

 70
     0
 71
     1
340
406
340
407
340
408
340
409
  0
GROUP
  5
40A
102
{ACAD_REACTORS
330
D
102
}
330
D
100
AcDbGroup
300

 70
     0
 71
     1
340
40B
340
40C
340
40D
340
40E
  0
GROUP
  5
40F
102
{ACAD_REACTORS
330
D
102
}
330
D
100
AcDbGroup
300

 70
     0
 71
     1
340
410
340
411
340
412
340
413
  0
GROUP
  5
16F
102
{ACAD_REACTORS
330
D
102
}
330
D
100
AcDbGroup
300

 70
     0
 71
     1
340
170
340
171
340
172
340
173
340
174
340
175
340
176
340
177
340
178
340
179
340
17A
340
17B
  0
GROUP
  5
414
102
{ACAD_REACTORS
330
D
102
}
330
D
100
AcDbGroup
300

 70
     0
 71
     1
340
415
340
416
340
417
340
418
  0
GROUP
  5
419
102
{ACAD_REACTORS
330
D
102
}
330
D
100
AcDbGroup
300

 70
     0
 71
     1
340
41A
340
41B
340
41C
340
41D
  0
GROUP
  5
41E
102
{ACAD_REACTORS
330
D
102
}
330
D
100
AcDbGroup
300

 70
     0
 71
     1
340
41F
340
420
340
421
340
422
  0
GROUP
  5
423
102
{ACAD_REACTORS
330
D
102
}
330
D
100
AcDbGroup
300

 70
     0
 71
     1
340
424
340
425
340
426
340
427
  0
GROUP
  5
428
102
{ACAD_REACTORS
330
D
102
}
330
D
100
AcDbGroup
300

 70
     0
 71
     1
340
429
340
42A
340
42B
340
42C
  0
GROUP
  5
42D
102
{ACAD_REACTORS
330
D
102
}
330
D
100
AcDbGroup
300

 70
     0
 71
     1
340
42E
340
42F
340
430
340
431
  0
GROUP
  5
432
102
{ACAD_REACTORS
330
D
102
}
330
D
100
AcDbGroup
300

 70
     0
 71
     1
340
433
340
434
340
435
340
436
  0
GROUP
  5
437
102
{ACAD_REACTORS
330
D
102
}
330
D
100
AcDbGroup
300

 70
     0
 71
     1
340
438
340
439
340
43A
340
43B
  0
GROUP
  5
43C
102
{ACAD_REACTORS
330
D
102
}
330
D
100
AcDbGroup
300

 70
     0
 71
     1
340
43D
340
43E
340
43F
340
440
  0
GROUP
  5
441
102
{ACAD_REACTORS
330
D
102
}
330
D
100
AcDbGroup
300

 70
     0
 71
     1
340
442
340
443
340
444
340
445
  0
GROUP
  5
17C
102
{ACAD_REACTORS
330
D
102
}
330
D
100
AcDbGroup
300

 70
     0
 71
     1
340
17D
340
17E
340
17F
340
180
340
181
340
182
340
183
340
184
340
185
340
186
340
187
340
188
340
189
340
18A
340
18B
340
18C
340
18D
340
18E
340
18F
340
190
340
191
340
192
340
193
340
194
340
195
340
196
340
197
340
198
340
199
340
19A
340
19B
340
19C
340
19D
340
19E
340
19F
340
1A0
340
1A1
340
1A2
340
1A3
340
1A4
340
1A5
340
1A6
340
1A7
340
1A8
340
1A9
340
1AA
340
1AB
340
1AC
340
1AD
340
1AE
340
1AF
340
1B0
340
1B1
340
1B2
340
1B3
340
1B4
340
1B5
340
1B6
340
1B7
340
1B8
340
1B9
340
1BA
340
1BB
340
1BC
340
1BD
340
1BE
340
1BF
340
1C0
340
1C1
340
1C2
340
1C3
340
1C4
340
1C5
340
1C6
340
1C7
340
1C8
340
1C9
340
1CA
340
1CB
340
1CC
340
1CD
340
1CE
340
1CF
340
1D0
340
1D1
340
1D2
340
1D3
340
1D4
340
1D5
340
1D6
340
1D7
340
1D8
340
1D9
340
1DA
340
1DB
340
1DC
340
1DD
340
1DE
340
1DF
340
1E0
340
1E1
340
1E2
340
1E3
340
1E4
340
1E5
340
1E6
340
1E7
340
1E8
  0
GROUP
  5
446
102
{ACAD_REACTORS
330
D
102
}
330
D
100
AcDbGroup
300

 70
     0
 71
     1
340
447
340
448
340
449
340
44A
  0
GROUP
  5
44B
102
{ACAD_REACTORS
330
D
102
}
330
D
100
AcDbGroup
300

 70
     0
 71
     1
340
44C
340
44D
340
44E
340
44F
  0
GROUP
  5
450
102
{ACAD_REACTORS
330
D
102
}
330
D
100
AcDbGroup
300

 70
     0
 71
     1
340
451
340
452
340
453
340
454
  0
GROUP
  5
455
102
{ACAD_REACTORS
330
D
102
}
330
D
100
AcDbGroup
300

 70
     0
 71
     1
340
456
340
457
340
458
340
459
  0
GROUP
  5
45A
102
{ACAD_REACTORS
330
D
102
}
330
D
100
AcDbGroup
300

 70
     0
 71
     1
340
45B
340
45C
340
45D
340
45E
  0
GROUP
  5
45F
102
{ACAD_REACTORS
330
D
102
}
330
D
100
AcDbGroup
300

 70
     0
 71
     1
340
460
340
461
340
462
340
463
  0
GROUP
  5
464
102
{ACAD_REACTORS
330
D
102
}
330
D
100
AcDbGroup
300

 70
     0
 71
     1
340
465
340
466
340
467
340
468
  0
GROUP
  5
469
102
{ACAD_REACTORS
330
D
102
}
330
D
100
AcDbGroup
300

 70
     0
 71
     1
340
46A
340
46B
340
46C
340
46D
  0
GROUP
  5
46E
102
{ACAD_REACTORS
330
D
102
}
330
D
100
AcDbGroup
300

 70
     0
 71
     1
340
46F
340
470
340
471
340
472
  0
GROUP
  5
473
102
{ACAD_REACTORS
330
D
102
}
330
D
100
AcDbGroup
300

 70
     0
 71
     1
340
474
340
475
340
476
340
477
  0
GROUP
  5
1E9
102
{ACAD_REACTORS
330
D
102
}
330
D
100
AcDbGroup
300

 70
     0
 71
     1
340
1EA
340
1EB
340
1EC
340
1ED
340
1EE
340
1EF
340
1F0
340
1F1
340
1F2
340
1F3
340
1F4
340
1F5
  0
GROUP
  5
478
102
{ACAD_REACTORS
330
D
102
}
330
D
100
AcDbGroup
300

 70
     0
 71
     1
340
479
340
47A
340
47B
340
47C
  0
GROUP
  5
47D
102
{ACAD_REACTORS
330
D
102
}
330
D
100
AcDbGroup
300

 70
     0
 71
     1
340
47E
340
47F
340
480
340
481
  0
GROUP
  5
53F
102
{ACAD_REACTORS
330
D
102
}
330
D
100
AcDbGroup
300

 70
     0
 71
     1
340
540
340
541
  0
GROUP
  5
542
102
{ACAD_REACTORS
330
D
102
}
330
D
100
AcDbGroup
300

 70
     0
 71
     1
340
543
340
544
  0
GROUP
  5
567
102
{ACAD_REACTORS
330
D
102
}
330
D
100
AcDbGroup
300

 70
     0
 71
     1
340
568
340
569
  0
GROUP
  5
571
102
{ACAD_REACTORS
330
D
102
}
330
D
100
AcDbGroup
300

 70
     0
 71
     1
340
572
340
573
  0
GROUP
  5
575
102
{ACAD_REACTORS
330
D
102
}
330
D
100
AcDbGroup
300

 70
     0
 71
     1
340
576
340
577
  0
GROUP
  5
578
102
{ACAD_REACTORS
330
D
102
}
330
D
100
AcDbGroup
300

 70
     0
 71
     1
340
579
340
57A
  0
GROUP
  5
57B
102
{ACAD_REACTORS
330
D
102
}
330
D
100
AcDbGroup
300

 70
     0
 71
     1
340
57C
340
57D
  0
GROUP
  5
57E
102
{ACAD_REACTORS
330
D
102
}
330
D
100
AcDbGroup
300

 70
     0
 71
     1
340
57F
340
580
  0
GROUP
  5
1F6
102
{ACAD_REACTORS
330
D
102
}
330
D
100
AcDbGroup
300

 70
     0
 71
     1
340
1F7
340
1F8
340
1F9
340
1FA
340
1FB
340
1FC
340
1FD
340
1FE
340
1FF
340
200
340
201
340
202
  0
GROUP
  5
587
102
{ACAD_REACTORS
330
D
102
}
330
D
100
AcDbGroup
300

 70
     0
 71
     1
340
588
340
589
  0
GROUP
  5
58A
102
{ACAD_REACTORS
330
D
102
}
330
D
100
AcDbGroup
300

 70
     0
 71
     1
340
58B
340
58C
  0
GROUP
  5
58E
102
{ACAD_REACTORS
330
D
102
}
330
D
100
AcDbGroup
300

 70
     0
 71
     1
340
58F
340
590
  0
GROUP
  5
595
102
{ACAD_REACTORS
330
D
102
}
330
D
100
AcDbGroup
300

 70
     0
 71
     1
340
596
340
597
  0
GROUP
  5
598
102
{ACAD_REACTORS
330
D
102
}
330
D
100
AcDbGroup
300

 70
     0
 71
     1
340
599
340
59A
  0
GROUP
  5
59B
102
{ACAD_REACTORS
330
D
102
}
330
D
100
AcDbGroup
300

 70
     0
 71
     1
340
59C
340
59D
  0
GROUP
  5
59E
102
{ACAD_REACTORS
330
D
102
}
330
D
100
AcDbGroup
300

 70
     0
 71
     1
340
59F
340
5A0
  0
GROUP
  5
5A1
102
{ACAD_REACTORS
330
D
102
}
330
D
100
AcDbGroup
300

 70
     0
 71
     1
340
5A2
340
5A3
  0
GROUP
  5
5A4
102
{ACAD_REACTORS
330
D
102
}
330
D
100
AcDbGroup
300

 70
     0
 71
     1
340
5A5
340
5A6
  0
GROUP
  5
5A7
102
{ACAD_REACTORS
330
D
102
}
330
D
100
AcDbGroup
300

 70
     0
 71
     1
340
5A8
340
5A9
  0
GROUP
  5
203
102
{ACAD_REACTORS
330
D
102
}
330
D
100
AcDbGroup
300

 70
     0
 71
     1
340
204
340
205
340
206
340
207
340
208
340
209
340
20A
340
20B
340
20C
340
20D
340
20E
340
20F
  0
GROUP
  5
5AD
102
{ACAD_REACTORS
330
D
102
}
330
D
100
AcDbGroup
300

 70
     0
 71
     1
340
5AE
340
5AF
  0
GROUP
  5
5B0
102
{ACAD_REACTORS
330
D
102
}
330
D
100
AcDbGroup
300

 70
     0
 71
     1
340
5B1
340
5B2
  0
GROUP
  5
5B3
102
{ACAD_REACTORS
330
D
102
}
330
D
100
AcDbGroup
300

 70
     0
 71
     1
340
5B4
340
5B5
  0
GROUP
  5
5C5
102
{ACAD_REACTORS
330
D
102
}
330
D
100
AcDbGroup
300

 70
     0
 71
     1
340
5C6
340
5C7
  0
GROUP
  5
5C8
102
{ACAD_REACTORS
330
D
102
}
330
D
100
AcDbGroup
300

 70
     0
 71
     1
340
5C9
340
5CA
  0
GROUP
  5
5D2
102
{ACAD_REACTORS
330
D
102
}
330
D
100
AcDbGroup
300

 70
     0
 71
     1
340
5D3
340
5D4
  0
GROUP
  5
5D5
102
{ACAD_REACTORS
330
D
102
}
330
D
100
AcDbGroup
300

 70
     0
 71
     1
340
5D6
340
5D7
  0
GROUP
  5
5E0
102
{ACAD_REACTORS
330
D
102
}
330
D
100
AcDbGroup
300

 70
     0
 71
     1
340
5E1
340
5E2
  0
GROUP
  5
210
102
{ACAD_REACTORS
330
D
102
}
330
D
100
AcDbGroup
300

 70
     0
 71
     1
340
211
340
212
340
213
340
214
340
215
340
216
340
217
340
218
340
219
340
21A
340
21B
340
21C
  0
GROUP
  5
21D
102
{ACAD_REACTORS
330
D
102
}
330
D
100
AcDbGroup
300

 70
     0
 71
     1
340
21E
340
21F
340
220
340
221
340
222
340
223
340
224
340
225
340
226
340
227
340
228
340
229
  0
GROUP
  5
22A
102
{ACAD_REACTORS
330
D
102
}
330
D
100
AcDbGroup
300

 70
     0
 71
     1
340
22B
340
22C
340
22D
340
22E
340
22F
340
230
340
231
340
232
340
233
340
234
340
235
340
236
  0
GROUP
  5
237
102
{ACAD_REACTORS
330
D
102
}
330
D
100
AcDbGroup
300

 70
     0
 71
     1
340
238
340
239
340
23A
340
23B
340
23C
340
23D
340
23E
340
23F
340
240
340
241
340
242
340
243
  0
GROUP
  5
102
102
{ACAD_REACTORS
330
D
102
}
330
D
100
AcDbGroup
300

 70
     0
 71
     1
340
103
340
104
340
105
340
106
  0
GROUP
  5
244
102
{ACAD_REACTORS
330
D
102
}
330
D
100
AcDbGroup
300

 70
     0
 71
     1
340
245
340
246
340
247
340
248
340
249
340
24A
340
24B
340
24C
340
24D
340
24E
340
24F
340
250
  0
GROUP
  5
251
102
{ACAD_REACTORS
330
D
102
}
330
D
100
AcDbGroup
300

 70
     0
 71
     1
340
252
340
253
340
254
340
255
340
256
  0
GROUP
  5
257
102
{ACAD_REACTORS
330
D
102
}
330
D
100
AcDbGroup
300

 70
     0
 71
     1
340
258
340
259
340
25A
340
25B
340
25C
  0
GROUP
  5
25D
102
{ACAD_REACTORS
330
D
102
}
330
D
100
AcDbGroup
300

 70
     0
 71
     1
340
25E
340
25F
340
260
340
261
340
262
340
263
340
264
340
265
  0
GROUP
  5
266
102
{ACAD_REACTORS
330
D
102
}
330
D
100
AcDbGroup
300

 70
     0
 71
     1
340
267
340
268
340
269
340
26A
  0
GROUP
  5
26B
102
{ACAD_REACTORS
330
D
102
}
330
D
100
AcDbGroup
300

 70
     0
 71
     1
340
26C
340
26D
340
26E
340
26F
  0
GROUP
  5
270
102
{ACAD_REACTORS
330
D
102
}
330
D
100
AcDbGroup
300

 70
     0
 71
     1
340
271
340
272
340
273
340
274
  0
GROUP
  5
275
102
{ACAD_REACTORS
330
D
102
}
330
D
100
AcDbGroup
300

 70
     0
 71
     1
340
276
340
277
340
278
340
279
  0
GROUP
  5
27A
102
{ACAD_REACTORS
330
D
102
}
330
D
100
AcDbGroup
300

 70
     0
 71
     1
340
27B
340
27C
340
27D
340
27E
  0
GROUP
  5
27F
102
{ACAD_REACTORS
330
D
102
}
330
D
100
AcDbGroup
300

 70
     0
 71
     1
340
280
340
281
340
282
340
283
  0
GROUP
  5
107
102
{ACAD_REACTORS
330
D
102
}
330
D
100
AcDbGroup
300

 70
     0
 71
     1
340
108
340
109
340
10A
340
10B
340
10C
340
10D
340
10E
340
10F
340
110
340
111
340
112
340
113
  0
GROUP
  5
284
102
{ACAD_REACTORS
330
D
102
}
330
D
100
AcDbGroup
300

 70
     0
 71
     1
340
285
340
286
340
287
340
288
  0
GROUP
  5
289
102
{ACAD_REACTORS
330
D
102
}
330
D
100
AcDbGroup
300

 70
     0
 71
     1
340
28A
340
28B
340
28C
340
28D
  0
GROUP
  5
28E
102
{ACAD_REACTORS
330
D
102
}
330
D
100
AcDbGroup
300

 70
     0
 71
     1
340
28F
340
290
340
291
340
292
  0
GROUP
  5
293
102
{ACAD_REACTORS
330
D
102
}
330
D
100
AcDbGroup
300

 70
     0
 71
     1
340
294
340
295
340
296
340
297
  0
GROUP
  5
298
102
{ACAD_REACTORS
330
D
102
}
330
D
100
AcDbGroup
300

 70
     0
 71
     1
340
299
340
29A
340
29B
340
29C
  0
GROUP
  5
29D
102
{ACAD_REACTORS
330
D
102
}
330
D
100
AcDbGroup
300

 70
     0
 71
     1
340
29E
340
29F
340
2A0
340
2A1
  0
GROUP
  5
2A2
102
{ACAD_REACTORS
330
D
102
}
330
D
100
AcDbGroup
300

 70
     0
 71
     1
340
2A3
340
2A4
340
2A5
340
2A6
  0
GROUP
  5
2A7
102
{ACAD_REACTORS
330
D
102
}
330
D
100
AcDbGroup
300

 70
     0
 71
     1
340
2A8
340
2A9
340
2AA
340
2AB
  0
GROUP
  5
2AC
102
{ACAD_REACTORS
330
D
102
}
330
D
100
AcDbGroup
300

 70
     0
 71
     1
340
2AD
340
2AE
340
2AF
340
2B0
  0
GROUP
  5
2B1
102
{ACAD_REACTORS
330
D
102
}
330
D
100
AcDbGroup
300

 70
     0
 71
     1
340
2B2
340
2B3
340
2B4
340
2B5
  0
GROUP
  5
114
102
{ACAD_REACTORS
330
D
102
}
330
D
100
AcDbGroup
300

 70
     0
 71
     1
340
115
340
116
340
117
340
118
340
119
340
11A
340
11B
340
11C
340
11D
340
11E
340
11F
340
120
  0
GROUP
  5
2B6
102
{ACAD_REACTORS
330
D
102
}
330
D
100
AcDbGroup
300

 70
     0
 71
     1
340
2B7
340
2B8
340
2B9
340
2BA
  0
GROUP
  5
2BB
102
{ACAD_REACTORS
330
D
102
}
330
D
100
AcDbGroup
300

 70
     0
 71
     1
340
2BC
340
2BD
340
2BE
340
2BF
  0
GROUP
  5
2C0
102
{ACAD_REACTORS
330
D
102
}
330
D
100
AcDbGroup
300

 70
     0
 71
     1
340
2C1
340
2C2
340
2C3
340
2C4
  0
GROUP
  5
2C5
102
{ACAD_REACTORS
330
D
102
}
330
D
100
AcDbGroup
300

 70
     0
 71
     1
340
2C6
340
2C7
340
2C8
340
2C9
  0
GROUP
  5
2CA
102
{ACAD_REACTORS
330
D
102
}
330
D
100
AcDbGroup
300

 70
     0
 71
     1
340
2CB
340
2CC
340
2CD
340
2CE
  0
GROUP
  5
2CF
102
{ACAD_REACTORS
330
D
102
}
330
D
100
AcDbGroup
300

 70
     0
 71
     1
340
2D0
340
2D1
340
2D2
340
2D3
  0
GROUP
  5
2D4
102
{ACAD_REACTORS
330
D
102
}
330
D
100
AcDbGroup
300

 70
     0
 71
     1
340
2D5
340
2D6
340
2D7
340
2D8
  0
GROUP
  5
2D9
102
{ACAD_REACTORS
330
D
102
}
330
D
100
AcDbGroup
300

 70
     0
 71
     1
340
2DA
340
2DB
340
2DC
340
2DD
  0
GROUP
  5
2DE
102
{ACAD_REACTORS
330
D
102
}
330
D
100
AcDbGroup
300

 70
     0
 71
     1
340
2DF
340
2E0
340
2E1
340
2E2
  0
GROUP
  5
2E3
102
{ACAD_REACTORS
330
D
102
}
330
D
100
AcDbGroup
300

 70
     0
 71
     1
340
2E4
340
2E5
340
2E6
340
2E7
  0
GROUP
  5
121
102
{ACAD_REACTORS
330
D
102
}
330
D
100
AcDbGroup
300

 70
     0
 71
     1
340
122
340
123
340
124
340
125
340
126
340
127
340
128
340
129
340
12A
340
12B
340
12C
340
12D
  0
GROUP
  5
2E8
102
{ACAD_REACTORS
330
D
102
}
330
D
100
AcDbGroup
300

 70
     0
 71
     1
340
2E9
340
2EA
340
2EB
340
2EC
  0
GROUP
  5
2ED
102
{ACAD_REACTORS
330
D
102
}
330
D
100
AcDbGroup
300

 70
     0
 71
     1
340
2EE
340
2EF
340
2F0
340
2F1
  0
GROUP
  5
2F2
102
{ACAD_REACTORS
330
D
102
}
330
D
100
AcDbGroup
300

 70
     0
 71
     1
340
2F3
340
2F4
340
2F5
340
2F6
  0
GROUP
  5
2F7
102
{ACAD_REACTORS
330
D
102
}
330
D
100
AcDbGroup
300

 70
     0
 71
     1
340
2F8
340
2F9
340
2FA
340
2FB
  0
GROUP
  5
2FC
102
{ACAD_REACTORS
330
D
102
}
330
D
100
AcDbGroup
300

 70
     0
 71
     1
340
2FD
340
2FE
340
2FF
340
300
  0
GROUP
  5
301
102
{ACAD_REACTORS
330
D
102
}
330
D
100
AcDbGroup
300

 70
     0
 71
     1
340
302
340
303
340
304
340
305
  0
GROUP
  5
306
102
{ACAD_REACTORS
330
D
102
}
330
D
100
AcDbGroup
300

 70
     0
 71
     1
340
307
340
308
340
309
340
30A
  0
GROUP
  5
30B
102
{ACAD_REACTORS
330
D
102
}
330
D
100
AcDbGroup
300

 70
     0
 71
     1
340
30C
340
30D
340
30E
340
30F
  0
GROUP
  5
310
102
{ACAD_REACTORS
330
D
102
}
330
D
100
AcDbGroup
300

 70
     0
 71
     1
340
311
340
312
340
313
340
314
  0
GROUP
  5
315
102
{ACAD_REACTORS
330
D
102
}
330
D
100
AcDbGroup
300

 70
     0
 71
     1
340
316
340
317
340
318
340
319
  0
GROUP
  5
12E
102
{ACAD_REACTORS
330
D
102
}
330
D
100
AcDbGroup
300

 70
     0
 71
     1
340
12F
340
130
340
131
340
132
340
133
340
134
340
135
340
136
340
137
340
138
340
139
340
13A
  0
GROUP
  5
31A
102
{ACAD_REACTORS
330
D
102
}
330
D
100
AcDbGroup
300

 70
     0
 71
     1
340
31B
340
31C
340
31D
340
31E
  0
GROUP
  5
31F
102
{ACAD_REACTORS
330
D
102
}
330
D
100
AcDbGroup
300

 70
     0
 71
     1
340
320
340
321
340
322
340
323
  0
GROUP
  5
324
102
{ACAD_REACTORS
330
D
102
}
330
D
100
AcDbGroup
300

 70
     0
 71
     1
340
325
340
326
340
327
340
328
  0
GROUP
  5
329
102
{ACAD_REACTORS
330
D
102
}
330
D
100
AcDbGroup
300

 70
     0
 71
     1
340
32A
340
32B
340
32C
340
32D
  0
GROUP
  5
32E
102
{ACAD_REACTORS
330
D
102
}
330
D
100
AcDbGroup
300

 70
     0
 71
     1
340
32F
340
330
340
331
340
332
  0
GROUP
  5
333
102
{ACAD_REACTORS
330
D
102
}
330
D
100
AcDbGroup
300

 70
     0
 71
     1
340
334
340
335
340
336
340
337
  0
GROUP
  5
338
102
{ACAD_REACTORS
330
D
102
}
330
D
100
AcDbGroup
300

 70
     0
 71
     1
340
339
340
33A
340
33B
340
33C
  0
GROUP
  5
33D
102
{ACAD_REACTORS
330
D
102
}
330
D
100
AcDbGroup
300

 70
     0
 71
     1
340
33E
340
33F
340
340
340
341
  0
GROUP
  5
342
102
{ACAD_REACTORS
330
D
102
}
330
D
100
AcDbGroup
300

 70
     0
 71
     1
340
343
340
344
340
345
340
346
  0
GROUP
  5
347
102
{ACAD_REACTORS
330
D
102
}
330
D
100
AcDbGroup
300

 70
     0
 71
     1
340
348
340
349
340
34A
340
34B
  0
GROUP
  5
13B
102
{ACAD_REACTORS
330
D
102
}
330
D
100
AcDbGroup
300

 70
     0
 71
     1
340
13C
340
13D
340
13E
340
13F
340
140
340
141
340
142
340
143
340
144
340
145
340
146
340
147
  0
GROUP
  5
34C
102
{ACAD_REACTORS
330
D
102
}
330
D
100
AcDbGroup
300

 70
     0
 71
     1
340
34D
340
34E
340
34F
340
350
  0
GROUP
  5
351
102
{ACAD_REACTORS
330
D
102
}
330
D
100
AcDbGroup
300

 70
     0
 71
     1
340
352
340
353
340
354
340
355
  0
GROUP
  5
356
102
{ACAD_REACTORS
330
D
102
}
330
D
100
AcDbGroup
300

 70
     0
 71
     1
340
357
340
358
340
359
340
35A
  0
GROUP
  5
35B
102
{ACAD_REACTORS
330
D
102
}
330
D
100
AcDbGroup
300

 70
     0
 71
     1
340
35C
340
35D
340
35E
340
35F
  0
GROUP
  5
360
102
{ACAD_REACTORS
330
D
102
}
330
D
100
AcDbGroup
300

 70
     0
 71
     1
340
361
340
362
340
363
340
364
  0
GROUP
  5
365
102
{ACAD_REACTORS
330
D
102
}
330
D
100
AcDbGroup
300

 70
     0
 71
     1
340
366
340
367
340
368
340
369
  0
GROUP
  5
36A
102
{ACAD_REACTORS
330
D
102
}
330
D
100
AcDbGroup
300

 70
     0
 71
     1
340
36B
340
36C
340
36D
340
36E
  0
GROUP
  5
36F
102
{ACAD_REACTORS
330
D
102
}
330
D
100
AcDbGroup
300

 70
     0
 71
     1
340
370
340
371
340
372
340
373
  0
GROUP
  5
374
102
{ACAD_REACTORS
330
D
102
}
330
D
100
AcDbGroup
300

 70
     0
 71
     1
340
375
340
376
340
377
340
378
  0
GROUP
  5
379
102
{ACAD_REACTORS
330
D
102
}
330
D
100
AcDbGroup
300

 70
     0
 71
     1
340
37A
340
37B
340
37C
340
37D
  0
GROUP
  5
148
102
{ACAD_REACTORS
330
D
102
}
330
D
100
AcDbGroup
300

 70
     0
 71
     1
340
149
340
14A
340
14B
340
14C
340
14D
340
14E
340
14F
340
150
340
151
340
152
340
153
340
154
  0
GROUP
  5
37E
102
{ACAD_REACTORS
330
D
102
}
330
D
100
AcDbGroup
300

 70
     0
 71
     1
340
37F
340
380
340
381
340
382
  0
GROUP
  5
383
102
{ACAD_REACTORS
330
D
102
}
330
D
100
AcDbGroup
300

 70
     0
 71
     1
340
384
340
385
340
386
340
387
  0
GROUP
  5
388
102
{ACAD_REACTORS
330
D
102
}
330
D
100
AcDbGroup
300

 70
     0
 71
     1
340
389
340
38A
340
38B
340
38C
  0
GROUP
  5
38D
102
{ACAD_REACTORS
330
D
102
}
330
D
100
AcDbGroup
300

 70
     0
 71
     1
340
38E
340
38F
340
390
340
391
  0
GROUP
  5
392
102
{ACAD_REACTORS
330
D
102
}
330
D
100
AcDbGroup
300

 70
     0
 71
     1
340
393
340
394
340
395
340
396
  0
GROUP
  5
397
102
{ACAD_REACTORS
330
D
102
}
330
D
100
AcDbGroup
300

 70
     0
 71
     1
340
398
340
399
340
39A
340
39B
  0
GROUP
  5
39C
102
{ACAD_REACTORS
330
D
102
}
330
D
100
AcDbGroup
300

 70
     0
 71
     1
340
39D
340
39E
340
39F
340
3A0
  0
GROUP
  5
3A1
102
{ACAD_REACTORS
330
D
102
}
330
D
100
AcDbGroup
300

 70
     0
 71
     1
340
3A2
340
3A3
340
3A4
340
3A5
  0
GROUP
  5
3A6
102
{ACAD_REACTORS
330
D
102
}
330
D
100
AcDbGroup
300

 70
     0
 71
     1
340
3A7
340
3A8
340
3A9
340
3AA
  0
GROUP
  5
3AB
102
{ACAD_REACTORS
330
D
102
}
330
D
100
AcDbGroup
300

 70
     0
 71
     1
340
3AC
340
3AD
340
3AE
340
3AF
  0
GROUP
  5
155
102
{ACAD_REACTORS
330
D
102
}
330
D
100
AcDbGroup
300

 70
     0
 71
     1
340
156
340
157
340
158
340
159
340
15A
340
15B
340
15C
340
15D
340
15E
340
15F
340
160
340
161
  0
GROUP
  5
3B0
102
{ACAD_REACTORS
330
D
102
}
330
D
100
AcDbGroup
300

 70
     0
 71
     1
340
3B1
340
3B2
340
3B3
340
3B4
  0
GROUP
  5
3B5
102
{ACAD_REACTORS
330
D
102
}
330
D
100
AcDbGroup
300

 70
     0
 71
     1
340
3B6
340
3B7
340
3B8
340
3B9
  0
GROUP
  5
3BA
102
{ACAD_REACTORS
330
D
102
}
330
D
100
AcDbGroup
300

 70
     0
 71
     1
340
3BB
340
3BC
340
3BD
340
3BE
  0
GROUP
  5
3BF
102
{ACAD_REACTORS
330
D
102
}
330
D
100
AcDbGroup
300

 70
     0
 71
     1
340
3C0
340
3C1
340
3C2
340
3C3
  0
GROUP
  5
3C4
102
{ACAD_REACTORS
330
D
102
}
330
D
100
AcDbGroup
300

 70
     0
 71
     1
340
3C5
340
3C6
340
3C7
340
3C8
  0
GROUP
  5
3C9
102
{ACAD_REACTORS
330
D
102
}
330
D
100
AcDbGroup
300

 70
     0
 71
     1
340
3CA
340
3CB
340
3CC
340
3CD
  0
GROUP
  5
3CE
102
{ACAD_REACTORS
330
D
102
}
330
D
100
AcDbGroup
300

 70
     0
 71
     1
340
3CF
340
3D0
340
3D1
340
3D2
  0
GROUP
  5
3D3
102
{ACAD_REACTORS
330
D
102
}
330
D
100
AcDbGroup
300

 70
     0
 71
     1
340
3D4
340
3D5
340
3D6
340
3D7
  0
GROUP
  5
3D8
102
{ACAD_REACTORS
330
D
102
}
330
D
100
AcDbGroup
300

 70
     0
 71
     1
340
3D9
340
3DA
340
3DB
340
3DC
  0
GROUP
  5
3DD
102
{ACAD_REACTORS
330
D
102
}
330
D
100
AcDbGroup
300

 70
     0
 71
     1
340
3DE
340
3DF
340
3E0
340
3E1
  0
LAYOUT
  5
20
102
{ACAD_XDICTIONARY
360
5FE
102
}
102
{ACAD_REACTORS
330
1A
102
}
330
1A
100
AcDbPlotSettings
  1

  2

  4

  6

 40
0.0
 41
0.0
 42
0.0
 43
0.0
 44
0.0
 45
0.0
 46
0.0
 47
0.0
 48
0.0
 49
0.0
140
0.0
141
0.0
142
1.0
143
1.0
 70
   688
 72
     0
 73
     0
 74
     5
  7

 75
    16
147
1.0
148
0.0
149
0.0
100
AcDbLayout
  1
Layout1
 70
     1
 71
     1
 10
0.0
 20
0.0
 11
12.0
 21
9.0
 12
0.0
 22
0.0
 32
0.0
 14
0.0
 24
0.0
 34
0.0
 15
0.0
 25
0.0
 35
0.0
146
0.0
 13
0.0
 23
0.0
 33
0.0
 16
1.0
 26
0.0
 36
0.0
 17
0.0
 27
1.0
 37
0.0
 76
     0
330
1D
  0
LAYOUT
  5
28
102
{ACAD_XDICTIONARY
360
602
102
}
102
{ACAD_REACTORS
330
1A
102
}
330
1A
100
AcDbPlotSettings
  1

  2

  4

  6

 40
0.0
 41
0.0
 42
0.0
 43
0.0
 44
0.0
 45
0.0
 46
0.0
 47
0.0
 48
0.0
 49
0.0
140
0.0
141
0.0
142
1.0
143
1.0
 70
   688
 72
     0
 73
     0
 74
     5
  7

 75
    16
147
1.0
148
0.0
149
0.0
100
AcDbLayout
  1
Layout2
 70
     1
 71
     2
 10
0.0
 20
0.0
 11
12.0
 21
9.0
 12
0.0
 22
0.0
 32
0.0
 14
0.0
 24
0.0
 34
0.0
 15
0.0
 25
0.0
 35
0.0
146
0.0
 13
0.0
 23
0.0
 33
0.0
 16
1.0
 26
0.0
 36
0.0
 17
0.0
 27
1.0
 37
0.0
 76
     0
330
25
  0
LAYOUT
  5
24
102
{ACAD_XDICTIONARY
360
600
102
}
102
{ACAD_REACTORS
330
1A
102
}
330
1A
100
AcDbPlotSettings
  1

  2

  4

  6

 40
0.0
 41
0.0
 42
0.0
 43
0.0
 44
0.0
 45
0.0
 46
0.0
 47
0.0
 48
0.0
 49
0.0
140
0.0
141
0.0
142
1.0
143
1.0
 70
  1712
 72
     0
 73
     0
 74
     0
  7

 75
     0
147
1.0
148
0.0
149
0.0
100
AcDbLayout
  1
Model
 70
     1
 71
     0
 10
0.0
 20
0.0
 11
12.0
 21
9.0
 12
0.0
 22
0.0
 32
0.0
 14
0.0
 24
0.0
 34
0.0
 15
0.0
 25
0.0
 35
0.0
146
0.0
 13
0.0
 23
0.0
 33
0.0
 16
1.0
 26
0.0
 36
0.0
 17
0.0
 27
1.0
 37
0.0
 76
     0
330
21
  0
MLINESTYLE
  5
18
102
{ACAD_REACTORS
330
17
102
}
330
17
100
AcDbMlineStyle
  2
STANDARD
 70
     0
  3

 62
   256
 51
90.0
 52
90.0
 71
     2
 49
0.5
 62
   256
  6
BYLAYER
 49
-0.5
 62
   256
  6
BYLAYER
  0
ACDBPLACEHOLDER
  5
F
102
{ACAD_REACTORS
330
E
102
}
330
E
  0
DICTIONARYVAR
  5
5FB
102
{ACAD_REACTORS
330
5F9
102
}
330
5F9
100
DictionaryVariables
280
     0
  1
2
  0
DICTIONARYVAR
  5
5FA
102
{ACAD_REACTORS
330
5F9
102
}
330
5F9
100
DictionaryVariables
280
     0
  1
1
  0
DICTIONARYVAR
  5
5FC
102
{ACAD_REACTORS
330
5F9
102
}
330
5F9
100
DictionaryVariables
280
     0
  1

  0
DICTIONARY
  5
5FE
330
20
100
AcDbDictionary
280
     1
281
     1
  3
ACAD_XREC_ROUNDTRIP
360
5FF
  0
DICTIONARY
  5
602
330
28
100
AcDbDictionary
280
     1
281
     1
  3
ACAD_XREC_ROUNDTRIP
360
603
  0
DICTIONARY
  5
600
330
24
100
AcDbDictionary
280
     1
281
     1
  3
ACAD_XREC_ROUNDTRIP
360
601
  0
XRECORD
  5
5FF
102
{ACAD_REACTORS
330
5FE
102
}
330
5FE
100
AcDbXrecord
280
     1
102
SHADEPLOT
 70
     0
102
SHADEPLOTRESLEVEL
 70
     2
102
SHADEPLOTCUSTOMDPI
 70
   300
  0
XRECORD
  5
603
102
{ACAD_REACTORS
330
602
102
}
330
602
100
AcDbXrecord
280
     1
102
SHADEPLOT
 70
     0
102
SHADEPLOTRESLEVEL
 70
     2
102
SHADEPLOTCUSTOMDPI
 70
   300
  0
XRECORD
  5
601
102
{ACAD_REACTORS
330
600
102
}
330
600
100
AcDbXrecord
280
     1
102
SHADEPLOT
 70
     0
102
SHADEPLOTRESLEVEL
 70
     2
102
SHADEPLOTCUSTOMDPI
 70
   300
  0
ENDSEC
  0
EOF
