  0
SECTION
  2
HEADER
  9
$ACADVER
  1
AC1015
  9
$ACADMAINTVER
 70
    18
  9
$DWGCODEPAGE
  3
ANSI_1252
  9
$INSBASE
 10
0.0
 20
0.0
 30
0.0
  9
$EXTMIN
 10
-6.016900323381834
 20
-37.24936071457032
 30
-0.00000001
  9
$EXTMAX
 10
43.45715591987677
 20
-5.399360428921808
 30
0.00000001
  9
$LIMMIN
 10
-514.2810890992913
 20
-1556.260955158268
  9
$LIMMAX
 10
1824.301588066063
 20
97.28235192834587
  9
$ORTHOMODE
 70
     0
  9
$REGENMODE
 70
     1
  9
$FILLMODE
 70
     1
  9
$QTEXTMODE
 70
     0
  9
$MIRRTEXT
 70
     0
  9
$LTSCALE
 40
0.254
  9
$ATTMODE
 70
     1
  9
$TEXTSIZE
 40
2.02
  9
$TRACEWID
 40
0.05
  9
$TEXTSTYLE
  7
Standard
  9
$CLAYER
  8
0
  9
$CELTYPE
  6
ByLayer
  9
$CECOLOR
 62
     0
  9
$CELTSCALE
 40
1.0
  9
$DISPSILH
 70
     0
  9
$DIMSCALE
 40
1.0
  9
$DIMASZ
 40
0.18
  9
$DIMEXO
 40
0.0625
  9
$DIMDLI
 40
0.38
  9
$DIMRND
 40
0.0
  9
$DIMDLE
 40
0.0
  9
$DIMEXE
 40
0.18
  9
$DIMTP
 40
0.0
  9
$DIMTM
 40
0.0
  9
$DIMTXT
 40
31.49606299212599
  9
$DIMCEN
 40
0.09
  9
$DIMTSZ
 40
0.0
  9
$DIMTOL
 70
     0
  9
$DIMLIM
 70
     0
  9
$DIMTIH
 70
     1
  9
$DIMTOH
 70
     1
  9
$DIMSE1
 70
     0
  9
$DIMSE2
 70
     0
  9
$DIMTAD
 70
     0
  9
$DIMZIN
 70
     0
  9
$DIMBLK
  1

  9
$DIMASO
 70
     1
  9
$DIMSHO
 70
     1
  9
$DIMPOST
  1

  9
$DIMAPOST
  1

  9
$DIMALT
 70
     0
  9
$DIMALTD
 70
     2
  9
$DIMALTF
 40
25.4
  9
$DIMLFAC
 40
1.0
  9
$DIMTOFL
 70
     0
  9
$DIMTVP
 40
0.0
  9
$DIMTIX
 70
     0
  9
$DIMSOXD
 70
     0
  9
$DIMSAH
 70
     0
  9
$DIMBLK1
  1

  9
$DIMBLK2
  1

  9
$DIMSTYLE
  2
Standard
  9
$DIMCLRD
 70
     0
  9
$DIMCLRE
 70
     0
  9
$DIMCLRT
 70
     0
  9
$DIMTFAC
 40
1.0
  9
$DIMGAP
 40
0.09
  9
$DIMJUST
 70
     0
  9
$DIMSD1
 70
     0
  9
$DIMSD2
 70
     0
  9
$DIMTOLJ
 70
     1
  9
$DIMTZIN
 70
     0
  9
$DIMALTZ
 70
     0
  9
$DIMALTTZ
 70
     0
  9
$DIMUPT
 70
     0
  9
$DIMDEC
 70
     4
  9
$DIMTDEC
 70
     4
  9
$DIMALTU
 70
     2
  9
$DIMALTTD
 70
     2
  9
$DIMTXSTY
  7
Standard
  9
$DIMAUNIT
 70
     1
  9
$DIMADEC
 70
     0
  9
$DIMALTRND
 40
0.0
  9
$DIMAZIN
 70
     0
  9
$DIMDSEP
 70
    46
  9
$DIMATFIT
 70
     3
  9
$DIMFRAC
 70
     0
  9
$DIMLDRBLK
  1

  9
$DIMLUNIT
 70
     4
  9
$DIMLWD
 70
    -2
  9
$DIMLWE
 70
    -2
  9
$DIMTMOVE
 70
     0
  9
$LUNITS
 70
     2
  9
$LUPREC
 70
     4
  9
$SKETCHINC
 40
0.1
  9
$FILLETRAD
 40
0.005
  9
$AUNITS
 70
     0
  9
$AUPREC
 70
     0
  9
$MENU
  1
.
  9
$ELEVATION
 40
0.0
  9
$PELEVATION
 40
0.0
  9
$THICKNESS
 40
0.0
  9
$LIMCHECK
 70
     0
  9
$CHAMFERA
 40
0.005
  9
$CHAMFERB
 40
0.005
  9
$CHAMFERC
 40
0.0
  9
$CHAMFERD
 40
0.0
  9
$SKPOLY
 70
     0
  9
$TDCREATE
 40
2453531.696050706
  9
$TDUCREATE
 40
2453531.612717373
  9
$TDUPDATE
 40
2453531.696050706
  9
$TDUUPDATE
 40
2453531.612717373
  9
$TDINDWG
 40
0.0000117593
  9
$TDUSRTIMER
 40
0.0000117593
  9
$USRTIMER
 70
     1
  9
$ANGBASE
 50
0.0
  9
$ANGDIR
 70
     0
  9
$PDMODE
 70
     0
  9
$PDSIZE
 40
0.0
  9
$PLINEWID
 40
0.0
  9
$SPLFRAME
 70
     0
  9
$SPLINETYPE
 70
     6
  9
$SPLINESEGS
 70
     8
  9
$HANDSEED
  5
1B6
  9
$SURFTAB1
 70
     6
  9
$SURFTAB2
 70
     6
  9
$SURFTYPE
 70
     6
  9
$SURFU
 70
     6
  9
$SURFV
 70
     6
  9
$UCSBASE
  2

  9
$UCSNAME
  2

  9
$UCSORG
 10
0.0
 20
0.0
 30
0.0
  9
$UCSXDIR
 10
1.0
 20
0.0
 30
0.0
  9
$UCSYDIR
 10
0.0
 20
1.0
 30
0.0
  9
$UCSORTHOREF
  2

  9
$UCSORTHOVIEW
 70
     0
  9
$UCSORGTOP
 10
0.0
 20
0.0
 30
0.0
  9
$UCSORGBOTTOM
 10
0.0
 20
0.0
 30
0.0
  9
$UCSORGLEFT
 10
0.0
 20
0.0
 30
0.0
  9
$UCSORGRIGHT
 10
0.0
 20
0.0
 30
0.0
  9
$UCSORGFRONT
 10
0.0
 20
0.0
 30
0.0
  9
$UCSORGBACK
 10
0.0
 20
0.0
 30
0.0
  9
$PUCSBASE
  2

  9
$PUCSNAME
  2

  9
$PUCSORG
 10
0.0
 20
0.0
 30
0.0
  9
$PUCSXDIR
 10
1.0
 20
0.0
 30
0.0
  9
$PUCSYDIR
 10
0.0
 20
1.0
 30
0.0
  9
$PUCSORTHOREF
  2

  9
$PUCSORTHOVIEW
 70
     0
  9
$PUCSORGTOP
 10
0.0
 20
0.0
 30
0.0
  9
$PUCSORGBOTTOM
 10
0.0
 20
0.0
 30
0.0
  9
$PUCSORGLEFT
 10
0.0
 20
0.0
 30
0.0
  9
$PUCSORGRIGHT
 10
0.0
 20
0.0
 30
0.0
  9
$PUCSORGFRONT
 10
0.0
 20
0.0
 30
0.0
  9
$PUCSORGBACK
 10
0.0
 20
0.0
 30
0.0
  9
$USERI1
 70
     0
  9
$USERI2
 70
     0
  9
$USERI3
 70
     0
  9
$USERI4
 70
     0
  9
$USERI5
 70
     0
  9
$USERR1
 40
0.0
  9
$USERR2
 40
0.0
  9
$USERR3
 40
0.0
  9
$USERR4
 40
0.0
  9
$USERR5
 40
0.0
  9
$WORLDVIEW
 70
     1
  9
$SHADEDGE
 70
     3
  9
$SHADEDIF
 70
    70
  9
$TILEMODE
 70
     1
  9
$MAXACTVP
 70
    64
  9
$PINSBASE
 10
0.0
 20
0.0
 30
0.0
  9
$PLIMCHECK
 70
     0
  9
$PEXTMIN
 10
1.000000000000000E+20
 20
1.000000000000000E+20
 30
1.000000000000000E+20
  9
$PEXTMAX
 10
-1.000000000000000E+20
 20
-1.000000000000000E+20
 30
-1.000000000000000E+20
  9
$PLIMMIN
 10
0.0
 20
0.0
  9
$PLIMMAX
 10
12.0
 20
9.0
  9
$UNITMODE
 70
     0
  9
$VISRETAIN
 70
     1
  9
$PLINEGEN
 70
     0
  9
$PSLTSCALE
 70
     1
  9
$TREEDEPTH
 70
  3020
  9
$CMLSTYLE
  2
Standard
  9
$CMLJUST
 70
     0
  9
$CMLSCALE
 40
1.0
  9
$PROXYGRAPHICS
 70
     1
  9
$MEASUREMENT
 70
     1
  9
$CELWEIGHT
370
    -1
  9
$ENDCAPS
280
     0
  9
$JOINSTYLE
280
     0
  9
$LWDISPLAY
290
     0
  9
$INSUNITS
 70
     0
  9
$HYPERLINKBASE
  1

  9
$STYLESHEET
  1

  9
$XEDIT
290
     1
  9
$CEPSNTYPE
380
     0
  9
$PSTYLEMODE
290
     1
  9
$FINGERPRINTGUID
  2
{DADF067D-18BA-40C5-ACE1-D09906653799}
  9
$VERSIONGUID
  2
{A4219962-B62C-4B9A-B551-A5A5FA62C994}
  9
$EXTNAMES
290
     1
  9
$PSVPSCALE
 40
0.0
  9
$OLESTARTUP
290
     0
  0
ENDSEC
  0
SECTION
  2
CLASSES
  0
CLASS
  1
ACDBDICTIONARYWDFLT
  2
AcDbDictionaryWithDefault
  3
ObjectDBX Classes
 90
        0
280
     0
281
     0
  0
CLASS
  1
DICTIONARYVAR
  2
AcDbDictionaryVar
  3
ObjectDBX Classes
 90
        0
280
     0
281
     0
  0
CLASS
  1
ACDBPLACEHOLDER
  2
AcDbPlaceHolder
  3
ObjectDBX Classes
 90
        0
280
     0
281
     0
  0
CLASS
  1
LAYOUT
  2
AcDbLayout
  3
ObjectDBX Classes
 90
        0
280
     0
281
     0
  0
ENDSEC
  0
SECTION
  2
TABLES
  0
TABLE
  2
VPORT
  5
8
330
0
100
AcDbSymbolTable
 70
     1
  0
VPORT
  5
13
330
8
100
AcDbSymbolTableRecord
100
AcDbViewportTableRecord
  2
*Active
 70
     0
 10
0.0
 20
0.0
 11
1.0
 21
1.0
 12
397.86970493374
 22
-1507.619779194095
 13
0.0
 23
0.0
 14
1.0
 24
1.0
 15
0.0
 25
0.0
 16
0.0
 26
0.0
 36
1.0
 17
0.0
 27
0.0
 37
0.0
 40
97.28235192834587
 41
18.75264682549788
 42
50.0
 43
0.0
 44
0.0
 50
0.0
 51
0.0
 71
     0
 72
   100
 73
     1
 74
     1
 75
     0
 76
     0
 77
     0
 78
     0
281
     0
 65
     1
110
0.0
120
0.0
130
0.0
111
1.0
121
0.0
131
0.0
112
0.0
122
1.0
132
0.0
 79
     0
146
0.0
  0
ENDTAB
  0
TABLE
  2
LTYPE
  5
5
330
0
100
AcDbSymbolTable
 70
    47
  0
LTYPE
  5
14
330
5
100
AcDbSymbolTableRecord
100
AcDbLinetypeTableRecord
  2
ByBlock
 70
     0
  3

 72
    65
 73
     0
 40
0.0
  0
LTYPE
  5
15
330
5
100
AcDbSymbolTableRecord
100
AcDbLinetypeTableRecord
  2
ByLayer
 70
     0
  3

 72
    65
 73
     0
 40
0.0
  0
LTYPE
  5
16
330
5
100
AcDbSymbolTableRecord
100
AcDbLinetypeTableRecord
  2
Continuous
 70
     0
  3
Solid line
 72
    65
 73
     0
 40
0.0
  0
LTYPE
  5
2A
330
5
100
AcDbSymbolTableRecord
100
AcDbLinetypeTableRecord
  2
HIDDEN
 70
     0
  3
_ _ _ _ _ _ _ _ _ _ _ _ _ _ 
 72
    65
 73
     2
 40
0.009525
 49
0.00635
 74
     0
 49
-0.003175
 74
     0
  0
LTYPE
  5
2B
330
5
100
AcDbSymbolTableRecord
100
AcDbLinetypeTableRecord
  2
DASHED
 70
     0
  3
__ __ __ __ __ __ __ __ __ 
 72
    65
 73
     2
 40
0.01905
 49
0.0127
 74
     0
 49
-0.00635
 74
     0
  0
LTYPE
  5
2C
330
5
100
AcDbSymbolTableRecord
100
AcDbLinetypeTableRecord
  2
CENTER
 70
     0
  3
____ _ ____ _ ____ _ ____ _ 
 72
    65
 73
     4
 40
0.0508
 49
0.03175
 74
     0
 49
-0.00635
 74
     0
 49
0.00635
 74
     0
 49
-0.00635
 74
     0
  0
LTYPE
  5
2D
330
5
100
AcDbSymbolTableRecord
100
AcDbLinetypeTableRecord
  2
PHANTOM
 70
     0
  3
_____ _ _ _____ _ _ _____ _ _ 
 72
    65
 73
     6
 40
0.0635
 49
0.03175
 74
     0
 49
-0.00635
 74
     0
 49
0.00635
 74
     0
 49
-0.00635
 74
     0
 49
0.00635
 74
     0
 49
-0.00635
 74
     0
  0
LTYPE
  5
2E
330
5
100
AcDbSymbolTableRecord
100
AcDbLinetypeTableRecord
  2
DOT
 70
     0
  3
...........................
 72
    65
 73
     2
 40
0.00635
 49
0.0
 74
     0
 49
-0.00635
 74
     0
  0
LTYPE
  5
2F
330
5
100
AcDbSymbolTableRecord
100
AcDbLinetypeTableRecord
  2
DASHDOT
 70
     0
  3
__ . __ . __ . __ . __ . __ . 
 72
    65
 73
     4
 40
0.0254
 49
0.0127
 74
     0
 49
-0.00635
 74
     0
 49
0.0
 74
     0
 49
-0.00635
 74
     0
  0
LTYPE
  5
30
330
5
100
AcDbSymbolTableRecord
100
AcDbLinetypeTableRecord
  2
DIVIDE
 70
     0
  3
__ . . __ . . __ . . __ . . 
 72
    65
 73
     6
 40
0.03175
 49
0.0127
 74
     0
 49
-0.00635
 74
     0
 49
0.0
 74
     0
 49
-0.00635
 74
     0
 49
0.0
 74
     0
 49
-0.00635
 74
     0
  0
LTYPE
  5
31
330
5
100
AcDbSymbolTableRecord
100
AcDbLinetypeTableRecord
  2
BORDER
 70
     0
  3
__ __ . __ __ . __ __ . __ __ .
 72
    65
 73
     6
 40
0.04445
 49
0.0127
 74
     0
 49
-0.00635
 74
     0
 49
0.0127
 74
     0
 49
-0.00635
 74
     0
 49
0.0
 74
     0
 49
-0.00635
 74
     0
  0
LTYPE
  5
32
330
5
100
AcDbSymbolTableRecord
100
AcDbLinetypeTableRecord
  2
RAND
 70
     0
  3
Rand __ __ . __ __ . __ __ . __
 72
    65
 73
     6
 40
1.75
 49
0.5
 74
     0
 49
-0.25
 74
     0
 49
0.5
 74
     0
 49
-0.25
 74
     0
 49
0.0
 74
     0
 49
-0.25
 74
     0
  0
LTYPE
  5
33
330
5
100
AcDbSymbolTableRecord
100
AcDbLinetypeTableRecord
  2
RAND2
 70
     0
  3
Rand (.5x) __.__.__.__.__.__.__
 72
    65
 73
     6
 40
0.875
 49
0.25
 74
     0
 49
-0.125
 74
     0
 49
0.25
 74
     0
 49
-0.125
 74
     0
 49
0.0
 74
     0
 49
-0.125
 74
     0
  0
LTYPE
  5
34
330
5
100
AcDbSymbolTableRecord
100
AcDbLinetypeTableRecord
  2
RANDX2
 70
     0
  3
Rand (2x) ____  ____  .  ____  
 72
    65
 73
     6
 40
3.5
 49
1.0
 74
     0
 49
-0.5
 74
     0
 49
1.0
 74
     0
 49
-0.5
 74
     0
 49
0.0
 74
     0
 49
-0.5
 74
     0
  0
LTYPE
  5
35
330
5
100
AcDbSymbolTableRecord
100
AcDbLinetypeTableRecord
  2
MITTE
 70
     0
  3
Mitte ____ _ ____ _ ____ _ ____
 72
    65
 73
     4
 40
2.0
 49
1.25
 74
     0
 49
-0.25
 74
     0
 49
0.25
 74
     0
 49
-0.25
 74
     0
  0
LTYPE
  5
36
330
5
100
AcDbSymbolTableRecord
100
AcDbLinetypeTableRecord
  2
MITTE2
 70
     0
  3
Mitte (.5x) ___ _ ___ _ ___ _ _
 72
    65
 73
     4
 40
1.125
 49
0.7500000000000001
 74
     0
 49
-0.125
 74
     0
 49
0.125
 74
     0
 49
-0.125
 74
     0
  0
LTYPE
  5
37
330
5
100
AcDbSymbolTableRecord
100
AcDbLinetypeTableRecord
  2
MITTEX2
 70
     0
  3
Mitte (2x) ________  __  ______
 72
    65
 73
     4
 40
4.0
 49
2.5
 74
     0
 49
-0.5
 74
     0
 49
0.5
 74
     0
 49
-0.5
 74
     0
  0
LTYPE
  5
38
330
5
100
AcDbSymbolTableRecord
100
AcDbLinetypeTableRecord
  2
STRICHPUNKT
 70
     0
  3
Strichpunkt __ . __ . __ . __ .
 72
    65
 73
     4
 40
1.0
 49
0.5
 74
     0
 49
-0.25
 74
     0
 49
0.0
 74
     0
 49
-0.25
 74
     0
  0
LTYPE
  5
39
330
5
100
AcDbSymbolTableRecord
100
AcDbLinetypeTableRecord
  2
STRICHPUNKT2
 70
     0
  3
Strichpunkt (.5x) _._._._._._._
 72
    65
 73
     4
 40
0.5
 49
0.25
 74
     0
 49
-0.125
 74
     0
 49
0.0
 74
     0
 49
-0.125
 74
     0
  0
LTYPE
  5
3A
330
5
100
AcDbSymbolTableRecord
100
AcDbLinetypeTableRecord
  2
STRICHPUNKTX2
 70
     0
  3
Strichpunkt (2x) ____  .  ____ 
 72
    65
 73
     4
 40
2.0
 49
1.0
 74
     0
 49
-0.5
 74
     0
 49
0.0
 74
     0
 49
-0.5
 74
     0
  0
LTYPE
  5
3B
330
5
100
AcDbSymbolTableRecord
100
AcDbLinetypeTableRecord
  2
STRICHLINIE
 70
     0
  3
Strichlinie __ __ __ __ __ __ _
 72
    65
 73
     2
 40
0.75
 49
0.5
 74
     0
 49
-0.25
 74
     0
  0
LTYPE
  5
3C
330
5
100
AcDbSymbolTableRecord
100
AcDbLinetypeTableRecord
  2
STRICHLINIE2
 70
     0
  3
Strichlinie (.5x) _ _ _ _ _ _ _
 72
    65
 73
     2
 40
0.375
 49
0.25
 74
     0
 49
-0.125
 74
     0
  0
LTYPE
  5
3D
330
5
100
AcDbSymbolTableRecord
100
AcDbLinetypeTableRecord
  2
STRICHLINIEX2
 70
     0
  3
Strichlinie (2x) ____  ____  __
 72
    65
 73
     2
 40
1.5
 49
1.0
 74
     0
 49
-0.5
 74
     0
  0
LTYPE
  5
3E
330
5
100
AcDbSymbolTableRecord
100
AcDbLinetypeTableRecord
  2
GETRENNT
 70
     0
  3
Getrennt ____ . . ____ . . ____
 72
    65
 73
     6
 40
1.25
 49
0.5
 74
     0
 49
-0.25
 74
     0
 49
0.0
 74
     0
 49
-0.25
 74
     0
 49
0.0
 74
     0
 49
-0.25
 74
     0
  0
LTYPE
  5
3F
330
5
100
AcDbSymbolTableRecord
100
AcDbLinetypeTableRecord
  2
GETRENNT2
 70
     0
  3
Getrennt (.5x) __..__..__..__..
 72
    65
 73
     6
 40
0.625
 49
0.25
 74
     0
 49
-0.125
 74
     0
 49
0.0
 74
     0
 49
-0.125
 74
     0
 49
0.0
 74
     0
 49
-0.125
 74
     0
  0
LTYPE
  5
40
330
5
100
AcDbSymbolTableRecord
100
AcDbLinetypeTableRecord
  2
GETRENNTX2
 70
     0
  3
Getrennt (2x) ________  .  .  _
 72
    65
 73
     6
 40
2.5
 49
1.0
 74
     0
 49
-0.5
 74
     0
 49
0.0
 74
     0
 49
-0.5
 74
     0
 49
0.0
 74
     0
 49
-0.5
 74
     0
  0
LTYPE
  5
41
330
5
100
AcDbSymbolTableRecord
100
AcDbLinetypeTableRecord
  2
PUNKT
 70
     0
  3
Punkt . . . . . . . . . . . . .
 72
    65
 73
     2
 40
0.25
 49
0.0
 74
     0
 49
-0.25
 74
     0
  0
LTYPE
  5
42
330
5
100
AcDbSymbolTableRecord
100
AcDbLinetypeTableRecord
  2
PUNKT2
 70
     0
  3
Punkt (.5x) ...................
 72
    65
 73
     2
 40
0.125
 49
0.0
 74
     0
 49
-0.125
 74
     0
  0
LTYPE
  5
43
330
5
100
AcDbSymbolTableRecord
100
AcDbLinetypeTableRecord
  2
PUNKTX2
 70
     0
  3
Punkt (2x) .  .  .  .  .  .  . 
 72
    65
 73
     2
 40
0.5
 49
0.0
 74
     0
 49
-0.5
 74
     0
  0
LTYPE
  5
44
330
5
100
AcDbSymbolTableRecord
100
AcDbLinetypeTableRecord
  2
VERDECKT
 70
     0
  3
Verdeckt __ __ __ __ __ __ __ _
 72
    65
 73
     2
 40
0.375
 49
0.25
 74
     0
 49
-0.125
 74
     0
  0
LTYPE
  5
45
330
5
100
AcDbSymbolTableRecord
100
AcDbLinetypeTableRecord
  2
VERDECKT2
 70
     0
  3
Verdeckt (.5x) _ _ _ _ _ _ _ _ 
 72
    65
 73
     2
 40
0.1875
 49
0.125
 74
     0
 49
-0.0625
 74
     0
  0
LTYPE
  5
46
330
5
100
AcDbSymbolTableRecord
100
AcDbLinetypeTableRecord
  2
VERDECKTX2
 70
     0
  3
Verdeckt (2x) ____ ____ ____ __
 72
    65
 73
     2
 40
0.75
 49
0.5
 74
     0
 49
-0.25
 74
     0
  0
LTYPE
  5
47
330
5
100
AcDbSymbolTableRecord
100
AcDbLinetypeTableRecord
  2
PHANTOM2
 70
     0
  3
Phantom (.5x) ___ _ _ ___ _ _ _
 72
    65
 73
     6
 40
1.25
 49
0.6250000000000001
 74
     0
 49
-0.125
 74
     0
 49
0.125
 74
     0
 49
-0.125
 74
     0
 49
0.125
 74
     0
 49
-0.125
 74
     0
  0
LTYPE
  5
48
330
5
100
AcDbSymbolTableRecord
100
AcDbLinetypeTableRecord
  2
PHANTOMX2
 70
     0
  3
Phantom (2x) ____________    __
 72
    65
 73
     6
 40
5.0
 49
2.5
 74
     0
 49
-0.5
 74
     0
 49
0.5
 74
     0
 49
-0.5
 74
     0
 49
0.5
 74
     0
 49
-0.5
 74
     0
  0
LTYPE
  5
49
330
5
100
AcDbSymbolTableRecord
100
AcDbLinetypeTableRecord
  2
PUNKTE
 70
     0
  3
Punkte - - - - - - - - - - - - 
 72
    65
 73
     2
 40
0.1
 49
0.05
 74
     0
 49
-0.05
 74
     0
  0
LTYPE
  5
4A
330
5
100
AcDbSymbolTableRecord
100
AcDbLinetypeTableRecord
  2
ACAD_ISO02W100
 70
     0
  3
__ __ __ __ __ __ __ __ __ __ _
 72
    65
 73
     2
 40
15.0
 49
12.0
 74
     0
 49
-3.0
 74
     0
  0
LTYPE
  5
4B
330
5
100
AcDbSymbolTableRecord
100
AcDbLinetypeTableRecord
  2
ACAD_ISO03W100
 70
     0
  3
__    __    __    __    __    _
 72
    65
 73
     2
 40
30.0
 49
12.0
 74
     0
 49
-18.0
 74
     0
  0
LTYPE
  5
4C
330
5
100
AcDbSymbolTableRecord
100
AcDbLinetypeTableRecord
  2
ACAD_ISO04W100
 70
     0
  3
____ . ____ . ____ . ____ . ___
 72
    65
 73
     4
 40
30.5
 49
24.0
 74
     0
 49
-3.0
 74
     0
 49
0.5
 74
     0
 49
-3.0
 74
     0
  0
LTYPE
  5
4D
330
5
100
AcDbSymbolTableRecord
100
AcDbLinetypeTableRecord
  2
ACAD_ISO05W100
 70
     0
  3
____ .. ____ .. ____ .. ____ ..
 72
    65
 73
     6
 40
34.0
 49
24.0
 74
     0
 49
-3.0
 74
     0
 49
0.5
 74
     0
 49
-3.0
 74
     0
 49
0.5
 74
     0
 49
-3.0
 74
     0
  0
LTYPE
  5
4E
330
5
100
AcDbSymbolTableRecord
100
AcDbLinetypeTableRecord
  2
ACAD_ISO06W100
 70
     0
  3
____ ... ____ ... ____ ... ____
 72
    65
 73
     6
 40
34.0
 49
24.0
 74
     0
 49
-3.0
 74
     0
 49
0.5
 74
     0
 49
-3.0
 74
     0
 49
0.5
 74
     0
 49
-3.0
 74
     0
  0
LTYPE
  5
4F
330
5
100
AcDbSymbolTableRecord
100
AcDbLinetypeTableRecord
  2
ACAD_ISO07W100
 70
     0
  3
. . . . . . . . . . . . . . . .
 72
    65
 73
     2
 40
3.5
 49
0.5
 74
     0
 49
-3.0
 74
     0
  0
LTYPE
  5
50
330
5
100
AcDbSymbolTableRecord
100
AcDbLinetypeTableRecord
  2
ACAD_ISO08W100
 70
     0
  3
____ __ ____ __ ____ __ ____ __
 72
    65
 73
     4
 40
36.0
 49
24.0
 74
     0
 49
-3.0
 74
     0
 49
6.0
 74
     0
 49
-3.0
 74
     0
  0
LTYPE
  5
51
330
5
100
AcDbSymbolTableRecord
100
AcDbLinetypeTableRecord
  2
ACAD_ISO09W100
 70
     0
  3
____ __ __ ____ __ __ ____ __ _
 72
    65
 73
     6
 40
45.0
 49
24.0
 74
     0
 49
-3.0
 74
     0
 49
6.0
 74
     0
 49
-3.0
 74
     0
 49
6.0
 74
     0
 49
-3.0
 74
     0
  0
LTYPE
  5
52
330
5
100
AcDbSymbolTableRecord
100
AcDbLinetypeTableRecord
  2
ACAD_ISO10W100
 70
     0
  3
__ . __ . __ . __ . __ . __ . _
 72
    65
 73
     4
 40
18.5
 49
12.0
 74
     0
 49
-3.0
 74
     0
 49
0.5
 74
     0
 49
-3.0
 74
     0
  0
LTYPE
  5
53
330
5
100
AcDbSymbolTableRecord
100
AcDbLinetypeTableRecord
  2
ACAD_ISO11W100
 70
     0
  3
__ __ . __ __ . __ __ . __ __ .
 72
    65
 73
     6
 40
33.5
 49
12.0
 74
     0
 49
-3.0
 74
     0
 49
12.0
 74
     0
 49
-3.0
 74
     0
 49
0.5
 74
     0
 49
-3.0
 74
     0
  0
LTYPE
  5
54
330
5
100
AcDbSymbolTableRecord
100
AcDbLinetypeTableRecord
  2
ACAD_ISO12W100
 70
     0
  3
__ . . __ . . __ . . __ . . __ 
 72
    65
 73
     6
 40
22.0
 49
12.0
 74
     0
 49
-3.0
 74
     0
 49
0.5
 74
     0
 49
-3.0
 74
     0
 49
0.5
 74
     0
 49
-3.0
 74
     0
  0
LTYPE
  5
55
330
5
100
AcDbSymbolTableRecord
100
AcDbLinetypeTableRecord
  2
ACAD_ISO13W100
 70
     0
  3
__ __ . . __ __ . . __ __ . . _
 72
    65
 73
     6
 40
33.5
 49
12.0
 74
     0
 49
-3.0
 74
     0
 49
12.0
 74
     0
 49
-3.0
 74
     0
 49
0.5
 74
     0
 49
-3.0
 74
     0
  0
LTYPE
  5
56
330
5
100
AcDbSymbolTableRecord
100
AcDbLinetypeTableRecord
  2
ACAD_ISO14W100
 70
     0
  3
__ . . . __ . . . __ . . . __ .
 72
    65
 73
     6
 40
22.0
 49
12.0
 74
     0
 49
-3.0
 74
     0
 49
0.5
 74
     0
 49
-3.0
 74
     0
 49
0.5
 74
     0
 49
-3.0
 74
     0
  0
LTYPE
  5
57
330
5
100
AcDbSymbolTableRecord
100
AcDbLinetypeTableRecord
  2
ACAD_ISO15W100
 70
     0
  3
__ __ . . . __ __ . . . __ __ .
 72
    65
 73
     6
 40
33.5
 49
12.0
 74
     0
 49
-3.0
 74
     0
 49
12.0
 74
     0
 49
-3.0
 74
     0
 49
0.5
 74
     0
 49
-3.0
 74
     0
  0
ENDTAB
  0
TABLE
  2
LAYER
  5
2
330
0
100
AcDbSymbolTable
 70
     3
  0
LAYER
  5
10
330
2
100
AcDbSymbolTableRecord
100
AcDbLayerTableRecord
  2
0
 70
     0
 62
     7
  6
Continuous
370
    -3
390
F
  0
LAYER
  5
58
330
2
100
AcDbSymbolTableRecord
100
AcDbLayerTableRecord
  2
HALLE_0_1_EG
 70
     0
 62
     7
  6
Continuous
370
    -3
390
F
  0
LAYER
  5
59
330
2
100
AcDbSymbolTableRecord
100
AcDbLayerTableRecord
  2
STALLUNGEN_1_100
 70
     0
 62
     7
  6
Continuous
370
    -3
390
F
  0
ENDTAB
  0
TABLE
  2
STYLE
  5
3
330
0
100
AcDbSymbolTable
 70
     5
  0
STYLE
  5
11
330
3
100
AcDbSymbolTableRecord
100
AcDbTextStyleTableRecord
  2
Standard
 70
     0
 40
0.0
 41
1.0
 50
0.0
 71
     0
 42
2.02
  3
txt
  4

  0
STYLE
  5
5A
330
3
100
AcDbSymbolTableRecord
100
AcDbTextStyleTableRecord
  2
ITALIC
 70
     0
 40
0.0
 41
1.0
 50
0.0
 71
     0
 42
2.02
  3
ITALIC
  4

  0
STYLE
  5
5B
330
3
100
AcDbSymbolTableRecord
100
AcDbTextStyleTableRecord
  2
SIMPLEX
 70
     0
 40
0.0
 41
1.0
 50
0.0
 71
     0
 42
2.02
  3
SIMPLEX
  4

  0
STYLE
  5
5C
330
3
100
AcDbSymbolTableRecord
100
AcDbTextStyleTableRecord
  2
COMPLEX
 70
     0
 40
0.0
 41
1.0
 50
0.0
 71
     0
 42
2.02
  3
COMPLEX
  4

  0
STYLE
  5
194
330
3
100
AcDbSymbolTableRecord
100
AcDbTextStyleTableRecord
  2
ARIAL
 70
     0
 40
0.0
 41
1.0
 50
0.0
 71
     0
 42
2.02
  3
ARIAL.TTF
  4

1001
ACAD
1000
Arial
1071
        0
  0
ENDTAB
  0
TABLE
  2
VIEW
  5
6
330
0
100
AcDbSymbolTable
 70
     0
  0
ENDTAB
  0
TABLE
  2
UCS
  5
7
330
0
100
AcDbSymbolTable
 70
     0
  0
ENDTAB
  0
TABLE
  2
APPID
  5
9
330
0
100
AcDbSymbolTable
 70
     1
  0
APPID
  5
12
330
9
100
AcDbSymbolTableRecord
100
AcDbRegAppTableRecord
  2
ACAD
 70
     0
  0
ENDTAB
  0
TABLE
  2
DIMSTYLE
  5
A
330
0
100
AcDbSymbolTable
 70
     1
100
AcDbDimStyleTable
 71
     0
  0
DIMSTYLE
105
29
330
A
100
AcDbSymbolTableRecord
100
AcDbDimStyleTableRecord
  2
Standard
 70
     0
340
11
  0
ENDTAB
  0
TABLE
  2
BLOCK_RECORD
  5
1
330
0
100
AcDbSymbolTable
 70
     1
  0
BLOCK_RECORD
  5
21
330
1
100
AcDbSymbolTableRecord
100
AcDbBlockTableRecord
  2
*Model_Space
340
24
  0
BLOCK_RECORD
  5
1D
330
1
100
AcDbSymbolTableRecord
100
AcDbBlockTableRecord
  2
*Paper_Space
340
20
  0
BLOCK_RECORD
  5
25
330
1
100
AcDbSymbolTableRecord
100
AcDbBlockTableRecord
  2
*Paper_Space0
340
28
  0
ENDTAB
  0
ENDSEC
  0
SECTION
  2
BLOCKS
  0
BLOCK
  5
22
330
21
100
AcDbEntity
  8
0
100
AcDbBlockBegin
  2
*Model_Space
 70
     0
 10
0.0
 20
0.0
 30
0.0
  3
*Model_Space
  1

  0
ENDBLK
  5
23
330
21
100
AcDbEntity
  8
0
100
AcDbBlockEnd
  0
BLOCK
  5
1E
330
1D
100
AcDbEntity
 67
     1
  8
0
100
AcDbBlockBegin
  2
*Paper_Space
 70
     0
 10
0.0
 20
0.0
 30
0.0
  3
*Paper_Space
  1

  0
ENDBLK
  5
1F
330
1D
100
AcDbEntity
 67
     1
  8
0
100
AcDbBlockEnd
  0
BLOCK
  5
26
330
25
100
AcDbEntity
  8
0
100
AcDbBlockBegin
  2
*Paper_Space0
 70
     0
 10
0.0
 20
0.0
 30
0.0
  3
*Paper_Space0
  1

  0
ENDBLK
  5
27
330
25
100
AcDbEntity
  8
0
100
AcDbBlockEnd
  0
ENDSEC
  0
SECTION
  2
ENTITIES
  0
LINE
  5
5D
330
21
100
AcDbEntity
  8
STALLUNGEN_1_100
  6
Continuous
 62
     0
100
AcDbLine
 10
37.78309907661818
 20
-6.839360438921787
 30
0.0
 11
38.31809927661818
 21
-6.839360438921787
 31
0.0
  0
LINE
  5
5E
330
21
100
AcDbEntity
  8
STALLUNGEN_1_100
  6
Continuous
 62
     0
100
AcDbLine
 10
40.31309967661817
 20
-12.6288191874279
 30
0.0
 11
40.31309967661817
 21
-13.2288191874279
 31
0.0
  0
LINE
  5
5F
330
21
100
AcDbEntity
  8
STALLUNGEN_1_100
  6
Continuous
 62
     0
100
AcDbLine
 10
40.31309967661817
 20
-10.50990169041572
 30
0.0
 11
40.31309967661817
 21
-9.909901690415717
 31
0.0
  0
LINE
  5
60
330
21
100
AcDbEntity
  8
STALLUNGEN_1_100
  6
Continuous
 62
     0
100
AcDbLine
 10
-5.696900323381814
 20
-12.62881918742789
 30
0.0
 11
-5.696900323381814
 21
-13.2288191874279
 31
0.0
  0
LINE
  5
61
330
21
100
AcDbEntity
  8
STALLUNGEN_1_100
  6
Continuous
 62
     0
100
AcDbLine
 10
-5.696900323381814
 20
-10.50990169041571
 30
0.0
 11
-5.696900323381814
 21
-9.909901690415711
 31
0.0
  0
LINE
  5
62
330
21
100
AcDbEntity
  8
STALLUNGEN_1_100
  6
Continuous
 62
     0
100
AcDbLine
 10
-2.231900323381846
 20
-16.9493604389218
 30
0.0
 11
-0.0769003233818229
 21
-16.9493604389218
 31
0.0
  0
ARC
  5
63
330
21
100
AcDbEntity
  8
STALLUNGEN_1_100
  6
Continuous
 62
     0
100
AcDbCircle
 10
-2.109400323381808
 20
-16.7843604389218
 30
0.0
 40
0.9549999999999998
100
AcDbArc
 50
270.0
 51
0.0
  0
LINE
  5
64
330
21
100
AcDbEntity
  8
STALLUNGEN_1_100
  6
Continuous
 62
     0
100
AcDbLine
 10
-2.109400323381808
 20
-17.73936043892182
 30
0.0
 11
-2.109400323381808
 21
-16.73436043892182
 31
0.0
  0
LINE
  5
65
330
21
100
AcDbEntity
  8
STALLUNGEN_1_100
  6
Continuous
 62
     0
100
AcDbLine
 10
-1.154400323381834
 20
-16.7843604389218
 30
0.0
 11
-1.154400323381834
 21
-16.73436043892182
 31
0.0
  0
ARC
  5
66
330
21
100
AcDbEntity
  8
STALLUNGEN_1_100
  6
Continuous
 62
     0
100
AcDbCircle
 10
-0.1994003233818152
 20
-16.7843604389218
 30
0.0
 40
0.9549999999999998
100
AcDbArc
 50
180.0
 51
270.0
  0
LINE
  5
67
330
21
100
AcDbEntity
  8
STALLUNGEN_1_100
  6
Continuous
 62
     0
100
AcDbLine
 10
-0.1994003233818152
 20
-17.73936043892182
 30
0.0
 11
-0.1994003233818152
 21
-16.73436043892182
 31
0.0
  0
LINE
  5
68
330
21
100
AcDbEntity
  8
STALLUNGEN_1_100
  6
Continuous
 62
     0
100
AcDbLine
 10
-3.396900323381853
 20
-13.05436043892178
 30
0.0
 11
37.07309967661819
 21
-13.05436043892179
 31
0.0
  0
LINE
  5
69
330
21
100
AcDbEntity
  8
STALLUNGEN_1_100
  6
Continuous
 62
     0
100
AcDbLine
 10
-3.396900323381853
 20
-10.08436043892182
 30
0.0
 11
37.07309967661819
 21
-10.08436043892183
 31
0.0
  0
ARC
  5
6A
330
21
100
AcDbEntity
  8
STALLUNGEN_1_100
  6
Continuous
 62
     0
100
AcDbCircle
 10
-5.596900323381907
 20
-13.19436043892182
 30
0.0
 40
1.0
100
AcDbArc
 50
0.0
 51
90.0
  0
LINE
  5
6B
330
21
100
AcDbEntity
  8
STALLUNGEN_1_100
  6
Continuous
 62
     0
100
AcDbLine
 10
-5.596900323381907
 20
-12.19436043892182
 30
0.0
 11
-5.596900323381907
 21
-13.23436043892181
 31
0.0
  0
LINE
  5
6C
330
21
100
AcDbEntity
  8
STALLUNGEN_1_100
  6
Continuous
 62
     0
100
AcDbLine
 10
-4.596900323381904
 20
-13.19436043892182
 30
0.0
 11
-4.596900323381904
 21
-13.23436043892181
 31
0.0
  0
LINE
  5
6D
330
21
100
AcDbEntity
  8
STALLUNGEN_1_100
  6
Continuous
 62
     0
100
AcDbLine
 10
40.73309967661817
 20
-7.734361038921806
 30
0.0
 11
40.73309967661817
 21
-7.574360838921793
 31
0.0
  0
LINE
  5
6E
330
21
100
AcDbEntity
  8
STALLUNGEN_1_100
  6
Continuous
 62
     0
100
AcDbLine
 10
40.46309967661818
 20
-7.734361038921806
 30
0.0
 11
40.46309967661818
 21
-7.574360838921793
 31
0.0
  0
LINE
  5
6F
330
21
100
AcDbEntity
  8
STALLUNGEN_1_100
  6
Continuous
 62
     0
100
AcDbLine
 10
40.46309967661818
 20
-7.734361038921806
 30
0.0
 11
40.46309967661818
 21
-7.574360838921793
 31
0.0
  0
LINE
  5
70
330
21
100
AcDbEntity
  8
STALLUNGEN_1_100
  6
Continuous
 62
     0
100
AcDbLine
 10
37.48309967661818
 20
-7.621069322255148
 30
0.0
 11
37.48309967661818
 21
-7.574360838921793
 31
0.0
  0
LINE
  5
71
330
21
100
AcDbEntity
  8
STALLUNGEN_1_100
  6
Continuous
 62
     0
100
AcDbLine
 10
37.48309967661818
 20
-7.621069322255148
 30
0.0
 11
37.48309967661818
 21
-7.574360838921793
 31
0.0
  0
LINE
  5
72
330
21
100
AcDbEntity
  8
STALLUNGEN_1_100
  6
Continuous
 62
     0
100
AcDbLine
 10
37.07309967661815
 20
-7.857782932623009
 30
0.0
 11
37.07309967661815
 21
-7.574360838921793
 31
0.0
  0
LINE
  5
73
330
21
100
AcDbEntity
  8
STALLUNGEN_1_100
  6
Continuous
 62
     0
100
AcDbLine
 10
37.07309967661815
 20
-7.857782932623009
 30
0.0
 11
37.07309967661815
 21
-7.574360838921793
 31
0.0
  0
LINE
  5
74
330
21
100
AcDbEntity
  8
STALLUNGEN_1_100
  6
Continuous
 62
     0
100
AcDbLine
 10
-3.096900923381814
 20
-6.584360438921811
 30
0.0
 11
-2.521900723381821
 21
-6.584360438921813
 31
0.0
  0
LINE
  5
75
330
21
100
AcDbEntity
  8
STALLUNGEN_1_100
  6
Continuous
 62
     0
100
AcDbLine
 10
-3.096900923381814
 20
-6.584360438921811
 30
0.0
 11
-2.521900723381821
 21
-6.584360438921813
 31
0.0
  0
LINE
  5
76
330
21
100
AcDbEntity
  8
STALLUNGEN_1_100
  6
Continuous
 62
     0
100
AcDbLine
 10
-3.096900923381814
 20
-16.5543604389218
 30
0.0
 11
-2.521900723381821
 21
-16.5543604389218
 31
0.0
  0
LINE
  5
77
330
21
100
AcDbEntity
  8
STALLUNGEN_1_100
  6
Continuous
 62
     0
100
AcDbLine
 10
-3.096900923381814
 20
-16.5543604389218
 30
0.0
 11
-2.521900723381821
 21
-16.5543604389218
 31
0.0
  0
LINE
  5
78
330
21
100
AcDbEntity
  8
STALLUNGEN_1_100
  6
Continuous
 62
     0
100
AcDbLine
 10
-4.106899723381832
 20
-6.839360438921781
 30
0.0
 11
-4.671899923380131
 21
-6.839360438921781
 31
0.0
  0
LINE
  5
79
330
21
100
AcDbEntity
  8
STALLUNGEN_1_100
  6
Continuous
 62
     0
100
AcDbLine
 10
-4.106899723381832
 20
-16.29936043892183
 30
0.0
 11
-4.671899923380131
 21
-16.29936043892183
 31
0.0
  0
LINE
  5
7A
330
21
100
AcDbEntity
  8
STALLUNGEN_1_100
  6
Continuous
 62
     0
100
AcDbLine
 10
-4.471900323380135
 20
-6.639360838921787
 30
0.0
 11
-4.471900323380135
 21
-6.839360438921781
 31
0.0
  0
LINE
  5
7B
330
21
100
AcDbEntity
  8
STALLUNGEN_1_100
  6
Continuous
 62
     0
100
AcDbLine
 10
-4.471900323380135
 20
-16.29936043892183
 30
0.0
 11
-4.471900323380135
 21
-16.49936003892182
 31
0.0
  0
LINE
  5
7C
330
21
100
AcDbEntity
  8
STALLUNGEN_1_100
  6
Continuous
 62
     0
100
AcDbLine
 10
37.78309907661818
 20
-16.29936043892183
 30
0.0
 11
38.31809927661818
 21
-16.29936043892183
 31
0.0
  0
LINE
  5
7D
330
21
100
AcDbEntity
  8
STALLUNGEN_1_100
  6
Continuous
 62
     0
100
AcDbLine
 10
-4.566900323381807
 20
-16.29936043892183
 30
0.0
 11
-3.806900323381841
 21
-16.29936043892183
 31
0.0
  0
LINE
  5
7E
330
21
100
AcDbEntity
  8
STALLUNGEN_1_100
  6
Continuous
 62
     0
100
AcDbLine
 10
-3.806900323381841
 20
-16.29936043892183
 30
0.0
 11
-3.806900323381841
 21
-13.63436043892181
 31
0.0
  0
LINE
  5
7F
330
21
100
AcDbEntity
  8
STALLUNGEN_1_100
  6
Continuous
 62
     0
100
AcDbLine
 10
-3.806900323381841
 20
-13.63436043892181
 30
0.0
 11
-3.85690032338191
 21
-13.63436043892181
 31
0.0
  0
LINE
  5
80
330
21
100
AcDbEntity
  8
STALLUNGEN_1_100
  6
Continuous
 62
     0
100
AcDbLine
 10
-3.85690032338191
 20
-13.63436043892181
 30
0.0
 11
-3.85690032338191
 21
-13.1743604389218
 31
0.0
  0
LINE
  5
81
330
21
100
AcDbEntity
  8
STALLUNGEN_1_100
  6
Continuous
 62
     0
100
AcDbLine
 10
-3.85690032338191
 20
-13.1743604389218
 30
0.0
 11
-3.396900323381853
 21
-13.1743604389218
 31
0.0
  0
LINE
  5
82
330
21
100
AcDbEntity
  8
STALLUNGEN_1_100
  6
Continuous
 62
     0
100
AcDbLine
 10
-3.396900323381853
 20
-13.1743604389218
 30
0.0
 11
-3.396900323381853
 21
-16.5543604389218
 31
0.0
  0
LINE
  5
83
330
21
100
AcDbEntity
  8
STALLUNGEN_1_100
  6
Continuous
 62
     0
100
AcDbLine
 10
-3.396900323381853
 20
-16.5543604389218
 30
0.0
 11
-2.109400323381808
 21
-16.5543604389218
 31
0.0
  0
LINE
  5
84
330
21
100
AcDbEntity
  8
STALLUNGEN_1_100
  6
Continuous
 62
     0
100
AcDbLine
 10
-2.109400323381808
 20
-16.5543604389218
 30
0.0
 11
-2.109400323381808
 21
-16.73436043892182
 31
0.0
  0
LINE
  5
85
330
21
100
AcDbEntity
  8
STALLUNGEN_1_100
  6
Continuous
 62
     0
100
AcDbLine
 10
-2.109400323381808
 20
-16.73436043892182
 30
0.0
 11
-2.231900323381846
 21
-16.73436043892182
 31
0.0
  0
LINE
  5
86
330
21
100
AcDbEntity
  8
STALLUNGEN_1_100
  6
Continuous
 62
     0
100
AcDbLine
 10
-2.231900323381846
 20
-16.73436043892182
 30
0.0
 11
-2.231900323381846
 21
-16.9493604389218
 31
0.0
  0
LINE
  5
87
330
21
100
AcDbEntity
  8
STALLUNGEN_1_100
  6
Continuous
 62
     0
100
AcDbLine
 10
-2.231900323381846
 20
-16.9493604389218
 30
0.0
 11
-3.176900323381834
 21
-16.9493604389218
 31
0.0
  0
LINE
  5
88
330
21
100
AcDbEntity
  8
STALLUNGEN_1_100
  6
Continuous
 62
     0
100
AcDbLine
 10
-3.176900323381834
 20
-16.9493604389218
 30
0.0
 11
-3.176900323381834
 21
-17.07936043892181
 31
0.0
  0
LINE
  5
89
330
21
100
AcDbEntity
  8
STALLUNGEN_1_100
  6
Continuous
 62
     0
100
AcDbLine
 10
-3.176900323381834
 20
-17.07936043892181
 30
0.0
 11
-3.816900323381826
 21
-17.07936043892181
 31
0.0
  0
LINE
  5
8A
330
21
100
AcDbEntity
  8
STALLUNGEN_1_100
  6
Continuous
 62
     0
100
AcDbLine
 10
-3.816900323381826
 20
-17.07936043892181
 30
0.0
 11
-3.816900323381826
 21
-16.56936043892182
 31
0.0
  0
LINE
  5
8B
330
21
100
AcDbEntity
  8
STALLUNGEN_1_100
  6
Continuous
 62
     0
100
AcDbLine
 10
-3.816900323381826
 20
-16.56936043892182
 30
0.0
 11
-4.466900323381852
 21
-16.56936043892182
 31
0.0
  0
LINE
  5
8C
330
21
100
AcDbEntity
  8
STALLUNGEN_1_100
  6
Continuous
 62
     0
100
AcDbLine
 10
-4.466900323381852
 20
-16.56936043892182
 30
0.0
 11
-4.466900323381852
 21
-16.4493604389218
 31
0.0
  0
LINE
  5
8D
330
21
100
AcDbEntity
  8
STALLUNGEN_1_100
  6
Continuous
 62
     0
100
AcDbLine
 10
-4.466900323381852
 20
-16.4493604389218
 30
0.0
 11
-4.566900323381807
 21
-16.4493604389218
 31
0.0
  0
LINE
  5
8E
330
21
100
AcDbEntity
  8
STALLUNGEN_1_100
  6
Continuous
 62
     0
100
AcDbLine
 10
-4.566900323381807
 20
-16.4493604389218
 30
0.0
 11
-4.566900323381807
 21
-16.29936043892183
 31
0.0
  0
LINE
  5
8F
330
21
100
AcDbEntity
  8
STALLUNGEN_1_100
  6
Continuous
 62
     0
100
AcDbLine
 10
36.89309967661817
 20
-16.94936043892181
 30
0.0
 11
32.85809967661815
 21
-16.94936043892181
 31
0.0
  0
LINE
  5
90
330
21
100
AcDbEntity
  8
STALLUNGEN_1_100
  6
Continuous
 62
     0
100
AcDbLine
 10
32.85809967661815
 20
-16.94936043892181
 30
0.0
 11
32.85809967661815
 21
-17.07936043892181
 31
0.0
  0
LINE
  5
91
330
21
100
AcDbEntity
  8
STALLUNGEN_1_100
  6
Continuous
 62
     0
100
AcDbLine
 10
32.85809967661815
 20
-17.07936043892181
 30
0.0
 11
32.35809967661815
 21
-17.07936043892181
 31
0.0
  0
LINE
  5
92
330
21
100
AcDbEntity
  8
STALLUNGEN_1_100
  6
Continuous
 62
     0
100
AcDbLine
 10
32.35809967661815
 20
-17.07936043892181
 30
0.0
 11
32.35809967661815
 21
-16.94936043892181
 31
0.0
  0
LINE
  5
93
330
21
100
AcDbEntity
  8
STALLUNGEN_1_100
  6
Continuous
 62
     0
100
AcDbLine
 10
32.35809967661815
 20
-16.94936043892181
 30
0.0
 11
28.35809967661818
 21
-16.94936043892181
 31
0.0
  0
LINE
  5
94
330
21
100
AcDbEntity
  8
STALLUNGEN_1_100
  6
Continuous
 62
     0
100
AcDbLine
 10
28.35809967661818
 20
-16.94936043892181
 30
0.0
 11
28.35809967661818
 21
-17.07936043892181
 31
0.0
  0
LINE
  5
95
330
21
100
AcDbEntity
  8
STALLUNGEN_1_100
  6
Continuous
 62
     0
100
AcDbLine
 10
28.35809967661818
 20
-17.07936043892181
 30
0.0
 11
27.85809967661818
 21
-17.07936043892181
 31
0.0
  0
LINE
  5
96
330
21
100
AcDbEntity
  8
STALLUNGEN_1_100
  6
Continuous
 62
     0
100
AcDbLine
 10
27.85809967661818
 20
-17.07936043892181
 30
0.0
 11
27.85809967661818
 21
-16.94936043892181
 31
0.0
  0
LINE
  5
97
330
21
100
AcDbEntity
  8
STALLUNGEN_1_100
  6
Continuous
 62
     0
100
AcDbLine
 10
27.85809967661818
 20
-16.94936043892181
 30
0.0
 11
23.85809967661817
 21
-16.94936043892181
 31
0.0
  0
LINE
  5
98
330
21
100
AcDbEntity
  8
STALLUNGEN_1_100
  6
Continuous
 62
     0
100
AcDbLine
 10
23.85809967661817
 20
-16.94936043892181
 30
0.0
 11
23.85809967661817
 21
-17.07936043892181
 31
0.0
  0
LINE
  5
99
330
21
100
AcDbEntity
  8
STALLUNGEN_1_100
  6
Continuous
 62
     0
100
AcDbLine
 10
23.85809967661817
 20
-17.07936043892181
 30
0.0
 11
23.35809967661817
 21
-17.07936043892181
 31
0.0
  0
LINE
  5
9A
330
21
100
AcDbEntity
  8
STALLUNGEN_1_100
  6
Continuous
 62
     0
100
AcDbLine
 10
23.35809967661817
 20
-17.07936043892181
 30
0.0
 11
23.35809967661817
 21
-16.94936043892181
 31
0.0
  0
LINE
  5
9B
330
21
100
AcDbEntity
  8
STALLUNGEN_1_100
  6
Continuous
 62
     0
100
AcDbLine
 10
23.35809967661817
 20
-16.94936043892181
 30
0.0
 11
19.35809967661815
 21
-16.94936043892181
 31
0.0
  0
LINE
  5
9C
330
21
100
AcDbEntity
  8
STALLUNGEN_1_100
  6
Continuous
 62
     0
100
AcDbLine
 10
19.35809967661815
 20
-16.94936043892181
 30
0.0
 11
19.35809967661815
 21
-17.07936043892181
 31
0.0
  0
LINE
  5
9D
330
21
100
AcDbEntity
  8
STALLUNGEN_1_100
  6
Continuous
 62
     0
100
AcDbLine
 10
19.35809967661815
 20
-17.07936043892181
 30
0.0
 11
18.85809967661815
 21
-17.07936043892181
 31
0.0
  0
LINE
  5
9E
330
21
100
AcDbEntity
  8
STALLUNGEN_1_100
  6
Continuous
 62
     0
100
AcDbLine
 10
18.85809967661815
 20
-17.07936043892181
 30
0.0
 11
18.85809967661815
 21
-16.94936043892181
 31
0.0
  0
LINE
  5
9F
330
21
100
AcDbEntity
  8
STALLUNGEN_1_100
  6
Continuous
 62
     0
100
AcDbLine
 10
18.85809967661815
 20
-16.94936043892181
 30
0.0
 11
14.85809967661818
 21
-16.94936043892181
 31
0.0
  0
LINE
  5
A0
330
21
100
AcDbEntity
  8
STALLUNGEN_1_100
  6
Continuous
 62
     0
100
AcDbLine
 10
14.85809967661818
 20
-16.94936043892181
 30
0.0
 11
14.85809967661818
 21
-17.07936043892181
 31
0.0
  0
LINE
  5
A1
330
21
100
AcDbEntity
  8
STALLUNGEN_1_100
  6
Continuous
 62
     0
100
AcDbLine
 10
14.85809967661818
 20
-17.07936043892181
 30
0.0
 11
14.35809967661818
 21
-17.07936043892181
 31
0.0
  0
LINE
  5
A2
330
21
100
AcDbEntity
  8
STALLUNGEN_1_100
  6
Continuous
 62
     0
100
AcDbLine
 10
14.35809967661818
 20
-17.07936043892181
 30
0.0
 11
14.35809967661818
 21
-16.9493604389218
 31
0.0
  0
LINE
  5
A3
330
21
100
AcDbEntity
  8
STALLUNGEN_1_100
  6
Continuous
 62
     0
100
AcDbLine
 10
14.35809967661818
 20
-16.9493604389218
 30
0.0
 11
10.35809967661816
 21
-16.9493604389218
 31
0.0
  0
LINE
  5
A4
330
21
100
AcDbEntity
  8
STALLUNGEN_1_100
  6
Continuous
 62
     0
100
AcDbLine
 10
10.35809967661816
 20
-16.9493604389218
 30
0.0
 11
10.35809967661816
 21
-17.07936043892181
 31
0.0
  0
LINE
  5
A5
330
21
100
AcDbEntity
  8
STALLUNGEN_1_100
  6
Continuous
 62
     0
100
AcDbLine
 10
10.35809967661816
 20
-17.07936043892181
 30
0.0
 11
9.858099676618165
 21
-17.07936043892181
 31
0.0
  0
LINE
  5
A6
330
21
100
AcDbEntity
  8
STALLUNGEN_1_100
  6
Continuous
 62
     0
100
AcDbLine
 10
9.858099676618165
 20
-17.07936043892181
 30
0.0
 11
9.858099676618165
 21
-16.9493604389218
 31
0.0
  0
LINE
  5
A7
330
21
100
AcDbEntity
  8
STALLUNGEN_1_100
  6
Continuous
 62
     0
100
AcDbLine
 10
9.858099676618165
 20
-16.9493604389218
 30
0.0
 11
5.85809967661815
 21
-16.9493604389218
 31
0.0
  0
LINE
  5
A8
330
21
100
AcDbEntity
  8
STALLUNGEN_1_100
  6
Continuous
 62
     0
100
AcDbLine
 10
5.85809967661815
 20
-16.9493604389218
 30
0.0
 11
5.85809967661815
 21
-17.07936043892181
 31
0.0
  0
LINE
  5
A9
330
21
100
AcDbEntity
  8
STALLUNGEN_1_100
  6
Continuous
 62
     0
100
AcDbLine
 10
5.85809967661815
 20
-17.07936043892181
 30
0.0
 11
5.358099676618194
 21
-17.07936043892181
 31
0.0
  0
LINE
  5
AA
330
21
100
AcDbEntity
  8
STALLUNGEN_1_100
  6
Continuous
 62
     0
100
AcDbLine
 10
5.358099676618194
 20
-17.07936043892181
 30
0.0
 11
5.358099676618194
 21
-16.9493604389218
 31
0.0
  0
LINE
  5
AB
330
21
100
AcDbEntity
  8
STALLUNGEN_1_100
  6
Continuous
 62
     0
100
AcDbLine
 10
5.358099676618194
 20
-16.9493604389218
 30
0.0
 11
1.35809967661818
 21
-16.9493604389218
 31
0.0
  0
LINE
  5
AC
330
21
100
AcDbEntity
  8
STALLUNGEN_1_100
  6
Continuous
 62
     0
100
AcDbLine
 10
1.35809967661818
 20
-16.9493604389218
 30
0.0
 11
1.35809967661818
 21
-17.07936043892181
 31
0.0
  0
LINE
  5
AD
330
21
100
AcDbEntity
  8
STALLUNGEN_1_100
  6
Continuous
 62
     0
100
AcDbLine
 10
1.35809967661818
 20
-17.07936043892181
 30
0.0
 11
0.8580996766181781
 21
-17.07936043892181
 31
0.0
  0
LINE
  5
AE
330
21
100
AcDbEntity
  8
STALLUNGEN_1_100
  6
Continuous
 62
     0
100
AcDbLine
 10
0.8580996766181781
 20
-17.07936043892181
 30
0.0
 11
0.8580996766181781
 21
-16.9493604389218
 31
0.0
  0
LINE
  5
AF
330
21
100
AcDbEntity
  8
STALLUNGEN_1_100
  6
Continuous
 62
     0
100
AcDbLine
 10
0.8580996766181781
 20
-16.9493604389218
 30
0.0
 11
-0.0769003233818229
 21
-16.9493604389218
 31
0.0
  0
LINE
  5
B0
330
21
100
AcDbEntity
  8
STALLUNGEN_1_100
  6
Continuous
 62
     0
100
AcDbLine
 10
-0.0769003233818229
 20
-16.9493604389218
 30
0.0
 11
-0.0769003233818229
 21
-16.73436043892182
 31
0.0
  0
LINE
  5
B1
330
21
100
AcDbEntity
  8
STALLUNGEN_1_100
  6
Continuous
 62
     0
100
AcDbLine
 10
-0.0769003233818229
 20
-16.73436043892182
 30
0.0
 11
-0.1994003233818152
 21
-16.73436043892182
 31
0.0
  0
LINE
  5
B2
330
21
100
AcDbEntity
  8
STALLUNGEN_1_100
  6
Continuous
 62
     0
100
AcDbLine
 10
-0.1994003233818152
 20
-16.73436043892182
 30
0.0
 11
-0.1994003233818152
 21
-16.5543604389218
 31
0.0
  0
LINE
  5
B3
330
21
100
AcDbEntity
  8
STALLUNGEN_1_100
  6
Continuous
 62
     0
100
AcDbLine
 10
-0.1994003233818152
 20
-16.5543604389218
 30
0.0
 11
37.07309967661815
 21
-16.5543604389218
 31
0.0
  0
LINE
  5
B4
330
21
100
AcDbEntity
  8
STALLUNGEN_1_100
  6
Continuous
 62
     0
100
AcDbLine
 10
37.07309967661815
 20
-16.5543604389218
 30
0.0
 11
37.07309967661815
 21
-13.17436043892181
 31
0.0
  0
LINE
  5
B5
330
21
100
AcDbEntity
  8
STALLUNGEN_1_100
  6
Continuous
 62
     0
100
AcDbLine
 10
37.07309967661815
 20
-13.17436043892181
 30
0.0
 11
37.53309967661705
 21
-13.17436043892181
 31
0.0
  0
LINE
  5
B6
330
21
100
AcDbEntity
  8
STALLUNGEN_1_100
  6
Continuous
 62
     0
100
AcDbLine
 10
37.53309967661705
 20
-13.17436043892181
 30
0.0
 11
37.53309967661705
 21
-13.63436043892182
 31
0.0
  0
LINE
  5
B7
330
21
100
AcDbEntity
  8
STALLUNGEN_1_100
  6
Continuous
 62
     0
100
AcDbLine
 10
37.53309967661705
 20
-13.63436043892182
 30
0.0
 11
37.48309967661818
 21
-13.63436043892182
 31
0.0
  0
LINE
  5
B8
330
21
100
AcDbEntity
  8
STALLUNGEN_1_100
  6
Continuous
 62
     0
100
AcDbLine
 10
37.48309967661818
 20
-13.63436043892182
 30
0.0
 11
37.48309967661818
 21
-16.29936043892183
 31
0.0
  0
LINE
  5
B9
330
21
100
AcDbEntity
  8
STALLUNGEN_1_100
  6
Continuous
 62
     0
100
AcDbLine
 10
37.48309967661818
 20
-16.29936043892183
 30
0.0
 11
38.63309967661816
 21
-16.29936043892183
 31
0.0
  0
LINE
  5
BA
330
21
100
AcDbEntity
  8
STALLUNGEN_1_100
  6
Continuous
 62
     0
100
AcDbLine
 10
38.63309967661816
 20
-16.29936043892183
 30
0.0
 11
38.63309967661816
 21
-16.44936043892181
 31
0.0
  0
LINE
  5
BB
330
21
100
AcDbEntity
  8
STALLUNGEN_1_100
  6
Continuous
 62
     0
100
AcDbLine
 10
38.63309967661816
 20
-16.44936043892181
 30
0.0
 11
38.53309967661817
 21
-16.44936043892181
 31
0.0
  0
LINE
  5
BC
330
21
100
AcDbEntity
  8
STALLUNGEN_1_100
  6
Continuous
 62
     0
100
AcDbLine
 10
38.53309967661817
 20
-16.44936043892181
 30
0.0
 11
38.53309967661817
 21
-16.56936043892183
 31
0.0
  0
LINE
  5
BD
330
21
100
AcDbEntity
  8
STALLUNGEN_1_100
  6
Continuous
 62
     0
100
AcDbLine
 10
38.53309967661817
 20
-16.56936043892183
 30
0.0
 11
37.53309967661816
 21
-16.56936043892183
 31
0.0
  0
LINE
  5
BE
330
21
100
AcDbEntity
  8
STALLUNGEN_1_100
  6
Continuous
 62
     0
100
AcDbLine
 10
37.53309967661816
 20
-16.56936043892183
 30
0.0
 11
37.53309967661816
 21
-17.07936043892181
 31
0.0
  0
LINE
  5
BF
330
21
100
AcDbEntity
  8
STALLUNGEN_1_100
  6
Continuous
 62
     0
100
AcDbLine
 10
37.53309967661816
 20
-17.07936043892181
 30
0.0
 11
36.89309967661817
 21
-17.07936043892181
 31
0.0
  0
LINE
  5
C0
330
21
100
AcDbEntity
  8
STALLUNGEN_1_100
  6
Continuous
 62
     0
100
AcDbLine
 10
36.89309967661817
 20
-17.07936043892181
 30
0.0
 11
36.89309967661817
 21
-16.94936043892181
 31
0.0
  0
LINE
  5
C1
330
21
100
AcDbEntity
  8
STALLUNGEN_1_100
  6
Continuous
 62
     0
100
AcDbLine
 10
9.858099676618166
 20
-6.189360438921805
 30
0.0
 11
9.858099676618166
 21
-6.0593604389218
 31
0.0
  0
LINE
  5
C2
330
21
100
AcDbEntity
  8
STALLUNGEN_1_100
  6
Continuous
 62
     0
100
AcDbLine
 10
9.858099676618166
 20
-6.0593604389218
 30
0.0
 11
10.35809967661817
 21
-6.0593604389218
 31
0.0
  0
LINE
  5
C3
330
21
100
AcDbEntity
  8
STALLUNGEN_1_100
  6
Continuous
 62
     0
100
AcDbLine
 10
10.35809967661817
 20
-6.0593604389218
 30
0.0
 11
10.35809967661817
 21
-6.189360438921805
 31
0.0
  0
LINE
  5
C4
330
21
100
AcDbEntity
  8
STALLUNGEN_1_100
  6
Continuous
 62
     0
100
AcDbLine
 10
10.35809967661817
 20
-6.189360438921805
 30
0.0
 11
11.28059967661816
 21
-6.189360438921805
 31
0.0
  0
LINE
  5
C5
330
21
100
AcDbEntity
  8
STALLUNGEN_1_100
  6
Continuous
 62
     0
100
AcDbLine
 10
11.28059967661816
 20
-6.189360438921805
 30
0.0
 11
11.28059967661816
 21
-6.404360438921785
 31
0.0
  0
LINE
  5
C6
330
21
100
AcDbEntity
  8
STALLUNGEN_1_100
  6
Continuous
 62
     0
100
AcDbLine
 10
11.28059967661816
 20
-6.404360438921785
 30
0.0
 11
11.40309967661815
 21
-6.404360438921785
 31
0.0
  0
LINE
  5
C7
330
21
100
AcDbEntity
  8
STALLUNGEN_1_100
  6
Continuous
 62
     0
100
AcDbLine
 10
11.40309967661815
 20
-6.404360438921785
 30
0.0
 11
11.40309967661815
 21
-6.584360438921813
 31
0.0
  0
LINE
  5
C8
330
21
100
AcDbEntity
  8
STALLUNGEN_1_100
  6
Continuous
 62
     0
100
AcDbLine
 10
11.40309967661815
 20
-6.584360438921813
 30
0.0
 11
-3.396900323381853
 21
-6.584360438921811
 31
0.0
  0
LINE
  5
C9
330
21
100
AcDbEntity
  8
STALLUNGEN_1_100
  6
Continuous
 62
     0
100
AcDbLine
 10
-3.396900323381853
 20
-6.584360438921811
 30
0.0
 11
-3.396900323381853
 21
-9.964360438921804
 31
0.0
  0
LINE
  5
CA
330
21
100
AcDbEntity
  8
STALLUNGEN_1_100
  6
Continuous
 62
     0
100
AcDbLine
 10
-3.396900323381853
 20
-9.964360438921804
 30
0.0
 11
-3.85690032338191
 21
-9.964360438921804
 31
0.0
  0
LINE
  5
CB
330
21
100
AcDbEntity
  8
STALLUNGEN_1_100
  6
Continuous
 62
     0
100
AcDbLine
 10
-3.85690032338191
 20
-9.964360438921804
 30
0.0
 11
-3.85690032338191
 21
-9.504360438921793
 31
0.0
  0
LINE
  5
CC
330
21
100
AcDbEntity
  8
STALLUNGEN_1_100
  6
Continuous
 62
     0
100
AcDbLine
 10
-3.85690032338191
 20
-9.504360438921793
 30
0.0
 11
-3.806900323381841
 21
-9.504360438921793
 31
0.0
  0
LINE
  5
CD
330
21
100
AcDbEntity
  8
STALLUNGEN_1_100
  6
Continuous
 62
     0
100
AcDbLine
 10
-3.806900323381841
 20
-9.504360438921793
 30
0.0
 11
-3.806900323381841
 21
-6.839360438921781
 31
0.0
  0
LINE
  5
CE
330
21
100
AcDbEntity
  8
STALLUNGEN_1_100
  6
Continuous
 62
     0
100
AcDbLine
 10
-3.806900323381841
 20
-6.839360438921781
 30
0.0
 11
-4.566900323381807
 21
-6.839360438921781
 31
0.0
  0
LINE
  5
CF
330
21
100
AcDbEntity
  8
STALLUNGEN_1_100
  6
Continuous
 62
     0
100
AcDbLine
 10
-4.566900323381807
 20
-6.839360438921781
 30
0.0
 11
-4.566900323381807
 21
-6.689360438921804
 31
0.0
  0
LINE
  5
D0
330
21
100
AcDbEntity
  8
STALLUNGEN_1_100
  6
Continuous
 62
     0
100
AcDbLine
 10
-4.566900323381807
 20
-6.689360438921804
 30
0.0
 11
-4.466900323381852
 21
-6.689360438921804
 31
0.0
  0
LINE
  5
D1
330
21
100
AcDbEntity
  8
STALLUNGEN_1_100
  6
Continuous
 62
     0
100
AcDbLine
 10
-4.466900323381852
 20
-6.689360438921804
 30
0.0
 11
-4.466900323381852
 21
-6.569360438921785
 31
0.0
  0
LINE
  5
D2
330
21
100
AcDbEntity
  8
STALLUNGEN_1_100
  6
Continuous
 62
     0
100
AcDbLine
 10
-4.466900323381852
 20
-6.569360438921785
 30
0.0
 11
-3.816900323381826
 21
-6.569360438921785
 31
0.0
  0
LINE
  5
D3
330
21
100
AcDbEntity
  8
STALLUNGEN_1_100
  6
Continuous
 62
     0
100
AcDbLine
 10
-3.816900323381826
 20
-6.569360438921785
 30
0.0
 11
-3.816900323381826
 21
-6.059360438921797
 31
0.0
  0
LINE
  5
D4
330
21
100
AcDbEntity
  8
STALLUNGEN_1_100
  6
Continuous
 62
     0
100
AcDbLine
 10
-3.816900323381826
 20
-6.059360438921797
 30
0.0
 11
-3.176900323381834
 21
-6.059360438921797
 31
0.0
  0
LINE
  5
D5
330
21
100
AcDbEntity
  8
STALLUNGEN_1_100
  6
Continuous
 62
     0
100
AcDbLine
 10
-3.176900323381834
 20
-6.059360438921797
 30
0.0
 11
-3.176900323381834
 21
-6.189360438921802
 31
0.0
  0
LINE
  5
D6
330
21
100
AcDbEntity
  8
STALLUNGEN_1_100
  6
Continuous
 62
     0
100
AcDbLine
 10
-3.176900323381834
 20
-6.189360438921802
 30
0.0
 11
0.8580996766181781
 21
-6.189360438921805
 31
0.0
  0
LINE
  5
D7
330
21
100
AcDbEntity
  8
STALLUNGEN_1_100
  6
Continuous
 62
     0
100
AcDbLine
 10
0.8580996766181781
 20
-6.189360438921805
 30
0.0
 11
0.8580996766181781
 21
-6.0593604389218
 31
0.0
  0
LINE
  5
D8
330
21
100
AcDbEntity
  8
STALLUNGEN_1_100
  6
Continuous
 62
     0
100
AcDbLine
 10
0.8580996766181781
 20
-6.0593604389218
 30
0.0
 11
1.35809967661818
 21
-6.0593604389218
 31
0.0
  0
LINE
  5
D9
330
21
100
AcDbEntity
  8
STALLUNGEN_1_100
  6
Continuous
 62
     0
100
AcDbLine
 10
1.35809967661818
 20
-6.0593604389218
 30
0.0
 11
1.35809967661818
 21
-6.189360438921805
 31
0.0
  0
LINE
  5
DA
330
21
100
AcDbEntity
  8
STALLUNGEN_1_100
  6
Continuous
 62
     0
100
AcDbLine
 10
1.35809967661818
 20
-6.189360438921805
 30
0.0
 11
5.358099676618194
 21
-6.189360438921805
 31
0.0
  0
LINE
  5
DB
330
21
100
AcDbEntity
  8
STALLUNGEN_1_100
  6
Continuous
 62
     0
100
AcDbLine
 10
5.358099676618194
 20
-6.189360438921805
 30
0.0
 11
5.358099676618194
 21
-6.0593604389218
 31
0.0
  0
LINE
  5
DC
330
21
100
AcDbEntity
  8
STALLUNGEN_1_100
  6
Continuous
 62
     0
100
AcDbLine
 10
5.358099676618194
 20
-6.0593604389218
 30
0.0
 11
5.85809967661815
 21
-6.0593604389218
 31
0.0
  0
LINE
  5
DD
330
21
100
AcDbEntity
  8
STALLUNGEN_1_100
  6
Continuous
 62
     0
100
AcDbLine
 10
5.85809967661815
 20
-6.0593604389218
 30
0.0
 11
5.85809967661815
 21
-6.189360438921805
 31
0.0
  0
LINE
  5
DE
330
21
100
AcDbEntity
  8
STALLUNGEN_1_100
  6
Continuous
 62
     0
100
AcDbLine
 10
5.85809967661815
 20
-6.189360438921805
 30
0.0
 11
9.858099676618166
 21
-6.189360438921805
 31
0.0
  0
LINE
  5
DF
330
21
100
AcDbEntity
  8
STALLUNGEN_1_100
  6
Continuous
 62
     0
100
AcDbLine
 10
28.35809967661818
 20
-6.059360438921803
 30
0.0
 11
27.85809967661819
 21
-6.059360438921803
 31
0.0
  0
LINE
  5
E0
330
21
100
AcDbEntity
  8
STALLUNGEN_1_100
  6
Continuous
 62
     0
100
AcDbLine
 10
27.85809967661819
 20
-6.059360438921803
 30
0.0
 11
27.85809967661819
 21
-6.189360438921808
 31
0.0
  0
LINE
  5
E1
330
21
100
AcDbEntity
  8
STALLUNGEN_1_100
  6
Continuous
 62
     0
100
AcDbLine
 10
27.85809967661819
 20
-6.189360438921808
 30
0.0
 11
23.85809967661817
 21
-6.189360438921808
 31
0.0
  0
LINE
  5
E2
330
21
100
AcDbEntity
  8
STALLUNGEN_1_100
  6
Continuous
 62
     0
100
AcDbLine
 10
23.85809967661817
 20
-6.189360438921808
 30
0.0
 11
23.85809967661817
 21
-6.059360438921803
 31
0.0
  0
LINE
  5
E3
330
21
100
AcDbEntity
  8
STALLUNGEN_1_100
  6
Continuous
 62
     0
100
AcDbLine
 10
23.85809967661817
 20
-6.059360438921803
 30
0.0
 11
23.35809967661817
 21
-6.059360438921803
 31
0.0
  0
LINE
  5
E4
330
21
100
AcDbEntity
  8
STALLUNGEN_1_100
  6
Continuous
 62
     0
100
AcDbLine
 10
23.35809967661817
 20
-6.059360438921803
 30
0.0
 11
23.35809967661817
 21
-6.189360438921808
 31
0.0
  0
LINE
  5
E5
330
21
100
AcDbEntity
  8
STALLUNGEN_1_100
  6
Continuous
 62
     0
100
AcDbLine
 10
23.35809967661817
 20
-6.189360438921808
 30
0.0
 11
19.35809967661815
 21
-6.189360438921805
 31
0.0
  0
LINE
  5
E6
330
21
100
AcDbEntity
  8
STALLUNGEN_1_100
  6
Continuous
 62
     0
100
AcDbLine
 10
19.35809967661815
 20
-6.189360438921805
 30
0.0
 11
19.35809967661815
 21
-6.0593604389218
 31
0.0
  0
LINE
  5
E7
330
21
100
AcDbEntity
  8
STALLUNGEN_1_100
  6
Continuous
 62
     0
100
AcDbLine
 10
19.35809967661815
 20
-6.0593604389218
 30
0.0
 11
18.85809967661815
 21
-6.0593604389218
 31
0.0
  0
LINE
  5
E8
330
21
100
AcDbEntity
  8
STALLUNGEN_1_100
  6
Continuous
 62
     0
100
AcDbLine
 10
18.85809967661815
 20
-6.0593604389218
 30
0.0
 11
18.85809967661815
 21
-6.189360438921805
 31
0.0
  0
LINE
  5
E9
330
21
100
AcDbEntity
  8
STALLUNGEN_1_100
  6
Continuous
 62
     0
100
AcDbLine
 10
18.85809967661815
 20
-6.189360438921805
 30
0.0
 11
14.85809967661818
 21
-6.189360438921805
 31
0.0
  0
LINE
  5
EA
330
21
100
AcDbEntity
  8
STALLUNGEN_1_100
  6
Continuous
 62
     0
100
AcDbLine
 10
14.85809967661818
 20
-6.189360438921805
 30
0.0
 11
14.85809967661818
 21
-6.0593604389218
 31
0.0
  0
LINE
  5
EB
330
21
100
AcDbEntity
  8
STALLUNGEN_1_100
  6
Continuous
 62
     0
100
AcDbLine
 10
14.85809967661818
 20
-6.0593604389218
 30
0.0
 11
14.34809967661815
 21
-6.0593604389218
 31
0.0
  0
LINE
  5
EC
330
21
100
AcDbEntity
  8
STALLUNGEN_1_100
  6
Continuous
 62
     0
100
AcDbLine
 10
14.34809967661815
 20
-6.0593604389218
 30
0.0
 11
14.34809967661815
 21
-6.189360438921805
 31
0.0
  0
LINE
  5
ED
330
21
100
AcDbEntity
  8
STALLUNGEN_1_100
  6
Continuous
 62
     0
100
AcDbLine
 10
14.34809967661815
 20
-6.189360438921805
 30
0.0
 11
13.43559967661819
 21
-6.189360438921805
 31
0.0
  0
LINE
  5
EE
330
21
100
AcDbEntity
  8
STALLUNGEN_1_100
  6
Continuous
 62
     0
100
AcDbLine
 10
13.43559967661819
 20
-6.189360438921805
 30
0.0
 11
13.43559967661819
 21
-6.404360438921785
 31
0.0
  0
LINE
  5
EF
330
21
100
AcDbEntity
  8
STALLUNGEN_1_100
  6
Continuous
 62
     0
100
AcDbLine
 10
13.43559967661819
 20
-6.404360438921785
 30
0.0
 11
13.31309967661815
 21
-6.404360438921785
 31
0.0
  0
LINE
  5
F0
330
21
100
AcDbEntity
  8
STALLUNGEN_1_100
  6
Continuous
 62
     0
100
AcDbLine
 10
13.31309967661815
 20
-6.404360438921785
 30
0.0
 11
13.31309967661815
 21
-6.584360438921813
 31
0.0
  0
LINE
  5
F1
330
21
100
AcDbEntity
  8
STALLUNGEN_1_100
  6
Continuous
 62
     0
100
AcDbLine
 10
13.31309967661815
 20
-6.584360438921813
 30
0.0
 11
37.07309967661815
 21
-6.584360438921817
 31
0.0
  0
LINE
  5
F2
330
21
100
AcDbEntity
  8
STALLUNGEN_1_100
  6
Continuous
 62
     0
100
AcDbLine
 10
37.07309967661815
 20
-6.584360438921817
 30
0.0
 11
37.07309967661815
 21
-9.96436043892181
 31
0.0
  0
LINE
  5
F3
330
21
100
AcDbEntity
  8
STALLUNGEN_1_100
  6
Continuous
 62
     0
100
AcDbLine
 10
37.07309967661815
 20
-9.96436043892181
 30
0.0
 11
37.53309967661705
 21
-9.96436043892181
 31
0.0
  0
LINE
  5
F4
330
21
100
AcDbEntity
  8
STALLUNGEN_1_100
  6
Continuous
 62
     0
100
AcDbLine
 10
37.53309967661705
 20
-9.96436043892181
 30
0.0
 11
37.53309967661705
 21
-9.5043604389218
 31
0.0
  0
LINE
  5
F5
330
21
100
AcDbEntity
  8
STALLUNGEN_1_100
  6
Continuous
 62
     0
100
AcDbLine
 10
37.53309967661705
 20
-9.5043604389218
 30
0.0
 11
37.48309967661818
 21
-9.5043604389218
 31
0.0
  0
LINE
  5
F6
330
21
100
AcDbEntity
  8
STALLUNGEN_1_100
  6
Continuous
 62
     0
100
AcDbLine
 10
37.48309967661818
 20
-9.5043604389218
 30
0.0
 11
37.48309967661818
 21
-6.839360438921787
 31
0.0
  0
LINE
  5
F7
330
21
100
AcDbEntity
  8
STALLUNGEN_1_100
  6
Continuous
 62
     0
100
AcDbLine
 10
37.48309967661818
 20
-6.839360438921787
 30
0.0
 11
38.63309967661816
 21
-6.839360438921787
 31
0.0
  0
LINE
  5
F8
330
21
100
AcDbEntity
  8
STALLUNGEN_1_100
  6
Continuous
 62
     0
100
AcDbLine
 10
38.63309967661816
 20
-6.839360438921787
 30
0.0
 11
38.63309967661816
 21
-6.68936043892181
 31
0.0
  0
LINE
  5
F9
330
21
100
AcDbEntity
  8
STALLUNGEN_1_100
  6
Continuous
 62
     0
100
AcDbLine
 10
38.63309967661816
 20
-6.68936043892181
 30
0.0
 11
38.53309967661817
 21
-6.68936043892181
 31
0.0
  0
LINE
  5
FA
330
21
100
AcDbEntity
  8
STALLUNGEN_1_100
  6
Continuous
 62
     0
100
AcDbLine
 10
38.53309967661817
 20
-6.68936043892181
 30
0.0
 11
38.53309967661817
 21
-6.569360438921791
 31
0.0
  0
LINE
  5
FB
330
21
100
AcDbEntity
  8
STALLUNGEN_1_100
  6
Continuous
 62
     0
100
AcDbLine
 10
38.53309967661817
 20
-6.569360438921791
 30
0.0
 11
37.53309967661816
 21
-6.569360438921791
 31
0.0
  0
LINE
  5
FC
330
21
100
AcDbEntity
  8
STALLUNGEN_1_100
  6
Continuous
 62
     0
100
AcDbLine
 10
37.53309967661816
 20
-6.569360438921791
 30
0.0
 11
37.53309967661816
 21
-6.059360438921803
 31
0.0
  0
LINE
  5
FD
330
21
100
AcDbEntity
  8
STALLUNGEN_1_100
  6
Continuous
 62
     0
100
AcDbLine
 10
37.53309967661816
 20
-6.059360438921803
 30
0.0
 11
36.89309967661817
 21
-6.059360438921803
 31
0.0
  0
LINE
  5
FE
330
21
100
AcDbEntity
  8
STALLUNGEN_1_100
  6
Continuous
 62
     0
100
AcDbLine
 10
36.89309967661817
 20
-6.059360438921803
 30
0.0
 11
36.89309967661817
 21
-6.189360438921808
 31
0.0
  0
LINE
  5
FF
330
21
100
AcDbEntity
  8
STALLUNGEN_1_100
  6
Continuous
 62
     0
100
AcDbLine
 10
36.89309967661817
 20
-6.189360438921808
 30
0.0
 11
32.85809967661815
 21
-6.189360438921808
 31
0.0
  0
LINE
  5
100
330
21
100
AcDbEntity
  8
STALLUNGEN_1_100
  6
Continuous
 62
     0
100
AcDbLine
 10
32.85809967661815
 20
-6.189360438921808
 30
0.0
 11
32.85809967661815
 21
-6.059360438921803
 31
0.0
  0
LINE
  5
101
330
21
100
AcDbEntity
  8
STALLUNGEN_1_100
  6
Continuous
 62
     0
100
AcDbLine
 10
32.85809967661815
 20
-6.059360438921803
 30
0.0
 11
32.35809967661815
 21
-6.059360438921803
 31
0.0
  0
LINE
  5
102
330
21
100
AcDbEntity
  8
STALLUNGEN_1_100
  6
Continuous
 62
     0
100
AcDbLine
 10
32.35809967661815
 20
-6.059360438921803
 30
0.0
 11
32.35809967661815
 21
-6.189360438921808
 31
0.0
  0
LINE
  5
103
330
21
100
AcDbEntity
  8
STALLUNGEN_1_100
  6
Continuous
 62
     0
100
AcDbLine
 10
32.35809967661815
 20
-6.189360438921808
 30
0.0
 11
28.35809967661818
 21
-6.189360438921808
 31
0.0
  0
LINE
  5
104
330
21
100
AcDbEntity
  8
STALLUNGEN_1_100
  6
Continuous
 62
     0
100
AcDbLine
 10
28.35809967661818
 20
-6.189360438921808
 30
0.0
 11
28.35809967661818
 21
-6.059360438921803
 31
0.0
  0
LINE
  5
105
330
21
100
AcDbEntity
  8
STALLUNGEN_1_100
  6
Continuous
 62
     0
100
AcDbLine
 10
-5.746900323381838
 20
-13.2393604389218
 30
0.0
 11
-5.746900323381838
 21
-16.29936043892183
 31
0.0
  0
LINE
  5
106
330
21
100
AcDbEntity
  8
STALLUNGEN_1_100
  6
Continuous
 62
     0
100
AcDbLine
 10
-5.746900323381838
 20
-16.29936043892183
 30
0.0
 11
-5.266900323381809
 21
-16.29936043892183
 31
0.0
  0
LINE
  5
107
330
21
100
AcDbEntity
  8
STALLUNGEN_1_100
  6
Continuous
 62
     0
100
AcDbLine
 10
-5.266900323381809
 20
-16.29936043892183
 30
0.0
 11
-5.266900323381809
 21
-16.4493604389218
 31
0.0
  0
LINE
  5
108
330
21
100
AcDbEntity
  8
STALLUNGEN_1_100
  6
Continuous
 62
     0
100
AcDbLine
 10
-5.266900323381809
 20
-16.4493604389218
 30
0.0
 11
-5.366900323381809
 21
-16.4493604389218
 31
0.0
  0
LINE
  5
109
330
21
100
AcDbEntity
  8
STALLUNGEN_1_100
  6
Continuous
 62
     0
100
AcDbLine
 10
-5.366900323381809
 20
-16.4493604389218
 30
0.0
 11
-5.366900323381809
 21
-16.56936043892182
 31
0.0
  0
LINE
  5
10A
330
21
100
AcDbEntity
  8
STALLUNGEN_1_100
  6
Continuous
 62
     0
100
AcDbLine
 10
-5.366900323381809
 20
-16.56936043892182
 30
0.0
 11
-6.016900323381834
 21
-16.56936043892182
 31
0.0
  0
LINE
  5
10B
330
21
100
AcDbEntity
  8
STALLUNGEN_1_100
  6
Continuous
 62
     0
100
AcDbLine
 10
-6.016900323381834
 20
-16.56936043892182
 30
0.0
 11
-6.016900323381834
 21
-13.2393604389218
 31
0.0
  0
LINE
  5
10C
330
21
100
AcDbEntity
  8
STALLUNGEN_1_100
  6
Continuous
 62
     0
100
AcDbLine
 10
-6.016900323381834
 20
-13.2393604389218
 30
0.0
 11
-5.746900323381838
 21
-13.2393604389218
 31
0.0
  0
LINE
  5
10D
330
21
100
AcDbEntity
  8
STALLUNGEN_1_100
  6
Continuous
 62
     0
100
AcDbLine
 10
-4.466900323381852
 20
-16.48936043892179
 30
0.0
 11
-5.366900323381809
 21
-16.48936043892179
 31
0.0
  0
LINE
  5
10E
330
21
100
AcDbEntity
  8
STALLUNGEN_1_100
  6
Continuous
 62
     0
100
AcDbLine
 10
-5.366900323381809
 20
-16.48936043892179
 30
0.0
 11
-5.366900323381809
 21
-16.6193604389218
 31
0.0
  0
LINE
  5
10F
330
21
100
AcDbEntity
  8
STALLUNGEN_1_100
  6
Continuous
 62
     0
100
AcDbLine
 10
-5.366900323381809
 20
-16.6193604389218
 30
0.0
 11
-4.466900323381852
 21
-16.6193604389218
 31
0.0
  0
LINE
  5
110
330
21
100
AcDbEntity
  8
STALLUNGEN_1_100
  6
Continuous
 62
     0
100
AcDbLine
 10
-4.466900323381852
 20
-16.6193604389218
 30
0.0
 11
-4.466900323381852
 21
-16.48936043892179
 31
0.0
  0
LINE
  5
111
330
21
100
AcDbEntity
  8
STALLUNGEN_1_100
  6
Continuous
 62
     0
100
AcDbLine
 10
-4.466900323381852
 20
-16.48936043892179
 30
0.0
 11
-5.366900323381809
 21
-16.48936043892179
 31
0.0
  0
LINE
  5
112
330
21
100
AcDbEntity
  8
STALLUNGEN_1_100
  6
Continuous
 62
     0
100
AcDbLine
 10
-5.366900323381809
 20
-16.48936043892179
 30
0.0
 11
-5.366900323381809
 21
-16.4493604389218
 31
0.0
  0
LINE
  5
113
330
21
100
AcDbEntity
  8
STALLUNGEN_1_100
  6
Continuous
 62
     0
100
AcDbLine
 10
-5.366900323381809
 20
-16.4493604389218
 30
0.0
 11
-4.466900323381852
 21
-16.4493604389218
 31
0.0
  0
LINE
  5
114
330
21
100
AcDbEntity
  8
STALLUNGEN_1_100
  6
Continuous
 62
     0
100
AcDbLine
 10
-4.466900323381852
 20
-16.4493604389218
 30
0.0
 11
-4.466900323381852
 21
-16.48936043892179
 31
0.0
  0
LINE
  5
115
330
21
100
AcDbEntity
  8
STALLUNGEN_1_100
  6
Continuous
 62
     0
100
AcDbLine
 10
-4.566900323381807
 20
-16.4493604389218
 30
0.0
 11
-5.266900323381809
 21
-16.4493604389218
 31
0.0
  0
LINE
  5
116
330
21
100
AcDbEntity
  8
STALLUNGEN_1_100
  6
Continuous
 62
     0
100
AcDbLine
 10
-5.266900323381809
 20
-16.4493604389218
 30
0.0
 11
-5.266900323381809
 21
-16.29936043892183
 31
0.0
  0
LINE
  5
117
330
21
100
AcDbEntity
  8
STALLUNGEN_1_100
  6
Continuous
 62
     0
100
AcDbLine
 10
-5.266900323381809
 20
-16.29936043892183
 30
0.0
 11
-4.566900323381807
 21
-16.29936043892183
 31
0.0
  0
LINE
  5
118
330
21
100
AcDbEntity
  8
STALLUNGEN_1_100
  6
Continuous
 62
     0
100
AcDbLine
 10
-4.566900323381807
 20
-16.29936043892183
 30
0.0
 11
-4.566900323381807
 21
-16.4493604389218
 31
0.0
  0
LINE
  5
119
330
21
100
AcDbEntity
  8
STALLUNGEN_1_100
  6
Continuous
 62
     0
100
AcDbLine
 10
-5.746900323381838
 20
-9.899360438921801
 30
0.0
 11
-5.746900323381838
 21
-6.839360438921781
 31
0.0
  0
LINE
  5
11A
330
21
100
AcDbEntity
  8
STALLUNGEN_1_100
  6
Continuous
 62
     0
100
AcDbLine
 10
-5.746900323381838
 20
-6.839360438921781
 30
0.0
 11
-5.266900323381809
 21
-6.839360438921781
 31
0.0
  0
LINE
  5
11B
330
21
100
AcDbEntity
  8
STALLUNGEN_1_100
  6
Continuous
 62
     0
100
AcDbLine
 10
-5.266900323381809
 20
-6.839360438921781
 30
0.0
 11
-5.266900323381809
 21
-6.689360438921804
 31
0.0
  0
LINE
  5
11C
330
21
100
AcDbEntity
  8
STALLUNGEN_1_100
  6
Continuous
 62
     0
100
AcDbLine
 10
-5.266900323381809
 20
-6.689360438921804
 30
0.0
 11
-5.366900323381809
 21
-6.689360438921804
 31
0.0
  0
LINE
  5
11D
330
21
100
AcDbEntity
  8
STALLUNGEN_1_100
  6
Continuous
 62
     0
100
AcDbLine
 10
-5.366900323381809
 20
-6.689360438921804
 30
0.0
 11
-5.366900323381809
 21
-6.569360438921785
 31
0.0
  0
LINE
  5
11E
330
21
100
AcDbEntity
  8
STALLUNGEN_1_100
  6
Continuous
 62
     0
100
AcDbLine
 10
-5.366900323381809
 20
-6.569360438921785
 30
0.0
 11
-6.016900323381834
 21
-6.569360438921785
 31
0.0
  0
LINE
  5
11F
330
21
100
AcDbEntity
  8
STALLUNGEN_1_100
  6
Continuous
 62
     0
100
AcDbLine
 10
-6.016900323381834
 20
-6.569360438921785
 30
0.0
 11
-6.016900323381834
 21
-9.899360438921801
 31
0.0
  0
LINE
  5
120
330
21
100
AcDbEntity
  8
STALLUNGEN_1_100
  6
Continuous
 62
     0
100
AcDbLine
 10
-6.016900323381834
 20
-9.899360438921801
 30
0.0
 11
-5.746900323381838
 21
-9.899360438921801
 31
0.0
  0
LINE
  5
121
330
21
100
AcDbEntity
  8
STALLUNGEN_1_100
  6
Continuous
 62
     0
100
AcDbLine
 10
-4.466900323381852
 20
-6.649360438921813
 30
0.0
 11
-5.366900323381809
 21
-6.649360438921813
 31
0.0
  0
LINE
  5
122
330
21
100
AcDbEntity
  8
STALLUNGEN_1_100
  6
Continuous
 62
     0
100
AcDbLine
 10
-5.366900323381809
 20
-6.649360438921813
 30
0.0
 11
-5.366900323381809
 21
-6.519360438921808
 31
0.0
  0
LINE
  5
123
330
21
100
AcDbEntity
  8
STALLUNGEN_1_100
  6
Continuous
 62
     0
100
AcDbLine
 10
-5.366900323381809
 20
-6.519360438921808
 30
0.0
 11
-4.466900323381852
 21
-6.519360438921808
 31
0.0
  0
LINE
  5
124
330
21
100
AcDbEntity
  8
STALLUNGEN_1_100
  6
Continuous
 62
     0
100
AcDbLine
 10
-4.466900323381852
 20
-6.519360438921808
 30
0.0
 11
-4.466900323381852
 21
-6.649360438921813
 31
0.0
  0
LINE
  5
125
330
21
100
AcDbEntity
  8
STALLUNGEN_1_100
  6
Continuous
 62
     0
100
AcDbLine
 10
-4.466900323381852
 20
-6.689360438921804
 30
0.0
 11
-5.366900323381809
 21
-6.689360438921804
 31
0.0
  0
LINE
  5
126
330
21
100
AcDbEntity
  8
STALLUNGEN_1_100
  6
Continuous
 62
     0
100
AcDbLine
 10
-5.366900323381809
 20
-6.689360438921804
 30
0.0
 11
-5.366900323381809
 21
-6.649360438921813
 31
0.0
  0
LINE
  5
127
330
21
100
AcDbEntity
  8
STALLUNGEN_1_100
  6
Continuous
 62
     0
100
AcDbLine
 10
-5.366900323381809
 20
-6.649360438921813
 30
0.0
 11
-4.466900323381852
 21
-6.649360438921813
 31
0.0
  0
LINE
  5
128
330
21
100
AcDbEntity
  8
STALLUNGEN_1_100
  6
Continuous
 62
     0
100
AcDbLine
 10
-4.466900323381852
 20
-6.649360438921813
 30
0.0
 11
-4.466900323381852
 21
-6.689360438921804
 31
0.0
  0
LINE
  5
129
330
21
100
AcDbEntity
  8
STALLUNGEN_1_100
  6
Continuous
 62
     0
100
AcDbLine
 10
-4.566900323381807
 20
-6.839360438921781
 30
0.0
 11
-5.266900323381809
 21
-6.839360438921781
 31
0.0
  0
LINE
  5
12A
330
21
100
AcDbEntity
  8
STALLUNGEN_1_100
  6
Continuous
 62
     0
100
AcDbLine
 10
-5.266900323381809
 20
-6.839360438921781
 30
0.0
 11
-5.266900323381809
 21
-6.689360438921804
 31
0.0
  0
LINE
  5
12B
330
21
100
AcDbEntity
  8
STALLUNGEN_1_100
  6
Continuous
 62
     0
100
AcDbLine
 10
-5.266900323381809
 20
-6.689360438921804
 30
0.0
 11
-4.566900323381807
 21
-6.689360438921804
 31
0.0
  0
LINE
  5
12C
330
21
100
AcDbEntity
  8
STALLUNGEN_1_100
  6
Continuous
 62
     0
100
AcDbLine
 10
-4.566900323381807
 20
-6.689360438921804
 30
0.0
 11
-4.566900323381807
 21
-6.839360438921781
 31
0.0
  0
LINE
  5
12D
330
21
100
AcDbEntity
  8
STALLUNGEN_1_100
  6
Continuous
 62
     0
100
AcDbLine
 10
40.46309967661818
 20
-16.29936043892183
 30
0.0
 11
40.46309967661818
 21
-13.23936043892181
 31
0.0
  0
LINE
  5
12E
330
21
100
AcDbEntity
  8
STALLUNGEN_1_100
  6
Continuous
 62
     0
100
AcDbLine
 10
40.46309967661818
 20
-13.23936043892181
 30
0.0
 11
40.73309967661817
 21
-13.23936043892181
 31
0.0
  0
LINE
  5
12F
330
21
100
AcDbEntity
  8
STALLUNGEN_1_100
  6
Continuous
 62
     0
100
AcDbLine
 10
40.73309967661817
 20
-13.23936043892181
 30
0.0
 11
40.73309967661817
 21
-16.56936043892183
 31
0.0
  0
LINE
  5
130
330
21
100
AcDbEntity
  8
STALLUNGEN_1_100
  6
Continuous
 62
     0
100
AcDbLine
 10
40.73309967661817
 20
-16.56936043892183
 30
0.0
 11
39.73309967661817
 21
-16.56936043892183
 31
0.0
  0
LINE
  5
131
330
21
100
AcDbEntity
  8
STALLUNGEN_1_100
  6
Continuous
 62
     0
100
AcDbLine
 10
39.73309967661817
 20
-16.56936043892183
 30
0.0
 11
39.73309967661817
 21
-16.44936043892181
 31
0.0
  0
LINE
  5
132
330
21
100
AcDbEntity
  8
STALLUNGEN_1_100
  6
Continuous
 62
     0
100
AcDbLine
 10
39.73309967661817
 20
-16.44936043892181
 30
0.0
 11
39.63309967661817
 21
-16.44936043892181
 31
0.0
  0
LINE
  5
133
330
21
100
AcDbEntity
  8
STALLUNGEN_1_100
  6
Continuous
 62
     0
100
AcDbLine
 10
39.63309967661817
 20
-16.44936043892181
 30
0.0
 11
39.63309967661817
 21
-16.29936043892183
 31
0.0
  0
LINE
  5
134
330
21
100
AcDbEntity
  8
STALLUNGEN_1_100
  6
Continuous
 62
     0
100
AcDbLine
 10
39.63309967661817
 20
-16.29936043892183
 30
0.0
 11
40.46309967661818
 21
-16.29936043892183
 31
0.0
  0
LINE
  5
135
330
21
100
AcDbEntity
  8
STALLUNGEN_1_100
  6
Continuous
 62
     0
100
AcDbLine
 10
38.53309967661817
 20
-16.6193604389218
 30
0.0
 11
39.73309967661817
 21
-16.6193604389218
 31
0.0
  0
LINE
  5
136
330
21
100
AcDbEntity
  8
STALLUNGEN_1_100
  6
Continuous
 62
     0
100
AcDbLine
 10
39.73309967661817
 20
-16.6193604389218
 30
0.0
 11
39.73309967661817
 21
-16.4893604389218
 31
0.0
  0
LINE
  5
137
330
21
100
AcDbEntity
  8
STALLUNGEN_1_100
  6
Continuous
 62
     0
100
AcDbLine
 10
39.73309967661817
 20
-16.4893604389218
 30
0.0
 11
38.53309967661817
 21
-16.4893604389218
 31
0.0
  0
LINE
  5
138
330
21
100
AcDbEntity
  8
STALLUNGEN_1_100
  6
Continuous
 62
     0
100
AcDbLine
 10
38.53309967661817
 20
-16.4893604389218
 30
0.0
 11
38.53309967661817
 21
-16.6193604389218
 31
0.0
  0
LINE
  5
139
330
21
100
AcDbEntity
  8
STALLUNGEN_1_100
  6
Continuous
 62
     0
100
AcDbLine
 10
39.73309967661817
 20
-16.4893604389218
 30
0.0
 11
38.53309967661817
 21
-16.4893604389218
 31
0.0
  0
LINE
  5
13A
330
21
100
AcDbEntity
  8
STALLUNGEN_1_100
  6
Continuous
 62
     0
100
AcDbLine
 10
38.53309967661817
 20
-16.4893604389218
 30
0.0
 11
38.53309967661817
 21
-16.44936043892181
 31
0.0
  0
LINE
  5
13B
330
21
100
AcDbEntity
  8
STALLUNGEN_1_100
  6
Continuous
 62
     0
100
AcDbLine
 10
38.53309967661817
 20
-16.44936043892181
 30
0.0
 11
39.73309967661817
 21
-16.44936043892181
 31
0.0
  0
LINE
  5
13C
330
21
100
AcDbEntity
  8
STALLUNGEN_1_100
  6
Continuous
 62
     0
100
AcDbLine
 10
39.73309967661817
 20
-16.44936043892181
 30
0.0
 11
39.73309967661817
 21
-16.4893604389218
 31
0.0
  0
LINE
  5
13D
330
21
100
AcDbEntity
  8
STALLUNGEN_1_100
  6
Continuous
 62
     0
100
AcDbLine
 10
39.63309967661817
 20
-16.44936043892181
 30
0.0
 11
38.63309967661816
 21
-16.44936043892181
 31
0.0
  0
LINE
  5
13E
330
21
100
AcDbEntity
  8
STALLUNGEN_1_100
  6
Continuous
 62
     0
100
AcDbLine
 10
38.63309967661816
 20
-16.44936043892181
 30
0.0
 11
38.63309967661816
 21
-16.29936043892183
 31
0.0
  0
LINE
  5
13F
330
21
100
AcDbEntity
  8
STALLUNGEN_1_100
  6
Continuous
 62
     0
100
AcDbLine
 10
38.63309967661816
 20
-16.29936043892183
 30
0.0
 11
39.63309967661817
 21
-16.29936043892183
 31
0.0
  0
LINE
  5
140
330
21
100
AcDbEntity
  8
STALLUNGEN_1_100
  6
Continuous
 62
     0
100
AcDbLine
 10
39.63309967661817
 20
-16.29936043892183
 30
0.0
 11
39.63309967661817
 21
-16.44936043892181
 31
0.0
  0
LINE
  5
141
330
21
100
AcDbEntity
  8
STALLUNGEN_1_100
  6
Continuous
 62
     0
100
AcDbLine
 10
40.73309967661817
 20
-6.569360438921791
 30
0.0
 11
40.73309967661817
 21
-9.899360438921808
 31
0.0
  0
LINE
  5
142
330
21
100
AcDbEntity
  8
STALLUNGEN_1_100
  6
Continuous
 62
     0
100
AcDbLine
 10
40.73309967661817
 20
-9.899360438921808
 30
0.0
 11
40.46309967661818
 21
-9.899360438921808
 31
0.0
  0
LINE
  5
143
330
21
100
AcDbEntity
  8
STALLUNGEN_1_100
  6
Continuous
 62
     0
100
AcDbLine
 10
40.46309967661818
 20
-9.899360438921808
 30
0.0
 11
40.46309967661818
 21
-6.839360438921787
 31
0.0
  0
LINE
  5
144
330
21
100
AcDbEntity
  8
STALLUNGEN_1_100
  6
Continuous
 62
     0
100
AcDbLine
 10
40.46309967661818
 20
-6.839360438921787
 30
0.0
 11
39.63309967661817
 21
-6.839360438921787
 31
0.0
  0
LINE
  5
145
330
21
100
AcDbEntity
  8
STALLUNGEN_1_100
  6
Continuous
 62
     0
100
AcDbLine
 10
39.63309967661817
 20
-6.839360438921787
 30
0.0
 11
39.63309967661817
 21
-6.68936043892181
 31
0.0
  0
LINE
  5
146
330
21
100
AcDbEntity
  8
STALLUNGEN_1_100
  6
Continuous
 62
     0
100
AcDbLine
 10
39.63309967661817
 20
-6.68936043892181
 30
0.0
 11
39.73309967661818
 21
-6.68936043892181
 31
0.0
  0
LINE
  5
147
330
21
100
AcDbEntity
  8
STALLUNGEN_1_100
  6
Continuous
 62
     0
100
AcDbLine
 10
39.73309967661818
 20
-6.68936043892181
 30
0.0
 11
39.73309967661818
 21
-6.569360438921791
 31
0.0
  0
LINE
  5
148
330
21
100
AcDbEntity
  8
STALLUNGEN_1_100
  6
Continuous
 62
     0
100
AcDbLine
 10
39.73309967661818
 20
-6.569360438921791
 30
0.0
 11
40.73309967661817
 21
-6.569360438921791
 31
0.0
  0
LINE
  5
149
330
21
100
AcDbEntity
  8
STALLUNGEN_1_100
  6
Continuous
 62
     0
100
AcDbLine
 10
38.53309967661817
 20
-6.519360438921814
 30
0.0
 11
39.73309967661818
 21
-6.519360438921814
 31
0.0
  0
LINE
  5
14A
330
21
100
AcDbEntity
  8
STALLUNGEN_1_100
  6
Continuous
 62
     0
100
AcDbLine
 10
39.73309967661818
 20
-6.519360438921814
 30
0.0
 11
39.73309967661818
 21
-6.649360438921819
 31
0.0
  0
LINE
  5
14B
330
21
100
AcDbEntity
  8
STALLUNGEN_1_100
  6
Continuous
 62
     0
100
AcDbLine
 10
39.73309967661818
 20
-6.649360438921819
 30
0.0
 11
38.53309967661817
 21
-6.649360438921819
 31
0.0
  0
LINE
  5
14C
330
21
100
AcDbEntity
  8
STALLUNGEN_1_100
  6
Continuous
 62
     0
100
AcDbLine
 10
38.53309967661817
 20
-6.649360438921819
 30
0.0
 11
38.53309967661817
 21
-6.519360438921814
 31
0.0
  0
LINE
  5
14D
330
21
100
AcDbEntity
  8
STALLUNGEN_1_100
  6
Continuous
 62
     0
100
AcDbLine
 10
39.73309967661818
 20
-6.68936043892181
 30
0.0
 11
38.53309967661817
 21
-6.68936043892181
 31
0.0
  0
LINE
  5
14E
330
21
100
AcDbEntity
  8
STALLUNGEN_1_100
  6
Continuous
 62
     0
100
AcDbLine
 10
38.53309967661817
 20
-6.68936043892181
 30
0.0
 11
38.53309967661817
 21
-6.649360438921819
 31
0.0
  0
LINE
  5
14F
330
21
100
AcDbEntity
  8
STALLUNGEN_1_100
  6
Continuous
 62
     0
100
AcDbLine
 10
38.53309967661817
 20
-6.649360438921819
 30
0.0
 11
39.73309967661818
 21
-6.649360438921819
 31
0.0
  0
LINE
  5
150
330
21
100
AcDbEntity
  8
STALLUNGEN_1_100
  6
Continuous
 62
     0
100
AcDbLine
 10
39.73309967661818
 20
-6.649360438921819
 30
0.0
 11
39.73309967661818
 21
-6.68936043892181
 31
0.0
  0
LINE
  5
151
330
21
100
AcDbEntity
  8
STALLUNGEN_1_100
  6
Continuous
 62
     0
100
AcDbLine
 10
39.63309967661817
 20
-6.839360438921787
 30
0.0
 11
38.63309967661816
 21
-6.839360438921787
 31
0.0
  0
LINE
  5
152
330
21
100
AcDbEntity
  8
STALLUNGEN_1_100
  6
Continuous
 62
     0
100
AcDbLine
 10
38.63309967661816
 20
-6.839360438921787
 30
0.0
 11
38.63309967661816
 21
-6.68936043892181
 31
0.0
  0
LINE
  5
153
330
21
100
AcDbEntity
  8
STALLUNGEN_1_100
  6
Continuous
 62
     0
100
AcDbLine
 10
38.63309967661816
 20
-6.68936043892181
 30
0.0
 11
39.63309967661817
 21
-6.68936043892181
 31
0.0
  0
LINE
  5
154
330
21
100
AcDbEntity
  8
STALLUNGEN_1_100
  6
Continuous
 62
     0
100
AcDbLine
 10
39.63309967661817
 20
-6.68936043892181
 30
0.0
 11
39.63309967661817
 21
-6.839360438921787
 31
0.0
  0
LINE
  5
155
330
21
100
AcDbEntity
  8
STALLUNGEN_1_100
  6
Continuous
 62
     0
100
AcDbLine
 10
40.73309967661817
 20
-13.23936043892181
 30
0.0
 11
40.46309967661818
 21
-13.23936043892181
 31
0.0
  0
LINE
  5
156
330
21
100
AcDbEntity
  8
STALLUNGEN_1_100
  6
Continuous
 62
     0
100
AcDbLine
 10
40.46309967661818
 20
-13.23936043892181
 30
0.0
 11
40.46309967661818
 21
-13.15936043892183
 31
0.0
  0
LINE
  5
157
330
21
100
AcDbEntity
  8
STALLUNGEN_1_100
  6
Continuous
 62
     0
100
AcDbLine
 10
40.46309967661818
 20
-13.15936043892183
 30
0.0
 11
40.73309967661817
 21
-13.15936043892183
 31
0.0
  0
LINE
  5
158
330
21
100
AcDbEntity
  8
STALLUNGEN_1_100
  6
Continuous
 62
     0
100
AcDbLine
 10
40.73309967661817
 20
-13.15936043892183
 30
0.0
 11
40.73309967661817
 21
-13.23936043892181
 31
0.0
  0
LINE
  5
159
330
21
100
AcDbEntity
  8
STALLUNGEN_1_100
  6
Continuous
 62
     0
100
AcDbLine
 10
40.73309967661817
 20
-9.979360438921789
 30
0.0
 11
40.46309967661818
 21
-9.979360438921789
 31
0.0
  0
LINE
  5
15A
330
21
100
AcDbEntity
  8
STALLUNGEN_1_100
  6
Continuous
 62
     0
100
AcDbLine
 10
40.46309967661818
 20
-9.979360438921789
 30
0.0
 11
40.46309967661818
 21
-9.899360438921808
 31
0.0
  0
LINE
  5
15B
330
21
100
AcDbEntity
  8
STALLUNGEN_1_100
  6
Continuous
 62
     0
100
AcDbLine
 10
40.46309967661818
 20
-9.899360438921808
 30
0.0
 11
40.73309967661817
 21
-9.899360438921808
 31
0.0
  0
LINE
  5
15C
330
21
100
AcDbEntity
  8
STALLUNGEN_1_100
  6
Continuous
 62
     0
100
AcDbLine
 10
40.73309967661817
 20
-9.899360438921808
 30
0.0
 11
40.73309967661817
 21
-9.979360438921789
 31
0.0
  0
LINE
  5
15D
330
21
100
AcDbEntity
  8
STALLUNGEN_1_100
  6
Continuous
 62
     0
100
AcDbLine
 10
40.31309967661817
 20
-12.6288191874279
 30
0.0
 11
40.39347952805125
 21
-12.92880087688102
 31
0.0
  0
LINE
  5
15E
330
21
100
AcDbEntity
  8
STALLUNGEN_1_100
  6
Continuous
 62
     0
100
AcDbLine
 10
40.39347952805125
 20
-12.92880087688102
 30
0.0
 11
40.23271982518507
 21
-12.92880087688102
 31
0.0
  0
LINE
  5
15F
330
21
100
AcDbEntity
  8
STALLUNGEN_1_100
  6
Continuous
 62
     0
100
AcDbLine
 10
40.23271982518507
 20
-12.92880087688102
 30
0.0
 11
40.31309967661817
 21
-12.6288191874279
 31
0.0
  0
LINE
  5
160
330
21
100
AcDbEntity
  8
STALLUNGEN_1_100
  6
Continuous
 62
     0
100
AcDbLine
 10
40.31309967661817
 20
-10.50990169041572
 30
0.0
 11
40.23271982518507
 21
-10.20992000096259
 31
0.0
  0
LINE
  5
161
330
21
100
AcDbEntity
  8
STALLUNGEN_1_100
  6
Continuous
 62
     0
100
AcDbLine
 10
40.23271982518507
 20
-10.20992000096259
 30
0.0
 11
40.39347952805125
 21
-10.20992000096259
 31
0.0
  0
LINE
  5
162
330
21
100
AcDbEntity
  8
STALLUNGEN_1_100
  6
Continuous
 62
     0
100
AcDbLine
 10
40.39347952805125
 20
-10.20992000096259
 30
0.0
 11
40.31309967661817
 21
-10.50990169041572
 31
0.0
  0
LINE
  5
163
330
21
100
AcDbEntity
  8
STALLUNGEN_1_100
  6
Continuous
 62
     0
100
AcDbLine
 10
-5.746900323381838
 20
-13.2393604389218
 30
0.0
 11
-6.016900323381834
 21
-13.2393604389218
 31
0.0
  0
LINE
  5
164
330
21
100
AcDbEntity
  8
STALLUNGEN_1_100
  6
Continuous
 62
     0
100
AcDbLine
 10
-6.016900323381834
 20
-13.2393604389218
 30
0.0
 11
-6.016900323381834
 21
-13.15936043892182
 31
0.0
  0
LINE
  5
165
330
21
100
AcDbEntity
  8
STALLUNGEN_1_100
  6
Continuous
 62
     0
100
AcDbLine
 10
-6.016900323381834
 20
-13.15936043892182
 30
0.0
 11
-5.746900323381838
 21
-13.15936043892182
 31
0.0
  0
LINE
  5
166
330
21
100
AcDbEntity
  8
STALLUNGEN_1_100
  6
Continuous
 62
     0
100
AcDbLine
 10
-5.746900323381838
 20
-13.15936043892182
 30
0.0
 11
-5.746900323381838
 21
-13.2393604389218
 31
0.0
  0
LINE
  5
167
330
21
100
AcDbEntity
  8
STALLUNGEN_1_100
  6
Continuous
 62
     0
100
AcDbLine
 10
-5.746900323381838
 20
-9.979360438921784
 30
0.0
 11
-6.016900323381834
 21
-9.979360438921784
 31
0.0
  0
LINE
  5
168
330
21
100
AcDbEntity
  8
STALLUNGEN_1_100
  6
Continuous
 62
     0
100
AcDbLine
 10
-6.016900323381834
 20
-9.979360438921784
 30
0.0
 11
-6.016900323381834
 21
-9.899360438921801
 31
0.0
  0
LINE
  5
169
330
21
100
AcDbEntity
  8
STALLUNGEN_1_100
  6
Continuous
 62
     0
100
AcDbLine
 10
-6.016900323381834
 20
-9.899360438921801
 30
0.0
 11
-5.746900323381838
 21
-9.899360438921801
 31
0.0
  0
LINE
  5
16A
330
21
100
AcDbEntity
  8
STALLUNGEN_1_100
  6
Continuous
 62
     0
100
AcDbLine
 10
-5.746900323381838
 20
-9.899360438921801
 30
0.0
 11
-5.746900323381838
 21
-9.979360438921784
 31
0.0
  0
LINE
  5
16B
330
21
100
AcDbEntity
  8
STALLUNGEN_1_100
  6
Continuous
 62
     0
100
AcDbLine
 10
-5.696900323381814
 20
-12.62881918742789
 30
0.0
 11
-5.616520471948738
 21
-12.92880087688102
 31
0.0
  0
LINE
  5
16C
330
21
100
AcDbEntity
  8
STALLUNGEN_1_100
  6
Continuous
 62
     0
100
AcDbLine
 10
-5.616520471948738
 20
-12.92880087688102
 30
0.0
 11
-5.777280174814938
 21
-12.92880087688102
 31
0.0
  0
LINE
  5
16D
330
21
100
AcDbEntity
  8
STALLUNGEN_1_100
  6
Continuous
 62
     0
100
AcDbLine
 10
-5.777280174814938
 20
-12.92880087688102
 30
0.0
 11
-5.696900323381814
 21
-12.62881918742789
 31
0.0
  0
LINE
  5
16E
330
21
100
AcDbEntity
  8
STALLUNGEN_1_100
  6
Continuous
 62
     0
100
AcDbLine
 10
-5.696900323381814
 20
-10.50990169041571
 30
0.0
 11
-5.777280174814938
 21
-10.20992000096259
 31
0.0
  0
LINE
  5
16F
330
21
100
AcDbEntity
  8
STALLUNGEN_1_100
  6
Continuous
 62
     0
100
AcDbLine
 10
-5.777280174814938
 20
-10.20992000096259
 30
0.0
 11
-5.616520471948738
 21
-10.20992000096259
 31
0.0
  0
LINE
  5
170
330
21
100
AcDbEntity
  8
STALLUNGEN_1_100
  6
Continuous
 62
     0
100
AcDbLine
 10
-5.616520471948738
 20
-10.20992000096259
 30
0.0
 11
-5.696900323381814
 21
-10.50990169041571
 31
0.0
  0
LINE
  5
171
330
21
100
AcDbEntity
  8
STALLUNGEN_1_100
  6
Continuous
 62
     0
100
AcDbLine
 10
-0.1994003233818152
 20
-16.73436043892182
 30
0.0
 11
-2.109400323381808
 21
-16.73436043892182
 31
0.0
  0
LINE
  5
172
330
21
100
AcDbEntity
  8
STALLUNGEN_1_100
  6
Continuous
 62
     0
100
AcDbLine
 10
-2.109400323381808
 20
-16.73436043892182
 30
0.0
 11
-2.109400323381808
 21
-16.5543604389218
 31
0.0
  0
LINE
  5
173
330
21
100
AcDbEntity
  8
STALLUNGEN_1_100
  6
Continuous
 62
     0
100
AcDbLine
 10
-2.109400323381808
 20
-16.5543604389218
 30
0.0
 11
-0.1994003233818152
 21
-16.5543604389218
 31
0.0
  0
LINE
  5
174
330
21
100
AcDbEntity
  8
STALLUNGEN_1_100
  6
Continuous
 62
     0
100
AcDbLine
 10
-0.1994003233818152
 20
-16.5543604389218
 30
0.0
 11
-0.1994003233818152
 21
-16.73436043892182
 31
0.0
  0
LINE
  5
175
330
21
100
AcDbEntity
  8
STALLUNGEN_1_100
  6
Continuous
 62
     0
100
AcDbLine
 10
-0.0769003233818229
 20
-16.7843604389218
 30
0.0
 11
-2.231900323381846
 21
-16.7843604389218
 31
0.0
  0
LINE
  5
176
330
21
100
AcDbEntity
  8
STALLUNGEN_1_100
  6
Continuous
 62
     0
100
AcDbLine
 10
-2.231900323381846
 20
-16.7843604389218
 30
0.0
 11
-2.231900323381846
 21
-16.73436043892182
 31
0.0
  0
LINE
  5
177
330
21
100
AcDbEntity
  8
STALLUNGEN_1_100
  6
Continuous
 62
     0
100
AcDbLine
 10
-2.231900323381846
 20
-16.73436043892182
 30
0.0
 11
-0.0769003233818229
 21
-16.73436043892182
 31
0.0
  0
LINE
  5
178
330
21
100
AcDbEntity
  8
STALLUNGEN_1_100
  6
Continuous
 62
     0
100
AcDbLine
 10
-0.0769003233818229
 20
-16.73436043892182
 30
0.0
 11
-0.0769003233818229
 21
-16.7843604389218
 31
0.0
  0
LINE
  5
179
330
21
100
AcDbEntity
  8
STALLUNGEN_1_100
  6
Continuous
 62
     0
100
AcDbLine
 10
13.43559967661819
 20
-6.189360438921805
 30
0.0
 11
11.28059967661816
 21
-6.189360438921805
 31
0.0
  0
ARC
  5
17A
330
21
100
AcDbEntity
  8
STALLUNGEN_1_100
  6
Continuous
 62
     0
100
AcDbCircle
 10
13.31309967661815
 20
-6.354360438921808
 30
0.0
 40
0.9549999999999998
100
AcDbArc
 50
90.0
 51
180.0
  0
LINE
  5
17B
330
21
100
AcDbEntity
  8
STALLUNGEN_1_100
  6
Continuous
 62
     0
100
AcDbLine
 10
13.31309967661815
 20
-5.399360438921789
 30
0.0
 11
13.31309967661815
 21
-6.404360438921785
 31
0.0
  0
LINE
  5
17C
330
21
100
AcDbEntity
  8
STALLUNGEN_1_100
  6
Continuous
 62
     0
100
AcDbLine
 10
12.35809967661817
 20
-6.354360438921808
 30
0.0
 11
12.35809967661817
 21
-6.404360438921785
 31
0.0
  0
ARC
  5
17D
330
21
100
AcDbEntity
  8
STALLUNGEN_1_100
  6
Continuous
 62
     0
100
AcDbCircle
 10
11.40309967661815
 20
-6.354360438921808
 30
0.0
 40
0.9549999999999998
100
AcDbArc
 50
0.0
 51
90.0
  0
LINE
  5
17E
330
21
100
AcDbEntity
  8
STALLUNGEN_1_100
  6
Continuous
 62
     0
100
AcDbLine
 10
11.40309967661815
 20
-5.399360438921789
 30
0.0
 11
11.40309967661815
 21
-6.404360438921785
 31
0.0
  0
LINE
  5
17F
330
21
100
AcDbEntity
  8
STALLUNGEN_1_100
  6
Continuous
 62
     0
100
AcDbLine
 10
37.07309967661815
 20
-13.55436043892179
 30
0.0
 11
-3.396900323381853
 21
-13.55436043892178
 31
0.0
  0
LINE
  5
180
330
21
100
AcDbEntity
  8
STALLUNGEN_1_100
  6
Continuous
 62
     0
100
AcDbLine
 10
-3.396900323381853
 20
-13.55436043892178
 30
0.0
 11
-3.396900323381853
 21
-13.45436043892178
 31
0.0
  0
LINE
  5
181
330
21
100
AcDbEntity
  8
STALLUNGEN_1_100
  6
Continuous
 62
     0
100
AcDbLine
 10
-3.396900323381853
 20
-13.45436043892178
 30
0.0
 11
37.07309967661815
 21
-13.45436043892179
 31
0.0
  0
LINE
  5
182
330
21
100
AcDbEntity
  8
STALLUNGEN_1_100
  6
Continuous
 62
     0
100
AcDbLine
 10
37.07309967661815
 20
-13.45436043892179
 30
0.0
 11
37.07309967661815
 21
-13.55436043892179
 31
0.0
  0
LINE
  5
183
330
21
100
AcDbEntity
  8
STALLUNGEN_1_100
  6
Continuous
 62
     0
100
AcDbLine
 10
37.07309967661815
 20
-9.684360438921828
 30
0.0
 11
-3.396900323381853
 21
-9.684360438921823
 31
0.0
  0
LINE
  5
184
330
21
100
AcDbEntity
  8
STALLUNGEN_1_100
  6
Continuous
 62
     0
100
AcDbLine
 10
-3.396900323381853
 20
-9.684360438921823
 30
0.0
 11
-3.396900323381853
 21
-9.584360438921821
 31
0.0
  0
LINE
  5
185
330
21
100
AcDbEntity
  8
STALLUNGEN_1_100
  6
Continuous
 62
     0
100
AcDbLine
 10
-3.396900323381853
 20
-9.584360438921821
 30
0.0
 11
37.07309967661815
 21
-9.584360438921827
 31
0.0
  0
LINE
  5
186
330
21
100
AcDbEntity
  8
STALLUNGEN_1_100
  6
Continuous
 62
     0
100
AcDbLine
 10
37.07309967661815
 20
-9.584360438921827
 30
0.0
 11
37.07309967661815
 21
-9.684360438921828
 31
0.0
  0
LINE
  5
187
330
21
100
AcDbEntity
  8
STALLUNGEN_1_100
  6
Continuous
 62
     0
100
AcDbLine
 10
-3.85690032338191
 20
-13.23436043892181
 30
0.0
 11
-5.696900323381907
 21
-13.23436043892181
 31
0.0
  0
LINE
  5
188
330
21
100
AcDbEntity
  8
STALLUNGEN_1_100
  6
Continuous
 62
     0
100
AcDbLine
 10
-5.696900323381907
 20
-13.23436043892181
 30
0.0
 11
-5.696900323381907
 21
-13.19436043892182
 31
0.0
  0
LINE
  5
189
330
21
100
AcDbEntity
  8
STALLUNGEN_1_100
  6
Continuous
 62
     0
100
AcDbLine
 10
-5.696900323381907
 20
-13.19436043892182
 30
0.0
 11
-3.85690032338191
 21
-13.19436043892182
 31
0.0
  0
LINE
  5
18A
330
21
100
AcDbEntity
  8
STALLUNGEN_1_100
  6
Continuous
 62
     0
100
AcDbLine
 10
-3.85690032338191
 20
-13.19436043892182
 30
0.0
 11
-3.85690032338191
 21
-13.23436043892181
 31
0.0
  0
LINE
  5
18B
330
21
100
AcDbEntity
  8
STALLUNGEN_1_100
  6
Continuous
 62
     0
100
AcDbLine
 10
13.31309967661815
 20
-6.584360438921813
 30
0.0
 11
11.40309967661815
 21
-6.584360438921813
 31
0.0
  0
LINE
  5
18C
330
21
100
AcDbEntity
  8
STALLUNGEN_1_100
  6
Continuous
 62
     0
100
AcDbLine
 10
11.40309967661815
 20
-6.584360438921813
 30
0.0
 11
11.40309967661815
 21
-6.404360438921785
 31
0.0
  0
LINE
  5
18D
330
21
100
AcDbEntity
  8
STALLUNGEN_1_100
  6
Continuous
 62
     0
100
AcDbLine
 10
11.40309967661815
 20
-6.404360438921785
 30
0.0
 11
13.31309967661815
 21
-6.404360438921785
 31
0.0
  0
LINE
  5
18E
330
21
100
AcDbEntity
  8
STALLUNGEN_1_100
  6
Continuous
 62
     0
100
AcDbLine
 10
13.31309967661815
 20
-6.404360438921785
 30
0.0
 11
13.31309967661815
 21
-6.584360438921813
 31
0.0
  0
LINE
  5
18F
330
21
100
AcDbEntity
  8
STALLUNGEN_1_100
  6
Continuous
 62
     0
100
AcDbLine
 10
13.43559967661819
 20
-6.404360438921785
 30
0.0
 11
11.28059967661816
 21
-6.404360438921785
 31
0.0
  0
LINE
  5
190
330
21
100
AcDbEntity
  8
STALLUNGEN_1_100
  6
Continuous
 62
     0
100
AcDbLine
 10
11.28059967661816
 20
-6.404360438921785
 30
0.0
 11
11.28059967661816
 21
-6.354360438921808
 31
0.0
  0
LINE
  5
191
330
21
100
AcDbEntity
  8
STALLUNGEN_1_100
  6
Continuous
 62
     0
100
AcDbLine
 10
11.28059967661816
 20
-6.354360438921808
 30
0.0
 11
13.43559967661819
 21
-6.354360438921808
 31
0.0
  0
LINE
  5
192
330
21
100
AcDbEntity
  8
STALLUNGEN_1_100
  6
Continuous
 62
     0
100
AcDbLine
 10
13.43559967661819
 20
-6.354360438921808
 30
0.0
 11
13.43559967661819
 21
-6.404360438921785
 31
0.0
  0
TEXT
  5
195
102
{ACAD_REACTORS
330
193
102
}
330
21
100
AcDbEntity
  8
HALLE_0_1_EG
  6
Continuous
100
AcDbText
 10
30.4442758112144
 20
-34.38569608352113
 30
0.0
 40
0.3057680622341136
  1
Projekt
  7
ARIAL
100
AcDbText
  0
TEXT
  5
197
102
{ACAD_REACTORS
330
193
102
}
330
21
100
AcDbEntity
  8
HALLE_0_1_EG
  6
Continuous
100
AcDbText
 10
30.43959532454073
 20
-33.7547637526928
 30
0.0
 40
0.3057680622341136
  1
Veranstalter
  7
ARIAL
100
AcDbText
  0
TEXT
  5
198
102
{ACAD_REACTORS
330
193
102
}
330
21
100
AcDbEntity
  8
HALLE_0_1_EG
  6
Continuous
100
AcDbText
 10
30.43959532454074
 20
-34.99924887248476
 30
0.0
 40
0.3057680622341136
  1
Zeit/Datum
  7
ARIAL
100
AcDbText
  0
TEXT
  5
199
102
{ACAD_REACTORS
330
193
102
}
330
21
100
AcDbEntity
  8
HALLE_0_1_EG
  6
Continuous
100
AcDbText
 10
30.43959532454074
 20
-36.98067462103312
 30
0.0
 40
0.3057680622341136
  1
Massstab 1:200
  7
ARIAL
100
AcDbText
  0
TEXT
  5
19A
102
{ACAD_REACTORS
330
193
102
}
330
21
100
AcDbEntity
  8
HALLE_0_1_EG
  6
Continuous
100
AcDbText
 10
34.64708562406056
 20
-37.00430934102639
 30
0.0
 40
0.3057680622341136
  1
Thun,
  7
ARIAL
100
AcDbText
  0
TEXT
  5
19B
102
{ACAD_REACTORS
330
193
102
}
330
21
100
AcDbEntity
  8
HALLE_0_1_EG
  6
Continuous
100
AcDbText
 10
30.43959532454074
 20
-36.08262831919677
 30
0.0
 40
0.6115361244682273
  1
Grundriss EG Halle 3
  7
ARIAL
100
AcDbText
  0
LINE
  5
19C
102
{ACAD_REACTORS
330
193
102
}
330
21
100
AcDbEntity
  8
HALLE_0_1_EG
  6
Continuous
100
AcDbLine
 10
38.46529156844101
 20
-33.13575278556236
 30
0.0
 11
38.46529156844101
 21
-37.24936071457032
 31
0.0
  0
LINE
  5
19D
102
{ACAD_REACTORS
330
193
102
}
330
21
100
AcDbEntity
  8
HALLE_0_1_EG
  6
Continuous
100
AcDbLine
 10
30.06344141155208
 20
-35.25190291103131
 30
0.0
 11
38.46529156844101
 21
-35.25190291103131
 31
0.0
  0
LINE
  5
19E
102
{ACAD_REACTORS
330
193
102
}
330
21
100
AcDbEntity
  8
HALLE_0_1_EG
  6
Continuous
100
AcDbLine
 10
30.06344141155208
 20
-36.39053539719848
 30
0.0
 11
38.46529156844101
 21
-36.39053539719848
 31
0.0
  0
LINE
  5
19F
102
{ACAD_REACTORS
330
193
102
}
330
21
100
AcDbEntity
  8
HALLE_0_1_EG
  6
Continuous
100
AcDbLine
 10
34.31026817032306
 20
-36.40050680006623
 30
0.0
 11
34.31026817032306
 21
-37.23605732318838
 31
0.0
  0
TEXT
  5
1A0
102
{ACAD_REACTORS
330
193
102
}
330
21
100
AcDbEntity
  8
HALLE_0_1_EG
  6
Continuous
100
AcDbText
 10
38.84767307467303
 20
-33.7477195494722
 30
0.0
 40
0.3057680622341136
  1
Thun-Expo
  7
ARIAL
100
AcDbText
  0
TEXT
  5
1A1
102
{ACAD_REACTORS
330
193
102
}
330
21
100
AcDbEntity
  8
HALLE_0_1_EG
  6
Continuous
100
AcDbText
 10
38.84767307467303
 20
-34.20637164282337
 30
0.0
 40
0.3057680622341136
  1
Mittlere Strasse 27
  7
ARIAL
100
AcDbText
  0
TEXT
  5
1A2
102
{ACAD_REACTORS
330
193
102
}
330
21
100
AcDbEntity
  8
HALLE_0_1_EG
  6
Continuous
100
AcDbText
 10
38.84767307467303
 20
-34.66502373617455
 30
0.0
 40
0.3057680622341136
  1
Postfach 879
  7
ARIAL
100
AcDbText
  0
TEXT
  5
1A3
102
{ACAD_REACTORS
330
193
102
}
330
21
100
AcDbEntity
  8
HALLE_0_1_EG
  6
Continuous
100
AcDbText
 10
38.84767307467303
 20
-35.12367582952572
 30
0.0
 40
0.3057680622341136
  1
3607 Thun
  7
ARIAL
100
AcDbText
  0
TEXT
  5
1A4
102
{ACAD_REACTORS
330
193
102
}
330
21
100
AcDbEntity
  8
HALLE_0_1_EG
  6
Continuous
100
AcDbText
 10
38.8445633575934
 20
-36.08410765878146
 30
0.0
 40
0.3057680622341137
  1
Fon  +41 33 225 11 20
  7
ARIAL
100
AcDbText
  0
TEXT
  5
1A5
102
{ACAD_REACTORS
330
193
102
}
330
21
100
AcDbEntity
  8
HALLE_0_1_EG
  6
Continuous
100
AcDbText
 10
38.8445633575934
 20
-36.54275975213263
 30
0.0
 40
0.3057680622341137
  1
Fax  +41 33 225 11 28
  7
ARIAL
100
AcDbText
  0
TEXT
  5
1A6
102
{ACAD_REACTORS
330
193
102
}
330
21
100
AcDbEntity
  8
HALLE_0_1_EG
  6
Continuous
100
AcDbText
 10
38.8445633575934
 20
-37.0014118454838
 30
0.0
 40
0.3057680622341137
  1
Mail  info@thun-expo.ch
  7
ARIAL
100
AcDbText
  0
LINE
  5
1A7
102
{ACAD_REACTORS
330
193
102
}
330
21
100
AcDbEntity
  8
HALLE_0_1_EG
  6
Continuous
100
AcDbLine
 10
30.06344141155208
 20
-33.1306951515695
 30
0.0
 11
43.34805873000884
 21
-33.1306951515695
 31
0.0
  0
LINE
  5
1A8
102
{ACAD_REACTORS
330
193
102
}
330
21
100
AcDbEntity
  8
HALLE_0_1_EG
  6
Continuous
100
AcDbLine
 10
43.34805873000884
 20
-33.1306951515695
 30
0.0
 11
43.34805873000884
 21
-37.24430308057748
 31
0.0
  0
LINE
  5
1A9
102
{ACAD_REACTORS
330
193
102
}
330
21
100
AcDbEntity
  8
HALLE_0_1_EG
  6
Continuous
100
AcDbLine
 10
43.34805873000884
 20
-37.24430308057748
 30
0.0
 11
30.06344141155208
 21
-37.24430308057748
 31
0.0
  0
LINE
  5
1AA
102
{ACAD_REACTORS
330
193
102
}
330
21
100
AcDbEntity
  8
HALLE_0_1_EG
  6
Continuous
100
AcDbLine
 10
30.06344141155208
 20
-37.24430308057748
 30
0.0
 11
30.06344141155208
 21
-33.1306951515695
 31
0.0
  0
ENDSEC
  0
SECTION
  2
OBJECTS
  0
DICTIONARY
  5
C
330
0
100
AcDbDictionary
281
     1
  3
ACAD_COLOR
350
1C
  3
ACAD_GROUP
350
D
  3
ACAD_LAYOUT
350
1A
  3
ACAD_MATERIAL
350
1B
  3
ACAD_MLINESTYLE
350
17
  3
ACAD_PLOTSETTINGS
350
19
  3
ACAD_PLOTSTYLENAME
350
E
  3
ACDBHEADERROUNDTRIPXREC
350
1AF
  3
AcDbVariableDictionary
350
1AB
  0
DICTIONARY
  5
1C
102
{ACAD_REACTORS
330
C
102
}
330
C
100
AcDbDictionary
281
     1
  0
DICTIONARY
  5
D
102
{ACAD_REACTORS
330
C
102
}
330
C
100
AcDbDictionary
281
     1
  3
*A1
350
193
  0
DICTIONARY
  5
1A
102
{ACAD_REACTORS
330
C
102
}
330
C
100
AcDbDictionary
281
     1
  3
Layout1
350
20
  3
Layout2
350
28
  3
Model
350
24
  0
DICTIONARY
  5
1B
102
{ACAD_REACTORS
330
C
102
}
330
C
100
AcDbDictionary
281
     1
  0
DICTIONARY
  5
17
102
{ACAD_REACTORS
330
C
102
}
330
C
100
AcDbDictionary
281
     1
  3
Standard
350
18
  0
DICTIONARY
  5
19
102
{ACAD_REACTORS
330
C
102
}
330
C
100
AcDbDictionary
281
     1
  0
ACDBDICTIONARYWDFLT
  5
E
102
{ACAD_REACTORS
330
C
102
}
330
C
100
AcDbDictionary
281
     1
  3
Normal
350
F
100
AcDbDictionaryWithDefault
340
F
  0
DICTIONARY
  5
1AF
102
{ACAD_REACTORS
330
C
102
}
330
C
100
AcDbDictionary
281
     1
  0
DICTIONARY
  5
1AB
102
{ACAD_REACTORS
330
C
102
}
330
C
100
AcDbDictionary
281
     1
  3
DIMASSOC
350
1AD
  3
HIDETEXT
350
1AC
  3
PROJECTNAME
350
1AE
  0
GROUP
  5
193
102
{ACAD_REACTORS
330
D
102
}
330
D
100
AcDbGroup
300

 70
     0
 71
     1
340
195
340
197
340
198
340
199
340
19A
340
19B
340
19C
340
19D
340
19E
340
19F
340
1A0
340
1A1
340
1A2
340
1A3
340
1A4
340
1A5
340
1A6
340
1A7
340
1A8
340
1A9
340
1AA
  0
LAYOUT
  5
20
102
{ACAD_XDICTIONARY
360
1B0
102
}
102
{ACAD_REACTORS
330
1A
102
}
330
1A
100
AcDbPlotSettings
  1

  2

  4

  6

 40
0.0
 41
0.0
 42
0.0
 43
0.0
 44
0.0
 45
0.0
 46
0.0
 47
0.0
 48
0.0
 49
0.0
140
0.0
141
0.0
142
1.0
143
1.0
 70
   688
 72
     0
 73
     0
 74
     5
  7

 75
    16
147
1.0
148
0.0
149
0.0
100
AcDbLayout
  1
Layout1
 70
     1
 71
     1
 10
0.0
 20
0.0
 11
12.0
 21
9.0
 12
0.0
 22
0.0
 32
0.0
 14
0.0
 24
0.0
 34
0.0
 15
0.0
 25
0.0
 35
0.0
146
0.0
 13
0.0
 23
0.0
 33
0.0
 16
1.0
 26
0.0
 36
0.0
 17
0.0
 27
1.0
 37
0.0
 76
     0
330
1D
  0
LAYOUT
  5
28
102
{ACAD_XDICTIONARY
360
1B4
102
}
102
{ACAD_REACTORS
330
1A
102
}
330
1A
100
AcDbPlotSettings
  1

  2

  4

  6

 40
0.0
 41
0.0
 42
0.0
 43
0.0
 44
0.0
 45
0.0
 46
0.0
 47
0.0
 48
0.0
 49
0.0
140
0.0
141
0.0
142
1.0
143
1.0
 70
   688
 72
     0
 73
     0
 74
     5
  7

 75
    16
147
1.0
148
0.0
149
0.0
100
AcDbLayout
  1
Layout2
 70
     1
 71
     2
 10
0.0
 20
0.0
 11
12.0
 21
9.0
 12
0.0
 22
0.0
 32
0.0
 14
0.0
 24
0.0
 34
0.0
 15
0.0
 25
0.0
 35
0.0
146
0.0
 13
0.0
 23
0.0
 33
0.0
 16
1.0
 26
0.0
 36
0.0
 17
0.0
 27
1.0
 37
0.0
 76
     0
330
25
  0
LAYOUT
  5
24
102
{ACAD_XDICTIONARY
360
1B2
102
}
102
{ACAD_REACTORS
330
1A
102
}
330
1A
100
AcDbPlotSettings
  1

  2

  4

  6

 40
0.0
 41
0.0
 42
0.0
 43
0.0
 44
0.0
 45
0.0
 46
0.0
 47
0.0
 48
0.0
 49
0.0
140
0.0
141
0.0
142
1.0
143
1.0
 70
  1712
 72
     0
 73
     0
 74
     0
  7

 75
     0
147
1.0
148
0.0
149
0.0
100
AcDbLayout
  1
Model
 70
     1
 71
     0
 10
0.0
 20
0.0
 11
12.0
 21
9.0
 12
0.0
 22
0.0
 32
0.0
 14
0.0
 24
0.0
 34
0.0
 15
0.0
 25
0.0
 35
0.0
146
0.0
 13
0.0
 23
0.0
 33
0.0
 16
1.0
 26
0.0
 36
0.0
 17
0.0
 27
1.0
 37
0.0
 76
     0
330
21
  0
MLINESTYLE
  5
18
102
{ACAD_REACTORS
330
17
102
}
330
17
100
AcDbMlineStyle
  2
STANDARD
 70
     0
  3

 62
   256
 51
90.0
 52
90.0
 71
     2
 49
0.5
 62
   256
  6
BYLAYER
 49
-0.5
 62
   256
  6
BYLAYER
  0
ACDBPLACEHOLDER
  5
F
102
{ACAD_REACTORS
330
E
102
}
330
E
  0
DICTIONARYVAR
  5
1AD
102
{ACAD_REACTORS
330
1AB
102
}
330
1AB
100
DictionaryVariables
280
     0
  1
2
  0
DICTIONARYVAR
  5
1AC
102
{ACAD_REACTORS
330
1AB
102
}
330
1AB
100
DictionaryVariables
280
     0
  1
1
  0
DICTIONARYVAR
  5
1AE
102
{ACAD_REACTORS
330
1AB
102
}
330
1AB
100
DictionaryVariables
280
     0
  1

  0
DICTIONARY
  5
1B0
330
20
100
AcDbDictionary
280
     1
281
     1
  3
ACAD_XREC_ROUNDTRIP
360
1B1
  0
DICTIONARY
  5
1B4
330
28
100
AcDbDictionary
280
     1
281
     1
  3
ACAD_XREC_ROUNDTRIP
360
1B5
  0
DICTIONARY
  5
1B2
330
24
100
AcDbDictionary
280
     1
281
     1
  3
ACAD_XREC_ROUNDTRIP
360
1B3
  0
XRECORD
  5
1B1
102
{ACAD_REACTORS
330
1B0
102
}
330
1B0
100
AcDbXrecord
280
     1
102
SHADEPLOT
 70
     0
102
SHADEPLOTRESLEVEL
 70
     2
102
SHADEPLOTCUSTOMDPI
 70
   300
  0
XRECORD
  5
1B5
102
{ACAD_REACTORS
330
1B4
102
}
330
1B4
100
AcDbXrecord
280
     1
102
SHADEPLOT
 70
     0
102
SHADEPLOTRESLEVEL
 70
     2
102
SHADEPLOTCUSTOMDPI
 70
   300
  0
XRECORD
  5
1B3
102
{ACAD_REACTORS
330
1B2
102
}
330
1B2
100
AcDbXrecord
280
     1
102
SHADEPLOT
 70
     0
102
SHADEPLOTRESLEVEL
 70
     2
102
SHADEPLOTCUSTOMDPI
 70
   300
  0
ENDSEC
  0
EOF
