  0
SECTION
  2
HEADER
  9
$ACADVER
  1
AC1015
  9
$ACADMAINTVER
 70
    18
  9
$DWGCODEPAGE
  3
ANSI_1252
  9
$INSBASE
 10
0.0
 20
0.0
 30
0.0
  9
$EXTMIN
 10
-5.548288593019075
 20
-36.82827604168224
 30
-0.00000001
  9
$EXTMAX
 10
42.72429794184416
 20
-8.018579593073887
 30
0.00000001
  9
$LIMMIN
 10
-514.2810890992913
 20
-1556.260955158268
  9
$LIMMAX
 10
1824.301588066063
 20
97.28235192834587
  9
$ORTHOMODE
 70
     0
  9
$REGENMODE
 70
     1
  9
$FILLMODE
 70
     1
  9
$QTEXTMODE
 70
     0
  9
$MIRRTEXT
 70
     0
  9
$LTSCALE
 40
0.254
  9
$ATTMODE
 70
     1
  9
$TEXTSIZE
 40
2.02
  9
$TRACEWID
 40
0.05
  9
$TEXTSTYLE
  7
Standard
  9
$CLAYER
  8
0
  9
$CELTYPE
  6
ByLayer
  9
$CECOLOR
 62
   256
  9
$CELTSCALE
 40
1.0
  9
$DISPSILH
 70
     0
  9
$DIMSCALE
 40
1.0
  9
$DIMASZ
 40
0.18
  9
$DIMEXO
 40
0.0625
  9
$DIMDLI
 40
0.38
  9
$DIMRND
 40
0.0
  9
$DIMDLE
 40
0.0
  9
$DIMEXE
 40
0.18
  9
$DIMTP
 40
0.0
  9
$DIMTM
 40
0.0
  9
$DIMTXT
 40
31.49606299212599
  9
$DIMCEN
 40
0.09
  9
$DIMTSZ
 40
0.0
  9
$DIMTOL
 70
     0
  9
$DIMLIM
 70
     0
  9
$DIMTIH
 70
     1
  9
$DIMTOH
 70
     1
  9
$DIMSE1
 70
     0
  9
$DIMSE2
 70
     0
  9
$DIMTAD
 70
     0
  9
$DIMZIN
 70
     0
  9
$DIMBLK
  1

  9
$DIMASO
 70
     1
  9
$DIMSHO
 70
     1
  9
$DIMPOST
  1

  9
$DIMAPOST
  1

  9
$DIMALT
 70
     0
  9
$DIMALTD
 70
     2
  9
$DIMALTF
 40
25.4
  9
$DIMLFAC
 40
1.0
  9
$DIMTOFL
 70
     0
  9
$DIMTVP
 40
0.0
  9
$DIMTIX
 70
     0
  9
$DIMSOXD
 70
     0
  9
$DIMSAH
 70
     0
  9
$DIMBLK1
  1

  9
$DIMBLK2
  1

  9
$DIMSTYLE
  2
Standard
  9
$DIMCLRD
 70
     0
  9
$DIMCLRE
 70
     0
  9
$DIMCLRT
 70
     0
  9
$DIMTFAC
 40
1.0
  9
$DIMGAP
 40
0.09
  9
$DIMJUST
 70
     0
  9
$DIMSD1
 70
     0
  9
$DIMSD2
 70
     0
  9
$DIMTOLJ
 70
     1
  9
$DIMTZIN
 70
     0
  9
$DIMALTZ
 70
     0
  9
$DIMALTTZ
 70
     0
  9
$DIMUPT
 70
     0
  9
$DIMDEC
 70
     4
  9
$DIMTDEC
 70
     4
  9
$DIMALTU
 70
     2
  9
$DIMALTTD
 70
     2
  9
$DIMTXSTY
  7
Standard
  9
$DIMAUNIT
 70
     1
  9
$DIMADEC
 70
     0
  9
$DIMALTRND
 40
0.0
  9
$DIMAZIN
 70
     0
  9
$DIMDSEP
 70
    46
  9
$DIMATFIT
 70
     3
  9
$DIMFRAC
 70
     0
  9
$DIMLDRBLK
  1

  9
$DIMLUNIT
 70
     4
  9
$DIMLWD
 70
    -2
  9
$DIMLWE
 70
    -2
  9
$DIMTMOVE
 70
     0
  9
$LUNITS
 70
     2
  9
$LUPREC
 70
     4
  9
$SKETCHINC
 40
0.1
  9
$FILLETRAD
 40
0.005
  9
$AUNITS
 70
     0
  9
$AUPREC
 70
     0
  9
$MENU
  1
.
  9
$ELEVATION
 40
0.0
  9
$PELEVATION
 40
0.0
  9
$THICKNESS
 40
0.0
  9
$LIMCHECK
 70
     0
  9
$CHAMFERA
 40
0.005
  9
$CHAMFERB
 40
0.005
  9
$CHAMFERC
 40
0.0
  9
$CHAMFERD
 40
0.0
  9
$SKPOLY
 70
     0
  9
$TDCREATE
 40
2453531.698433692
  9
$TDUCREATE
 40
2453531.615100359
  9
$TDUPDATE
 40
2453531.698433692
  9
$TDUUPDATE
 40
2453531.615100359
  9
$TDINDWG
 40
0.0000001852
  9
$TDUSRTIMER
 40
0.0000001852
  9
$USRTIMER
 70
     1
  9
$ANGBASE
 50
0.0
  9
$ANGDIR
 70
     0
  9
$PDMODE
 70
     0
  9
$PDSIZE
 40
0.0
  9
$PLINEWID
 40
0.0
  9
$SPLFRAME
 70
     0
  9
$SPLINETYPE
 70
     6
  9
$SPLINESEGS
 70
     8
  9
$HANDSEED
  5
118
  9
$SURFTAB1
 70
     6
  9
$SURFTAB2
 70
     6
  9
$SURFTYPE
 70
     6
  9
$SURFU
 70
     6
  9
$SURFV
 70
     6
  9
$UCSBASE
  2

  9
$UCSNAME
  2

  9
$UCSORG
 10
0.0
 20
0.0
 30
0.0
  9
$UCSXDIR
 10
1.0
 20
0.0
 30
0.0
  9
$UCSYDIR
 10
0.0
 20
1.0
 30
0.0
  9
$UCSORTHOREF
  2

  9
$UCSORTHOVIEW
 70
     0
  9
$UCSORGTOP
 10
0.0
 20
0.0
 30
0.0
  9
$UCSORGBOTTOM
 10
0.0
 20
0.0
 30
0.0
  9
$UCSORGLEFT
 10
0.0
 20
0.0
 30
0.0
  9
$UCSORGRIGHT
 10
0.0
 20
0.0
 30
0.0
  9
$UCSORGFRONT
 10
0.0
 20
0.0
 30
0.0
  9
$UCSORGBACK
 10
0.0
 20
0.0
 30
0.0
  9
$PUCSBASE
  2

  9
$PUCSNAME
  2

  9
$PUCSORG
 10
0.0
 20
0.0
 30
0.0
  9
$PUCSXDIR
 10
1.0
 20
0.0
 30
0.0
  9
$PUCSYDIR
 10
0.0
 20
1.0
 30
0.0
  9
$PUCSORTHOREF
  2

  9
$PUCSORTHOVIEW
 70
     0
  9
$PUCSORGTOP
 10
0.0
 20
0.0
 30
0.0
  9
$PUCSORGBOTTOM
 10
0.0
 20
0.0
 30
0.0
  9
$PUCSORGLEFT
 10
0.0
 20
0.0
 30
0.0
  9
$PUCSORGRIGHT
 10
0.0
 20
0.0
 30
0.0
  9
$PUCSORGFRONT
 10
0.0
 20
0.0
 30
0.0
  9
$PUCSORGBACK
 10
0.0
 20
0.0
 30
0.0
  9
$USERI1
 70
     0
  9
$USERI2
 70
     0
  9
$USERI3
 70
     0
  9
$USERI4
 70
     0
  9
$USERI5
 70
     0
  9
$USERR1
 40
0.0
  9
$USERR2
 40
0.0
  9
$USERR3
 40
0.0
  9
$USERR4
 40
0.0
  9
$USERR5
 40
0.0
  9
$WORLDVIEW
 70
     1
  9
$SHADEDGE
 70
     3
  9
$SHADEDIF
 70
    70
  9
$TILEMODE
 70
     1
  9
$MAXACTVP
 70
    64
  9
$PINSBASE
 10
0.0
 20
0.0
 30
0.0
  9
$PLIMCHECK
 70
     0
  9
$PEXTMIN
 10
1.000000000000000E+20
 20
1.000000000000000E+20
 30
1.000000000000000E+20
  9
$PEXTMAX
 10
-1.000000000000000E+20
 20
-1.000000000000000E+20
 30
-1.000000000000000E+20
  9
$PLIMMIN
 10
0.0
 20
0.0
  9
$PLIMMAX
 10
12.0
 20
9.0
  9
$UNITMODE
 70
     0
  9
$VISRETAIN
 70
     1
  9
$PLINEGEN
 70
     0
  9
$PSLTSCALE
 70
     1
  9
$TREEDEPTH
 70
  3020
  9
$CMLSTYLE
  2
Standard
  9
$CMLJUST
 70
     0
  9
$CMLSCALE
 40
1.0
  9
$PROXYGRAPHICS
 70
     1
  9
$MEASUREMENT
 70
     1
  9
$CELWEIGHT
370
    -1
  9
$ENDCAPS
280
     0
  9
$JOINSTYLE
280
     0
  9
$LWDISPLAY
290
     0
  9
$INSUNITS
 70
     0
  9
$HYPERLINKBASE
  1

  9
$STYLESHEET
  1

  9
$XEDIT
290
     1
  9
$CEPSNTYPE
380
     0
  9
$PSTYLEMODE
290
     1
  9
$FINGERPRINTGUID
  2
{2CB59548-D1CF-446D-932D-3E4986154740}
  9
$VERSIONGUID
  2
{8469626D-F1F9-41BD-9A83-393A2E29DCCE}
  9
$EXTNAMES
290
     1
  9
$PSVPSCALE
 40
0.0
  9
$OLESTARTUP
290
     0
  0
ENDSEC
  0
SECTION
  2
CLASSES
  0
CLASS
  1
ACDBDICTIONARYWDFLT
  2
AcDbDictionaryWithDefault
  3
ObjectDBX Classes
 90
        0
280
     0
281
     0
  0
CLASS
  1
DICTIONARYVAR
  2
AcDbDictionaryVar
  3
ObjectDBX Classes
 90
        0
280
     0
281
     0
  0
CLASS
  1
ACDBPLACEHOLDER
  2
AcDbPlaceHolder
  3
ObjectDBX Classes
 90
        0
280
     0
281
     0
  0
CLASS
  1
LAYOUT
  2
AcDbLayout
  3
ObjectDBX Classes
 90
        0
280
     0
281
     0
  0
ENDSEC
  0
SECTION
  2
TABLES
  0
TABLE
  2
VPORT
  5
8
330
0
100
AcDbSymbolTable
 70
     1
  0
VPORT
  5
13
330
8
100
AcDbSymbolTableRecord
100
AcDbViewportTableRecord
  2
*Active
 70
     0
 10
0.0
 20
0.0
 11
1.0
 21
1.0
 12
397.86970493374
 22
-1507.619779194095
 13
0.0
 23
0.0
 14
1.0
 24
1.0
 15
0.0
 25
0.0
 16
0.0
 26
0.0
 36
1.0
 17
0.0
 27
0.0
 37
0.0
 40
97.28235192834587
 41
18.75264682549788
 42
50.0
 43
0.0
 44
0.0
 50
0.0
 51
0.0
 71
     0
 72
   100
 73
     1
 74
     1
 75
     0
 76
     0
 77
     0
 78
     0
281
     0
 65
     1
110
0.0
120
0.0
130
0.0
111
1.0
121
0.0
131
0.0
112
0.0
122
1.0
132
0.0
 79
     0
146
0.0
  0
ENDTAB
  0
TABLE
  2
LTYPE
  5
5
330
0
100
AcDbSymbolTable
 70
    47
  0
LTYPE
  5
14
330
5
100
AcDbSymbolTableRecord
100
AcDbLinetypeTableRecord
  2
ByBlock
 70
     0
  3

 72
    65
 73
     0
 40
0.0
  0
LTYPE
  5
15
330
5
100
AcDbSymbolTableRecord
100
AcDbLinetypeTableRecord
  2
ByLayer
 70
     0
  3

 72
    65
 73
     0
 40
0.0
  0
LTYPE
  5
16
330
5
100
AcDbSymbolTableRecord
100
AcDbLinetypeTableRecord
  2
Continuous
 70
     0
  3
Solid line
 72
    65
 73
     0
 40
0.0
  0
LTYPE
  5
2A
330
5
100
AcDbSymbolTableRecord
100
AcDbLinetypeTableRecord
  2
HIDDEN
 70
     0
  3
_ _ _ _ _ _ _ _ _ _ _ _ _ _ 
 72
    65
 73
     2
 40
0.009525
 49
0.00635
 74
     0
 49
-0.003175
 74
     0
  0
LTYPE
  5
2B
330
5
100
AcDbSymbolTableRecord
100
AcDbLinetypeTableRecord
  2
DASHED
 70
     0
  3
__ __ __ __ __ __ __ __ __ 
 72
    65
 73
     2
 40
0.01905
 49
0.0127
 74
     0
 49
-0.00635
 74
     0
  0
LTYPE
  5
2C
330
5
100
AcDbSymbolTableRecord
100
AcDbLinetypeTableRecord
  2
CENTER
 70
     0
  3
____ _ ____ _ ____ _ ____ _ 
 72
    65
 73
     4
 40
0.0508
 49
0.03175
 74
     0
 49
-0.00635
 74
     0
 49
0.00635
 74
     0
 49
-0.00635
 74
     0
  0
LTYPE
  5
2D
330
5
100
AcDbSymbolTableRecord
100
AcDbLinetypeTableRecord
  2
PHANTOM
 70
     0
  3
_____ _ _ _____ _ _ _____ _ _ 
 72
    65
 73
     6
 40
0.0635
 49
0.03175
 74
     0
 49
-0.00635
 74
     0
 49
0.00635
 74
     0
 49
-0.00635
 74
     0
 49
0.00635
 74
     0
 49
-0.00635
 74
     0
  0
LTYPE
  5
2E
330
5
100
AcDbSymbolTableRecord
100
AcDbLinetypeTableRecord
  2
DOT
 70
     0
  3
...........................
 72
    65
 73
     2
 40
0.00635
 49
0.0
 74
     0
 49
-0.00635
 74
     0
  0
LTYPE
  5
2F
330
5
100
AcDbSymbolTableRecord
100
AcDbLinetypeTableRecord
  2
DASHDOT
 70
     0
  3
__ . __ . __ . __ . __ . __ . 
 72
    65
 73
     4
 40
0.0254
 49
0.0127
 74
     0
 49
-0.00635
 74
     0
 49
0.0
 74
     0
 49
-0.00635
 74
     0
  0
LTYPE
  5
30
330
5
100
AcDbSymbolTableRecord
100
AcDbLinetypeTableRecord
  2
DIVIDE
 70
     0
  3
__ . . __ . . __ . . __ . . 
 72
    65
 73
     6
 40
0.03175
 49
0.0127
 74
     0
 49
-0.00635
 74
     0
 49
0.0
 74
     0
 49
-0.00635
 74
     0
 49
0.0
 74
     0
 49
-0.00635
 74
     0
  0
LTYPE
  5
31
330
5
100
AcDbSymbolTableRecord
100
AcDbLinetypeTableRecord
  2
BORDER
 70
     0
  3
__ __ . __ __ . __ __ . __ __ .
 72
    65
 73
     6
 40
0.04445
 49
0.0127
 74
     0
 49
-0.00635
 74
     0
 49
0.0127
 74
     0
 49
-0.00635
 74
     0
 49
0.0
 74
     0
 49
-0.00635
 74
     0
  0
LTYPE
  5
32
330
5
100
AcDbSymbolTableRecord
100
AcDbLinetypeTableRecord
  2
RAND
 70
     0
  3
Rand __ __ . __ __ . __ __ . __
 72
    65
 73
     6
 40
1.75
 49
0.5
 74
     0
 49
-0.25
 74
     0
 49
0.5
 74
     0
 49
-0.25
 74
     0
 49
0.0
 74
     0
 49
-0.25
 74
     0
  0
LTYPE
  5
33
330
5
100
AcDbSymbolTableRecord
100
AcDbLinetypeTableRecord
  2
RAND2
 70
     0
  3
Rand (.5x) __.__.__.__.__.__.__
 72
    65
 73
     6
 40
0.875
 49
0.25
 74
     0
 49
-0.125
 74
     0
 49
0.25
 74
     0
 49
-0.125
 74
     0
 49
0.0
 74
     0
 49
-0.125
 74
     0
  0
LTYPE
  5
34
330
5
100
AcDbSymbolTableRecord
100
AcDbLinetypeTableRecord
  2
RANDX2
 70
     0
  3
Rand (2x) ____  ____  .  ____  
 72
    65
 73
     6
 40
3.5
 49
1.0
 74
     0
 49
-0.5
 74
     0
 49
1.0
 74
     0
 49
-0.5
 74
     0
 49
0.0
 74
     0
 49
-0.5
 74
     0
  0
LTYPE
  5
35
330
5
100
AcDbSymbolTableRecord
100
AcDbLinetypeTableRecord
  2
MITTE
 70
     0
  3
Mitte ____ _ ____ _ ____ _ ____
 72
    65
 73
     4
 40
2.0
 49
1.25
 74
     0
 49
-0.25
 74
     0
 49
0.25
 74
     0
 49
-0.25
 74
     0
  0
LTYPE
  5
36
330
5
100
AcDbSymbolTableRecord
100
AcDbLinetypeTableRecord
  2
MITTE2
 70
     0
  3
Mitte (.5x) ___ _ ___ _ ___ _ _
 72
    65
 73
     4
 40
1.125
 49
0.7500000000000001
 74
     0
 49
-0.125
 74
     0
 49
0.125
 74
     0
 49
-0.125
 74
     0
  0
LTYPE
  5
37
330
5
100
AcDbSymbolTableRecord
100
AcDbLinetypeTableRecord
  2
MITTEX2
 70
     0
  3
Mitte (2x) ________  __  ______
 72
    65
 73
     4
 40
4.0
 49
2.5
 74
     0
 49
-0.5
 74
     0
 49
0.5
 74
     0
 49
-0.5
 74
     0
  0
LTYPE
  5
38
330
5
100
AcDbSymbolTableRecord
100
AcDbLinetypeTableRecord
  2
STRICHPUNKT
 70
     0
  3
Strichpunkt __ . __ . __ . __ .
 72
    65
 73
     4
 40
1.0
 49
0.5
 74
     0
 49
-0.25
 74
     0
 49
0.0
 74
     0
 49
-0.25
 74
     0
  0
LTYPE
  5
39
330
5
100
AcDbSymbolTableRecord
100
AcDbLinetypeTableRecord
  2
STRICHPUNKT2
 70
     0
  3
Strichpunkt (.5x) _._._._._._._
 72
    65
 73
     4
 40
0.5
 49
0.25
 74
     0
 49
-0.125
 74
     0
 49
0.0
 74
     0
 49
-0.125
 74
     0
  0
LTYPE
  5
3A
330
5
100
AcDbSymbolTableRecord
100
AcDbLinetypeTableRecord
  2
STRICHPUNKTX2
 70
     0
  3
Strichpunkt (2x) ____  .  ____ 
 72
    65
 73
     4
 40
2.0
 49
1.0
 74
     0
 49
-0.5
 74
     0
 49
0.0
 74
     0
 49
-0.5
 74
     0
  0
LTYPE
  5
3B
330
5
100
AcDbSymbolTableRecord
100
AcDbLinetypeTableRecord
  2
STRICHLINIE
 70
     0
  3
Strichlinie __ __ __ __ __ __ _
 72
    65
 73
     2
 40
0.75
 49
0.5
 74
     0
 49
-0.25
 74
     0
  0
LTYPE
  5
3C
330
5
100
AcDbSymbolTableRecord
100
AcDbLinetypeTableRecord
  2
STRICHLINIE2
 70
     0
  3
Strichlinie (.5x) _ _ _ _ _ _ _
 72
    65
 73
     2
 40
0.375
 49
0.25
 74
     0
 49
-0.125
 74
     0
  0
LTYPE
  5
3D
330
5
100
AcDbSymbolTableRecord
100
AcDbLinetypeTableRecord
  2
STRICHLINIEX2
 70
     0
  3
Strichlinie (2x) ____  ____  __
 72
    65
 73
     2
 40
1.5
 49
1.0
 74
     0
 49
-0.5
 74
     0
  0
LTYPE
  5
3E
330
5
100
AcDbSymbolTableRecord
100
AcDbLinetypeTableRecord
  2
GETRENNT
 70
     0
  3
Getrennt ____ . . ____ . . ____
 72
    65
 73
     6
 40
1.25
 49
0.5
 74
     0
 49
-0.25
 74
     0
 49
0.0
 74
     0
 49
-0.25
 74
     0
 49
0.0
 74
     0
 49
-0.25
 74
     0
  0
LTYPE
  5
3F
330
5
100
AcDbSymbolTableRecord
100
AcDbLinetypeTableRecord
  2
GETRENNT2
 70
     0
  3
Getrennt (.5x) __..__..__..__..
 72
    65
 73
     6
 40
0.625
 49
0.25
 74
     0
 49
-0.125
 74
     0
 49
0.0
 74
     0
 49
-0.125
 74
     0
 49
0.0
 74
     0
 49
-0.125
 74
     0
  0
LTYPE
  5
40
330
5
100
AcDbSymbolTableRecord
100
AcDbLinetypeTableRecord
  2
GETRENNTX2
 70
     0
  3
Getrennt (2x) ________  .  .  _
 72
    65
 73
     6
 40
2.5
 49
1.0
 74
     0
 49
-0.5
 74
     0
 49
0.0
 74
     0
 49
-0.5
 74
     0
 49
0.0
 74
     0
 49
-0.5
 74
     0
  0
LTYPE
  5
41
330
5
100
AcDbSymbolTableRecord
100
AcDbLinetypeTableRecord
  2
PUNKT
 70
     0
  3
Punkt . . . . . . . . . . . . .
 72
    65
 73
     2
 40
0.25
 49
0.0
 74
     0
 49
-0.25
 74
     0
  0
LTYPE
  5
42
330
5
100
AcDbSymbolTableRecord
100
AcDbLinetypeTableRecord
  2
PUNKT2
 70
     0
  3
Punkt (.5x) ...................
 72
    65
 73
     2
 40
0.125
 49
0.0
 74
     0
 49
-0.125
 74
     0
  0
LTYPE
  5
43
330
5
100
AcDbSymbolTableRecord
100
AcDbLinetypeTableRecord
  2
PUNKTX2
 70
     0
  3
Punkt (2x) .  .  .  .  .  .  . 
 72
    65
 73
     2
 40
0.5
 49
0.0
 74
     0
 49
-0.5
 74
     0
  0
LTYPE
  5
44
330
5
100
AcDbSymbolTableRecord
100
AcDbLinetypeTableRecord
  2
VERDECKT
 70
     0
  3
Verdeckt __ __ __ __ __ __ __ _
 72
    65
 73
     2
 40
0.375
 49
0.25
 74
     0
 49
-0.125
 74
     0
  0
LTYPE
  5
45
330
5
100
AcDbSymbolTableRecord
100
AcDbLinetypeTableRecord
  2
VERDECKT2
 70
     0
  3
Verdeckt (.5x) _ _ _ _ _ _ _ _ 
 72
    65
 73
     2
 40
0.1875
 49
0.125
 74
     0
 49
-0.0625
 74
     0
  0
LTYPE
  5
46
330
5
100
AcDbSymbolTableRecord
100
AcDbLinetypeTableRecord
  2
VERDECKTX2
 70
     0
  3
Verdeckt (2x) ____ ____ ____ __
 72
    65
 73
     2
 40
0.75
 49
0.5
 74
     0
 49
-0.25
 74
     0
  0
LTYPE
  5
47
330
5
100
AcDbSymbolTableRecord
100
AcDbLinetypeTableRecord
  2
PHANTOM2
 70
     0
  3
Phantom (.5x) ___ _ _ ___ _ _ _
 72
    65
 73
     6
 40
1.25
 49
0.6250000000000001
 74
     0
 49
-0.125
 74
     0
 49
0.125
 74
     0
 49
-0.125
 74
     0
 49
0.125
 74
     0
 49
-0.125
 74
     0
  0
LTYPE
  5
48
330
5
100
AcDbSymbolTableRecord
100
AcDbLinetypeTableRecord
  2
PHANTOMX2
 70
     0
  3
Phantom (2x) ____________    __
 72
    65
 73
     6
 40
5.0
 49
2.5
 74
     0
 49
-0.5
 74
     0
 49
0.5
 74
     0
 49
-0.5
 74
     0
 49
0.5
 74
     0
 49
-0.5
 74
     0
  0
LTYPE
  5
49
330
5
100
AcDbSymbolTableRecord
100
AcDbLinetypeTableRecord
  2
PUNKTE
 70
     0
  3
Punkte - - - - - - - - - - - - 
 72
    65
 73
     2
 40
0.1
 49
0.05
 74
     0
 49
-0.05
 74
     0
  0
LTYPE
  5
4A
330
5
100
AcDbSymbolTableRecord
100
AcDbLinetypeTableRecord
  2
ACAD_ISO02W100
 70
     0
  3
__ __ __ __ __ __ __ __ __ __ _
 72
    65
 73
     2
 40
15.0
 49
12.0
 74
     0
 49
-3.0
 74
     0
  0
LTYPE
  5
4B
330
5
100
AcDbSymbolTableRecord
100
AcDbLinetypeTableRecord
  2
ACAD_ISO03W100
 70
     0
  3
__    __    __    __    __    _
 72
    65
 73
     2
 40
30.0
 49
12.0
 74
     0
 49
-18.0
 74
     0
  0
LTYPE
  5
4C
330
5
100
AcDbSymbolTableRecord
100
AcDbLinetypeTableRecord
  2
ACAD_ISO04W100
 70
     0
  3
____ . ____ . ____ . ____ . ___
 72
    65
 73
     4
 40
30.5
 49
24.0
 74
     0
 49
-3.0
 74
     0
 49
0.5
 74
     0
 49
-3.0
 74
     0
  0
LTYPE
  5
4D
330
5
100
AcDbSymbolTableRecord
100
AcDbLinetypeTableRecord
  2
ACAD_ISO05W100
 70
     0
  3
____ .. ____ .. ____ .. ____ ..
 72
    65
 73
     6
 40
34.0
 49
24.0
 74
     0
 49
-3.0
 74
     0
 49
0.5
 74
     0
 49
-3.0
 74
     0
 49
0.5
 74
     0
 49
-3.0
 74
     0
  0
LTYPE
  5
4E
330
5
100
AcDbSymbolTableRecord
100
AcDbLinetypeTableRecord
  2
ACAD_ISO06W100
 70
     0
  3
____ ... ____ ... ____ ... ____
 72
    65
 73
     6
 40
34.0
 49
24.0
 74
     0
 49
-3.0
 74
     0
 49
0.5
 74
     0
 49
-3.0
 74
     0
 49
0.5
 74
     0
 49
-3.0
 74
     0
  0
LTYPE
  5
4F
330
5
100
AcDbSymbolTableRecord
100
AcDbLinetypeTableRecord
  2
ACAD_ISO07W100
 70
     0
  3
. . . . . . . . . . . . . . . .
 72
    65
 73
     2
 40
3.5
 49
0.5
 74
     0
 49
-3.0
 74
     0
  0
LTYPE
  5
50
330
5
100
AcDbSymbolTableRecord
100
AcDbLinetypeTableRecord
  2
ACAD_ISO08W100
 70
     0
  3
____ __ ____ __ ____ __ ____ __
 72
    65
 73
     4
 40
36.0
 49
24.0
 74
     0
 49
-3.0
 74
     0
 49
6.0
 74
     0
 49
-3.0
 74
     0
  0
LTYPE
  5
51
330
5
100
AcDbSymbolTableRecord
100
AcDbLinetypeTableRecord
  2
ACAD_ISO09W100
 70
     0
  3
____ __ __ ____ __ __ ____ __ _
 72
    65
 73
     6
 40
45.0
 49
24.0
 74
     0
 49
-3.0
 74
     0
 49
6.0
 74
     0
 49
-3.0
 74
     0
 49
6.0
 74
     0
 49
-3.0
 74
     0
  0
LTYPE
  5
52
330
5
100
AcDbSymbolTableRecord
100
AcDbLinetypeTableRecord
  2
ACAD_ISO10W100
 70
     0
  3
__ . __ . __ . __ . __ . __ . _
 72
    65
 73
     4
 40
18.5
 49
12.0
 74
     0
 49
-3.0
 74
     0
 49
0.5
 74
     0
 49
-3.0
 74
     0
  0
LTYPE
  5
53
330
5
100
AcDbSymbolTableRecord
100
AcDbLinetypeTableRecord
  2
ACAD_ISO11W100
 70
     0
  3
__ __ . __ __ . __ __ . __ __ .
 72
    65
 73
     6
 40
33.5
 49
12.0
 74
     0
 49
-3.0
 74
     0
 49
12.0
 74
     0
 49
-3.0
 74
     0
 49
0.5
 74
     0
 49
-3.0
 74
     0
  0
LTYPE
  5
54
330
5
100
AcDbSymbolTableRecord
100
AcDbLinetypeTableRecord
  2
ACAD_ISO12W100
 70
     0
  3
__ . . __ . . __ . . __ . . __ 
 72
    65
 73
     6
 40
22.0
 49
12.0
 74
     0
 49
-3.0
 74
     0
 49
0.5
 74
     0
 49
-3.0
 74
     0
 49
0.5
 74
     0
 49
-3.0
 74
     0
  0
LTYPE
  5
55
330
5
100
AcDbSymbolTableRecord
100
AcDbLinetypeTableRecord
  2
ACAD_ISO13W100
 70
     0
  3
__ __ . . __ __ . . __ __ . . _
 72
    65
 73
     6
 40
33.5
 49
12.0
 74
     0
 49
-3.0
 74
     0
 49
12.0
 74
     0
 49
-3.0
 74
     0
 49
0.5
 74
     0
 49
-3.0
 74
     0
  0
LTYPE
  5
56
330
5
100
AcDbSymbolTableRecord
100
AcDbLinetypeTableRecord
  2
ACAD_ISO14W100
 70
     0
  3
__ . . . __ . . . __ . . . __ .
 72
    65
 73
     6
 40
22.0
 49
12.0
 74
     0
 49
-3.0
 74
     0
 49
0.5
 74
     0
 49
-3.0
 74
     0
 49
0.5
 74
     0
 49
-3.0
 74
     0
  0
LTYPE
  5
57
330
5
100
AcDbSymbolTableRecord
100
AcDbLinetypeTableRecord
  2
ACAD_ISO15W100
 70
     0
  3
__ __ . . . __ __ . . . __ __ .
 72
    65
 73
     6
 40
33.5
 49
12.0
 74
     0
 49
-3.0
 74
     0
 49
12.0
 74
     0
 49
-3.0
 74
     0
 49
0.5
 74
     0
 49
-3.0
 74
     0
  0
ENDTAB
  0
TABLE
  2
LAYER
  5
2
330
0
100
AcDbSymbolTable
 70
     3
  0
LAYER
  5
10
330
2
100
AcDbSymbolTableRecord
100
AcDbLayerTableRecord
  2
0
 70
     0
 62
     7
  6
Continuous
370
    -3
390
F
  0
LAYER
  5
58
330
2
100
AcDbSymbolTableRecord
100
AcDbLayerTableRecord
  2
HALLE_0_1_EG
 70
     0
 62
     7
  6
Continuous
370
    -3
390
F
  0
LAYER
  5
59
330
2
100
AcDbSymbolTableRecord
100
AcDbLayerTableRecord
  2
STALLUNGEN_1_100
 70
     0
 62
     7
  6
Continuous
370
    -3
390
F
  0
ENDTAB
  0
TABLE
  2
STYLE
  5
3
330
0
100
AcDbSymbolTable
 70
     5
  0
STYLE
  5
11
330
3
100
AcDbSymbolTableRecord
100
AcDbTextStyleTableRecord
  2
Standard
 70
     0
 40
0.0
 41
1.0
 50
0.0
 71
     0
 42
2.02
  3
txt
  4

  0
STYLE
  5
5A
330
3
100
AcDbSymbolTableRecord
100
AcDbTextStyleTableRecord
  2
ITALIC
 70
     0
 40
0.0
 41
1.0
 50
0.0
 71
     0
 42
2.02
  3
ITALIC
  4

  0
STYLE
  5
5B
330
3
100
AcDbSymbolTableRecord
100
AcDbTextStyleTableRecord
  2
SIMPLEX
 70
     0
 40
0.0
 41
1.0
 50
0.0
 71
     0
 42
2.02
  3
SIMPLEX
  4

  0
STYLE
  5
5C
330
3
100
AcDbSymbolTableRecord
100
AcDbTextStyleTableRecord
  2
COMPLEX
 70
     0
 40
0.0
 41
1.0
 50
0.0
 71
     0
 42
2.02
  3
COMPLEX
  4

  0
STYLE
  5
F9
330
3
100
AcDbSymbolTableRecord
100
AcDbTextStyleTableRecord
  2
ARIAL
 70
     0
 40
0.0
 41
1.0
 50
0.0
 71
     0
 42
2.02
  3
ARIAL.TTF
  4

1001
ACAD
1000
Arial
1071
        0
  0
ENDTAB
  0
TABLE
  2
VIEW
  5
6
330
0
100
AcDbSymbolTable
 70
     0
  0
ENDTAB
  0
TABLE
  2
UCS
  5
7
330
0
100
AcDbSymbolTable
 70
     0
  0
ENDTAB
  0
TABLE
  2
APPID
  5
9
330
0
100
AcDbSymbolTable
 70
     1
  0
APPID
  5
12
330
9
100
AcDbSymbolTableRecord
100
AcDbRegAppTableRecord
  2
ACAD
 70
     0
  0
ENDTAB
  0
TABLE
  2
DIMSTYLE
  5
A
330
0
100
AcDbSymbolTable
 70
     1
100
AcDbDimStyleTable
 71
     0
  0
DIMSTYLE
105
29
330
A
100
AcDbSymbolTableRecord
100
AcDbDimStyleTableRecord
  2
Standard
 70
     0
340
11
  0
ENDTAB
  0
TABLE
  2
BLOCK_RECORD
  5
1
330
0
100
AcDbSymbolTable
 70
     1
  0
BLOCK_RECORD
  5
21
330
1
100
AcDbSymbolTableRecord
100
AcDbBlockTableRecord
  2
*Model_Space
340
24
  0
BLOCK_RECORD
  5
1D
330
1
100
AcDbSymbolTableRecord
100
AcDbBlockTableRecord
  2
*Paper_Space
340
20
  0
BLOCK_RECORD
  5
25
330
1
100
AcDbSymbolTableRecord
100
AcDbBlockTableRecord
  2
*Paper_Space0
340
28
  0
ENDTAB
  0
ENDSEC
  0
SECTION
  2
BLOCKS
  0
BLOCK
  5
22
330
21
100
AcDbEntity
  8
0
100
AcDbBlockBegin
  2
*Model_Space
 70
     0
 10
0.0
 20
0.0
 30
0.0
  3
*Model_Space
  1

  0
ENDBLK
  5
23
330
21
100
AcDbEntity
  8
0
100
AcDbBlockEnd
  0
BLOCK
  5
1E
330
1D
100
AcDbEntity
 67
     1
  8
0
100
AcDbBlockBegin
  2
*Paper_Space
 70
     0
 10
0.0
 20
0.0
 30
0.0
  3
*Paper_Space
  1

  0
ENDBLK
  5
1F
330
1D
100
AcDbEntity
 67
     1
  8
0
100
AcDbBlockEnd
  0
BLOCK
  5
26
330
25
100
AcDbEntity
  8
0
100
AcDbBlockBegin
  2
*Paper_Space0
 70
     0
 10
0.0
 20
0.0
 30
0.0
  3
*Paper_Space0
  1

  0
ENDBLK
  5
27
330
25
100
AcDbEntity
  8
0
100
AcDbBlockEnd
  0
ENDSEC
  0
SECTION
  2
ENTITIES
  0
LINE
  5
5D
330
21
100
AcDbEntity
  8
STALLUNGEN_1_100
  6
Continuous
100
AcDbLine
 10
-5.083288593019076
 20
-15.03857959307389
 30
0.0
 11
35.38671140698092
 21
-15.03857959307389
 31
0.0
  0
LINE
  5
5E
330
21
100
AcDbEntity
  8
STALLUNGEN_1_100
  6
Continuous
100
AcDbLine
 10
35.38671140698092
 20
-15.15857959307389
 30
0.0
 11
35.38671140698092
 21
-11.94857959307389
 31
0.0
  0
LINE
  5
5F
330
21
100
AcDbEntity
  8
STALLUNGEN_1_100
  6
Continuous
100
AcDbLine
 10
-5.083288593019076
 20
-15.15857959307389
 30
0.0
 11
-5.083288593019076
 21
-11.94857959307389
 31
0.0
  0
LINE
  5
60
330
21
100
AcDbEntity
  8
STALLUNGEN_1_100
  6
Continuous
100
AcDbLine
 10
-5.083288593019076
 20
-12.06857959307388
 30
0.0
 11
35.38671140698092
 21
-12.06857959307389
 31
0.0
  0
LINE
  5
61
330
21
100
AcDbEntity
  8
STALLUNGEN_1_100
  6
Continuous
100
AcDbLine
 10
-4.783289193019073
 20
-18.53857959307389
 30
0.0
 11
-3.703288993019073
 21
-18.53857959307389
 31
0.0
  0
LINE
  5
62
330
21
100
AcDbEntity
  8
STALLUNGEN_1_100
  6
Continuous
100
AcDbLine
 10
-4.783289193019073
 20
-8.568579593073891
 30
0.0
 11
-3.703288993019073
 21
-8.568579593073891
 31
0.0
  0
LINE
  5
63
330
21
100
AcDbEntity
  8
STALLUNGEN_1_100
  6
Continuous
100
AcDbLine
 10
-4.068289443019072
 20
-8.568579593073891
 30
0.0
 11
-3.703288993019073
 21
-8.568579593073891
 31
0.0
  0
LINE
  5
64
330
21
100
AcDbEntity
  8
STALLUNGEN_1_100
  6
Continuous
100
AcDbLine
 10
-4.068289443019072
 20
-8.173579593073888
 30
0.0
 11
-3.703288993019073
 21
-8.173579593073888
 31
0.0
  0
LINE
  5
65
330
21
100
AcDbEntity
  8
STALLUNGEN_1_100
  6
Continuous
100
AcDbLine
 10
-5.083288593019076
 20
-18.23858019307389
 30
0.0
 11
-5.083288593019076
 21
-17.59357999307389
 31
0.0
  0
LINE
  5
66
330
21
100
AcDbEntity
  8
STALLUNGEN_1_100
  6
Continuous
100
AcDbLine
 10
-5.083288593019076
 20
-17.79357959307388
 30
0.0
 11
35.38671140698092
 21
-17.79357959307389
 31
0.0
  0
LINE
  5
67
330
21
100
AcDbEntity
  8
STALLUNGEN_1_100
  6
Continuous
100
AcDbLine
 10
27.09421140698093
 20
-18.53857959307389
 30
0.0
 11
27.09421140698093
 21
-18.71857959307389
 31
0.0
  0
LINE
  5
68
330
21
100
AcDbEntity
  8
STALLUNGEN_1_100
  6
Continuous
100
AcDbLine
 10
27.09421140698093
 20
-18.71857959307389
 30
0.0
 11
26.97171140698092
 21
-18.71857959307389
 31
0.0
  0
LINE
  5
69
330
21
100
AcDbEntity
  8
STALLUNGEN_1_100
  6
Continuous
100
AcDbLine
 10
26.97171140698092
 20
-18.71857959307389
 30
0.0
 11
26.97171140698092
 21
-18.93357959307389
 31
0.0
  0
LINE
  5
6A
330
21
100
AcDbEntity
  8
STALLUNGEN_1_100
  6
Continuous
100
AcDbLine
 10
26.97171140698092
 20
-18.93357959307389
 30
0.0
 11
26.67171140698093
 21
-18.93357959307389
 31
0.0
  0
LINE
  5
6B
330
21
100
AcDbEntity
  8
STALLUNGEN_1_100
  6
Continuous
100
AcDbLine
 10
26.67171140698093
 20
-18.93357959307389
 30
0.0
 11
26.67171140698093
 21
-19.06357959307389
 31
0.0
  0
LINE
  5
6C
330
21
100
AcDbEntity
  8
STALLUNGEN_1_100
  6
Continuous
100
AcDbLine
 10
26.67171140698093
 20
-19.06357959307389
 30
0.0
 11
26.17171140698093
 21
-19.06357959307389
 31
0.0
  0
LINE
  5
6D
330
21
100
AcDbEntity
  8
STALLUNGEN_1_100
  6
Continuous
100
AcDbLine
 10
26.17171140698093
 20
-19.06357959307389
 30
0.0
 11
26.17171140698093
 21
-18.93357959307389
 31
0.0
  0
LINE
  5
6E
330
21
100
AcDbEntity
  8
STALLUNGEN_1_100
  6
Continuous
100
AcDbLine
 10
26.17171140698093
 20
-18.93357959307389
 30
0.0
 11
22.17171140698093
 21
-18.93357959307389
 31
0.0
  0
LINE
  5
6F
330
21
100
AcDbEntity
  8
STALLUNGEN_1_100
  6
Continuous
100
AcDbLine
 10
22.17171140698093
 20
-18.93357959307389
 30
0.0
 11
22.17171140698093
 21
-19.06357959307389
 31
0.0
  0
LINE
  5
70
330
21
100
AcDbEntity
  8
STALLUNGEN_1_100
  6
Continuous
100
AcDbLine
 10
22.17171140698093
 20
-19.06357959307389
 30
0.0
 11
21.67171140698092
 21
-19.06357959307389
 31
0.0
  0
LINE
  5
71
330
21
100
AcDbEntity
  8
STALLUNGEN_1_100
  6
Continuous
100
AcDbLine
 10
21.67171140698092
 20
-19.06357959307389
 30
0.0
 11
21.67171140698092
 21
-18.93357959307389
 31
0.0
  0
LINE
  5
72
330
21
100
AcDbEntity
  8
STALLUNGEN_1_100
  6
Continuous
100
AcDbLine
 10
21.67171140698092
 20
-18.93357959307389
 30
0.0
 11
17.67171140698092
 21
-18.93357959307389
 31
0.0
  0
LINE
  5
73
330
21
100
AcDbEntity
  8
STALLUNGEN_1_100
  6
Continuous
100
AcDbLine
 10
17.67171140698092
 20
-18.93357959307389
 30
0.0
 11
17.67171140698092
 21
-19.06357959307389
 31
0.0
  0
LINE
  5
74
330
21
100
AcDbEntity
  8
STALLUNGEN_1_100
  6
Continuous
100
AcDbLine
 10
17.67171140698092
 20
-19.06357959307389
 30
0.0
 11
17.17171140698092
 21
-19.06357959307389
 31
0.0
  0
LINE
  5
75
330
21
100
AcDbEntity
  8
STALLUNGEN_1_100
  6
Continuous
100
AcDbLine
 10
17.17171140698092
 20
-19.06357959307389
 30
0.0
 11
17.17171140698092
 21
-18.93357959307389
 31
0.0
  0
LINE
  5
76
330
21
100
AcDbEntity
  8
STALLUNGEN_1_100
  6
Continuous
100
AcDbLine
 10
17.17171140698092
 20
-18.93357959307389
 30
0.0
 11
13.17171140698092
 21
-18.93357959307389
 31
0.0
  0
LINE
  5
77
330
21
100
AcDbEntity
  8
STALLUNGEN_1_100
  6
Continuous
100
AcDbLine
 10
13.17171140698092
 20
-18.93357959307389
 30
0.0
 11
13.17171140698092
 21
-19.06357959307389
 31
0.0
  0
LINE
  5
78
330
21
100
AcDbEntity
  8
STALLUNGEN_1_100
  6
Continuous
100
AcDbLine
 10
13.17171140698092
 20
-19.06357959307389
 30
0.0
 11
12.67171140698092
 21
-19.06357959307389
 31
0.0
  0
LINE
  5
79
330
21
100
AcDbEntity
  8
STALLUNGEN_1_100
  6
Continuous
100
AcDbLine
 10
12.67171140698092
 20
-19.06357959307389
 30
0.0
 11
12.67171140698092
 21
-18.93357959307389
 31
0.0
  0
LINE
  5
7A
330
21
100
AcDbEntity
  8
STALLUNGEN_1_100
  6
Continuous
100
AcDbLine
 10
12.67171140698092
 20
-18.93357959307389
 30
0.0
 11
8.671711406980925
 21
-18.93357959307389
 31
0.0
  0
LINE
  5
7B
330
21
100
AcDbEntity
  8
STALLUNGEN_1_100
  6
Continuous
100
AcDbLine
 10
8.671711406980925
 20
-18.93357959307389
 30
0.0
 11
8.671711406980925
 21
-19.06357959307389
 31
0.0
  0
LINE
  5
7C
330
21
100
AcDbEntity
  8
STALLUNGEN_1_100
  6
Continuous
100
AcDbLine
 10
8.671711406980925
 20
-19.06357959307389
 30
0.0
 11
8.171711406980923
 21
-19.06357959307389
 31
0.0
  0
LINE
  5
7D
330
21
100
AcDbEntity
  8
STALLUNGEN_1_100
  6
Continuous
100
AcDbLine
 10
8.171711406980923
 20
-19.06357959307389
 30
0.0
 11
8.171711406980923
 21
-18.93357959307389
 31
0.0
  0
LINE
  5
7E
330
21
100
AcDbEntity
  8
STALLUNGEN_1_100
  6
Continuous
100
AcDbLine
 10
8.171711406980923
 20
-18.93357959307389
 30
0.0
 11
4.171711406980925
 21
-18.93357959307389
 31
0.0
  0
LINE
  5
7F
330
21
100
AcDbEntity
  8
STALLUNGEN_1_100
  6
Continuous
100
AcDbLine
 10
4.171711406980925
 20
-18.93357959307389
 30
0.0
 11
4.171711406980925
 21
-19.06357959307389
 31
0.0
  0
LINE
  5
80
330
21
100
AcDbEntity
  8
STALLUNGEN_1_100
  6
Continuous
100
AcDbLine
 10
4.171711406980925
 20
-19.06357959307389
 30
0.0
 11
3.671711406980924
 21
-19.06357959307389
 31
0.0
  0
LINE
  5
81
330
21
100
AcDbEntity
  8
STALLUNGEN_1_100
  6
Continuous
100
AcDbLine
 10
3.671711406980924
 20
-19.06357959307389
 30
0.0
 11
3.671711406980924
 21
-18.93357959307389
 31
0.0
  0
LINE
  5
82
330
21
100
AcDbEntity
  8
STALLUNGEN_1_100
  6
Continuous
100
AcDbLine
 10
3.671711406980924
 20
-18.93357959307389
 30
0.0
 11
-0.3282885930190787
 21
-18.93357959307389
 31
0.0
  0
LINE
  5
83
330
21
100
AcDbEntity
  8
STALLUNGEN_1_100
  6
Continuous
100
AcDbLine
 10
-0.3282885930190787
 20
-18.93357959307389
 30
0.0
 11
-0.3282885930190787
 21
-19.06357959307389
 31
0.0
  0
LINE
  5
84
330
21
100
AcDbEntity
  8
STALLUNGEN_1_100
  6
Continuous
100
AcDbLine
 10
-0.3282885930190787
 20
-19.06357959307389
 30
0.0
 11
-0.8282885930190747
 21
-19.06357959307389
 31
0.0
  0
LINE
  5
85
330
21
100
AcDbEntity
  8
STALLUNGEN_1_100
  6
Continuous
100
AcDbLine
 10
-0.8282885930190747
 20
-19.06357959307389
 30
0.0
 11
-0.8282885930190747
 21
-18.93357959307389
 31
0.0
  0
LINE
  5
86
330
21
100
AcDbEntity
  8
STALLUNGEN_1_100
  6
Continuous
100
AcDbLine
 10
-0.8282885930190747
 20
-18.93357959307389
 30
0.0
 11
-4.86328859301908
 21
-18.93357959307389
 31
0.0
  0
LINE
  5
87
330
21
100
AcDbEntity
  8
STALLUNGEN_1_100
  6
Continuous
100
AcDbLine
 10
-4.86328859301908
 20
-18.93357959307389
 30
0.0
 11
-4.86328859301908
 21
-19.08857959307389
 31
0.0
  0
LINE
  5
88
330
21
100
AcDbEntity
  8
STALLUNGEN_1_100
  6
Continuous
100
AcDbLine
 10
-4.86328859301908
 20
-19.08857959307389
 30
0.0
 11
-5.548288593019075
 21
-19.08857959307389
 31
0.0
  0
LINE
  5
89
330
21
100
AcDbEntity
  8
STALLUNGEN_1_100
  6
Continuous
100
AcDbLine
 10
-5.548288593019075
 20
-19.08857959307389
 30
0.0
 11
-5.548288593019075
 21
-18.54857959307389
 31
0.0
  0
LINE
  5
8A
330
21
100
AcDbEntity
  8
STALLUNGEN_1_100
  6
Continuous
100
AcDbLine
 10
-5.548288593019075
 20
-18.54857959307389
 30
0.0
 11
-5.508288593019073
 21
-18.54857959307389
 31
0.0
  0
LINE
  5
8B
330
21
100
AcDbEntity
  8
STALLUNGEN_1_100
  6
Continuous
100
AcDbLine
 10
-5.508288593019073
 20
-18.54857959307389
 30
0.0
 11
-5.508288593019073
 21
-15.39857959307388
 31
0.0
  0
LINE
  5
8C
330
21
100
AcDbEntity
  8
STALLUNGEN_1_100
  6
Continuous
100
AcDbLine
 10
-5.508288593019073
 20
-15.39857959307388
 30
0.0
 11
-5.083288593019076
 21
-15.39857959307388
 31
0.0
  0
LINE
  5
8D
330
21
100
AcDbEntity
  8
STALLUNGEN_1_100
  6
Continuous
100
AcDbLine
 10
-5.083288593019076
 20
-15.39857959307388
 30
0.0
 11
-5.083288593019076
 21
-18.53857959307389
 31
0.0
  0
LINE
  5
8E
330
21
100
AcDbEntity
  8
STALLUNGEN_1_100
  6
Continuous
100
AcDbLine
 10
-5.083288593019076
 20
-18.53857959307389
 30
0.0
 11
27.09421140698092
 21
-18.53857959307389
 31
0.0
  0
LINE
  5
8F
330
21
100
AcDbEntity
  8
STALLUNGEN_1_100
  6
Continuous
100
AcDbLine
 10
30.67171140698092
 20
-18.93357959307389
 30
0.0
 11
29.12671140698093
 21
-18.93357959307389
 31
0.0
  0
LINE
  5
90
330
21
100
AcDbEntity
  8
STALLUNGEN_1_100
  6
Continuous
100
AcDbLine
 10
29.12671140698093
 20
-18.93357959307389
 30
0.0
 11
29.12671140698093
 21
-18.71857959307389
 31
0.0
  0
LINE
  5
91
330
21
100
AcDbEntity
  8
STALLUNGEN_1_100
  6
Continuous
100
AcDbLine
 10
29.12671140698093
 20
-18.71857959307389
 30
0.0
 11
29.00421140698093
 21
-18.71857959307389
 31
0.0
  0
LINE
  5
92
330
21
100
AcDbEntity
  8
STALLUNGEN_1_100
  6
Continuous
100
AcDbLine
 10
29.00421140698093
 20
-18.71857959307389
 30
0.0
 11
29.00421140698093
 21
-18.53857959307389
 31
0.0
  0
LINE
  5
93
330
21
100
AcDbEntity
  8
STALLUNGEN_1_100
  6
Continuous
100
AcDbLine
 10
29.00421140698093
 20
-18.53857959307389
 30
0.0
 11
35.38671140698092
 21
-18.53857959307389
 31
0.0
  0
LINE
  5
94
330
21
100
AcDbEntity
  8
STALLUNGEN_1_100
  6
Continuous
100
AcDbLine
 10
35.38671140698092
 20
-18.53857959307389
 30
0.0
 11
35.38671140698092
 21
-15.39857959307389
 31
0.0
  0
LINE
  5
95
330
21
100
AcDbEntity
  8
STALLUNGEN_1_100
  6
Continuous
100
AcDbLine
 10
35.38671140698092
 20
-15.39857959307389
 30
0.0
 11
35.81171140698093
 21
-15.39857959307389
 31
0.0
  0
LINE
  5
96
330
21
100
AcDbEntity
  8
STALLUNGEN_1_100
  6
Continuous
100
AcDbLine
 10
35.81171140698093
 20
-15.39857959307389
 30
0.0
 11
35.81171140698093
 21
-18.54857959307389
 31
0.0
  0
LINE
  5
97
330
21
100
AcDbEntity
  8
STALLUNGEN_1_100
  6
Continuous
100
AcDbLine
 10
35.81171140698093
 20
-18.54857959307389
 30
0.0
 11
35.85171140698093
 21
-18.54857959307389
 31
0.0
  0
LINE
  5
98
330
21
100
AcDbEntity
  8
STALLUNGEN_1_100
  6
Continuous
100
AcDbLine
 10
35.85171140698093
 20
-18.54857959307389
 30
0.0
 11
35.85171140698093
 21
-19.08857959307389
 31
0.0
  0
LINE
  5
99
330
21
100
AcDbEntity
  8
STALLUNGEN_1_100
  6
Continuous
100
AcDbLine
 10
35.85171140698093
 20
-19.08857959307389
 30
0.0
 11
35.18171140698092
 21
-19.08857959307389
 31
0.0
  0
LINE
  5
9A
330
21
100
AcDbEntity
  8
STALLUNGEN_1_100
  6
Continuous
100
AcDbLine
 10
35.18171140698092
 20
-19.08857959307389
 30
0.0
 11
35.18171140698092
 21
-18.93357959307389
 31
0.0
  0
LINE
  5
9B
330
21
100
AcDbEntity
  8
STALLUNGEN_1_100
  6
Continuous
100
AcDbLine
 10
35.18171140698092
 20
-18.93357959307389
 30
0.0
 11
31.17171140698093
 21
-18.93357959307389
 31
0.0
  0
LINE
  5
9C
330
21
100
AcDbEntity
  8
STALLUNGEN_1_100
  6
Continuous
100
AcDbLine
 10
31.17171140698093
 20
-18.93357959307389
 30
0.0
 11
31.17171140698093
 21
-19.06357959307389
 31
0.0
  0
LINE
  5
9D
330
21
100
AcDbEntity
  8
STALLUNGEN_1_100
  6
Continuous
100
AcDbLine
 10
31.17171140698093
 20
-19.06357959307389
 30
0.0
 11
30.67171140698092
 21
-19.06357959307389
 31
0.0
  0
LINE
  5
9E
330
21
100
AcDbEntity
  8
STALLUNGEN_1_100
  6
Continuous
100
AcDbLine
 10
30.67171140698092
 20
-19.06357959307389
 30
0.0
 11
30.67171140698092
 21
-18.93357959307389
 31
0.0
  0
LINE
  5
9F
330
21
100
AcDbEntity
  8
STALLUNGEN_1_100
  6
Continuous
100
AcDbLine
 10
8.671711406980927
 20
-8.043579593073884
 30
0.0
 11
8.671711406980927
 21
-8.173579593073888
 31
0.0
  0
LINE
  5
A0
330
21
100
AcDbEntity
  8
STALLUNGEN_1_100
  6
Continuous
100
AcDbLine
 10
8.671711406980927
 20
-8.173579593073888
 30
0.0
 11
12.67171140698092
 21
-8.173579593073888
 31
0.0
  0
LINE
  5
A1
330
21
100
AcDbEntity
  8
STALLUNGEN_1_100
  6
Continuous
100
AcDbLine
 10
12.67171140698092
 20
-8.173579593073888
 30
0.0
 11
12.67171140698092
 21
-8.043579593073884
 31
0.0
  0
LINE
  5
A2
330
21
100
AcDbEntity
  8
STALLUNGEN_1_100
  6
Continuous
100
AcDbLine
 10
12.67171140698092
 20
-8.043579593073884
 30
0.0
 11
13.17171140698093
 21
-8.043579593073884
 31
0.0
  0
LINE
  5
A3
330
21
100
AcDbEntity
  8
STALLUNGEN_1_100
  6
Continuous
100
AcDbLine
 10
13.17171140698093
 20
-8.043579593073884
 30
0.0
 11
13.17171140698093
 21
-8.173579593073888
 31
0.0
  0
LINE
  5
A4
330
21
100
AcDbEntity
  8
STALLUNGEN_1_100
  6
Continuous
100
AcDbLine
 10
13.17171140698093
 20
-8.173579593073888
 30
0.0
 11
17.17171140698092
 21
-8.173579593073888
 31
0.0
  0
LINE
  5
A5
330
21
100
AcDbEntity
  8
STALLUNGEN_1_100
  6
Continuous
100
AcDbLine
 10
17.17171140698092
 20
-8.173579593073888
 30
0.0
 11
17.17171140698092
 21
-8.043579593073884
 31
0.0
  0
LINE
  5
A6
330
21
100
AcDbEntity
  8
STALLUNGEN_1_100
  6
Continuous
100
AcDbLine
 10
17.17171140698092
 20
-8.043579593073884
 30
0.0
 11
17.67171140698092
 21
-8.043579593073884
 31
0.0
  0
LINE
  5
A7
330
21
100
AcDbEntity
  8
STALLUNGEN_1_100
  6
Continuous
100
AcDbLine
 10
17.67171140698092
 20
-8.043579593073884
 30
0.0
 11
17.67171140698092
 21
-8.173579593073888
 31
0.0
  0
LINE
  5
A8
330
21
100
AcDbEntity
  8
STALLUNGEN_1_100
  6
Continuous
100
AcDbLine
 10
17.67171140698092
 20
-8.173579593073888
 30
0.0
 11
21.67171140698092
 21
-8.173579593073892
 31
0.0
  0
LINE
  5
A9
330
21
100
AcDbEntity
  8
STALLUNGEN_1_100
  6
Continuous
100
AcDbLine
 10
21.67171140698092
 20
-8.173579593073892
 30
0.0
 11
21.67171140698092
 21
-8.043579593073888
 31
0.0
  0
LINE
  5
AA
330
21
100
AcDbEntity
  8
STALLUNGEN_1_100
  6
Continuous
100
AcDbLine
 10
21.67171140698092
 20
-8.043579593073888
 30
0.0
 11
22.17171140698093
 21
-8.043579593073888
 31
0.0
  0
LINE
  5
AB
330
21
100
AcDbEntity
  8
STALLUNGEN_1_100
  6
Continuous
100
AcDbLine
 10
22.17171140698093
 20
-8.043579593073888
 30
0.0
 11
22.17171140698093
 21
-8.173579593073892
 31
0.0
  0
LINE
  5
AC
330
21
100
AcDbEntity
  8
STALLUNGEN_1_100
  6
Continuous
100
AcDbLine
 10
22.17171140698093
 20
-8.173579593073892
 30
0.0
 11
23.95171140698093
 21
-8.173579593073892
 31
0.0
  0
LINE
  5
AD
330
21
100
AcDbEntity
  8
STALLUNGEN_1_100
  6
Continuous
100
AcDbLine
 10
23.95171140698093
 20
-8.173579593073892
 30
0.0
 11
23.95171140698093
 21
-8.568579593073895
 31
0.0
  0
LINE
  5
AE
330
21
100
AcDbEntity
  8
STALLUNGEN_1_100
  6
Continuous
100
AcDbLine
 10
23.95171140698093
 20
-8.568579593073895
 30
0.0
 11
-5.083288593019071
 21
-8.568579593073891
 31
0.0
  0
LINE
  5
AF
330
21
100
AcDbEntity
  8
STALLUNGEN_1_100
  6
Continuous
100
AcDbLine
 10
-5.083288593019076
 20
-8.568579593073891
 30
0.0
 11
-5.083288593019076
 21
-11.70857959307389
 31
0.0
  0
LINE
  5
B0
330
21
100
AcDbEntity
  8
STALLUNGEN_1_100
  6
Continuous
100
AcDbLine
 10
-5.083288593019076
 20
-11.70857959307389
 30
0.0
 11
-5.508288593019073
 21
-11.70857959307388
 31
0.0
  0
LINE
  5
B1
330
21
100
AcDbEntity
  8
STALLUNGEN_1_100
  6
Continuous
100
AcDbLine
 10
-5.508288593019073
 20
-11.70857959307388
 30
0.0
 11
-5.508288593019073
 21
-8.558579593073885
 31
0.0
  0
LINE
  5
B2
330
21
100
AcDbEntity
  8
STALLUNGEN_1_100
  6
Continuous
100
AcDbLine
 10
-5.508288593019073
 20
-8.558579593073885
 30
0.0
 11
-5.548288593019075
 21
-8.558579593073885
 31
0.0
  0
LINE
  5
B3
330
21
100
AcDbEntity
  8
STALLUNGEN_1_100
  6
Continuous
100
AcDbLine
 10
-5.548288593019075
 20
-8.558579593073885
 30
0.0
 11
-5.548288593019075
 21
-8.018579593073887
 31
0.0
  0
LINE
  5
B4
330
21
100
AcDbEntity
  8
STALLUNGEN_1_100
  6
Continuous
100
AcDbLine
 10
-5.548288593019075
 20
-8.018579593073887
 30
0.0
 11
-4.86328859301908
 21
-8.018579593073889
 31
0.0
  0
LINE
  5
B5
330
21
100
AcDbEntity
  8
STALLUNGEN_1_100
  6
Continuous
100
AcDbLine
 10
-4.86328859301908
 20
-8.018579593073889
 30
0.0
 11
-4.86328859301908
 21
-8.173579593073888
 31
0.0
  0
LINE
  5
B6
330
21
100
AcDbEntity
  8
STALLUNGEN_1_100
  6
Continuous
100
AcDbLine
 10
-4.86328859301908
 20
-8.173579593073888
 30
0.0
 11
-0.8282885930190747
 21
-8.173579593073888
 31
0.0
  0
LINE
  5
B7
330
21
100
AcDbEntity
  8
STALLUNGEN_1_100
  6
Continuous
100
AcDbLine
 10
-0.8282885930190747
 20
-8.173579593073888
 30
0.0
 11
-0.8282885930190747
 21
-8.043579593073884
 31
0.0
  0
LINE
  5
B8
330
21
100
AcDbEntity
  8
STALLUNGEN_1_100
  6
Continuous
100
AcDbLine
 10
-0.8282885930190747
 20
-8.043579593073884
 30
0.0
 11
-0.3282885930190787
 21
-8.043579593073884
 31
0.0
  0
LINE
  5
B9
330
21
100
AcDbEntity
  8
STALLUNGEN_1_100
  6
Continuous
100
AcDbLine
 10
-0.3282885930190787
 20
-8.043579593073884
 30
0.0
 11
-0.3282885930190787
 21
-8.173579593073888
 31
0.0
  0
LINE
  5
BA
330
21
100
AcDbEntity
  8
STALLUNGEN_1_100
  6
Continuous
100
AcDbLine
 10
-0.3282885930190787
 20
-8.173579593073888
 30
0.0
 11
3.671711406980924
 21
-8.173579593073888
 31
0.0
  0
LINE
  5
BB
330
21
100
AcDbEntity
  8
STALLUNGEN_1_100
  6
Continuous
100
AcDbLine
 10
3.671711406980924
 20
-8.173579593073888
 30
0.0
 11
3.671711406980924
 21
-8.043579593073884
 31
0.0
  0
LINE
  5
BC
330
21
100
AcDbEntity
  8
STALLUNGEN_1_100
  6
Continuous
100
AcDbLine
 10
3.671711406980924
 20
-8.043579593073884
 30
0.0
 11
4.171711406980925
 21
-8.043579593073884
 31
0.0
  0
LINE
  5
BD
330
21
100
AcDbEntity
  8
STALLUNGEN_1_100
  6
Continuous
100
AcDbLine
 10
4.171711406980925
 20
-8.043579593073884
 30
0.0
 11
4.171711406980925
 21
-8.173579593073888
 31
0.0
  0
LINE
  5
BE
330
21
100
AcDbEntity
  8
STALLUNGEN_1_100
  6
Continuous
100
AcDbLine
 10
4.171711406980925
 20
-8.173579593073888
 30
0.0
 11
8.171711406980925
 21
-8.173579593073888
 31
0.0
  0
LINE
  5
BF
330
21
100
AcDbEntity
  8
STALLUNGEN_1_100
  6
Continuous
100
AcDbLine
 10
8.171711406980925
 20
-8.173579593073888
 30
0.0
 11
8.171711406980925
 21
-8.043579593073884
 31
0.0
  0
LINE
  5
C0
330
21
100
AcDbEntity
  8
STALLUNGEN_1_100
  6
Continuous
100
AcDbLine
 10
8.171711406980925
 20
-8.043579593073884
 30
0.0
 11
8.671711406980927
 21
-8.043579593073884
 31
0.0
  0
LINE
  5
C1
330
21
100
AcDbEntity
  8
STALLUNGEN_1_100
  6
Continuous
100
AcDbLine
 10
30.67171140698092
 20
-8.173579593073892
 30
0.0
 11
26.67171140698093
 21
-8.173579593073892
 31
0.0
  0
LINE
  5
C2
330
21
100
AcDbEntity
  8
STALLUNGEN_1_100
  6
Continuous
100
AcDbLine
 10
26.67171140698093
 20
-8.173579593073892
 30
0.0
 11
26.67171140698093
 21
-8.043579593073888
 31
0.0
  0
LINE
  5
C3
330
21
100
AcDbEntity
  8
STALLUNGEN_1_100
  6
Continuous
100
AcDbLine
 10
26.67171140698093
 20
-8.043579593073888
 30
0.0
 11
26.17171140698093
 21
-8.043579593073888
 31
0.0
  0
LINE
  5
C4
330
21
100
AcDbEntity
  8
STALLUNGEN_1_100
  6
Continuous
100
AcDbLine
 10
26.17171140698093
 20
-8.043579593073888
 30
0.0
 11
26.17171140698093
 21
-8.173579593073892
 31
0.0
  0
LINE
  5
C5
330
21
100
AcDbEntity
  8
STALLUNGEN_1_100
  6
Continuous
100
AcDbLine
 10
26.17171140698093
 20
-8.173579593073892
 30
0.0
 11
25.82671140698093
 21
-8.173579593073892
 31
0.0
  0
LINE
  5
C6
330
21
100
AcDbEntity
  8
STALLUNGEN_1_100
  6
Continuous
100
AcDbLine
 10
25.82671140698093
 20
-8.173579593073892
 30
0.0
 11
25.82671140698093
 21
-8.568579593073895
 31
0.0
  0
LINE
  5
C7
330
21
100
AcDbEntity
  8
STALLUNGEN_1_100
  6
Continuous
100
AcDbLine
 10
25.82671140698093
 20
-8.568579593073895
 30
0.0
 11
35.38671140698092
 21
-8.568579593073895
 31
0.0
  0
LINE
  5
C8
330
21
100
AcDbEntity
  8
STALLUNGEN_1_100
  6
Continuous
100
AcDbLine
 10
35.38671140698092
 20
-8.568579593073895
 30
0.0
 11
35.38671140698092
 21
-11.70857959307389
 31
0.0
  0
LINE
  5
C9
330
21
100
AcDbEntity
  8
STALLUNGEN_1_100
  6
Continuous
100
AcDbLine
 10
35.38671140698092
 20
-11.70857959307389
 30
0.0
 11
35.81171140698093
 21
-11.70857959307389
 31
0.0
  0
LINE
  5
CA
330
21
100
AcDbEntity
  8
STALLUNGEN_1_100
  6
Continuous
100
AcDbLine
 10
35.81171140698093
 20
-11.70857959307389
 30
0.0
 11
35.81171140698093
 21
-8.558579593073892
 31
0.0
  0
LINE
  5
CB
330
21
100
AcDbEntity
  8
STALLUNGEN_1_100
  6
Continuous
100
AcDbLine
 10
35.81171140698093
 20
-8.558579593073892
 30
0.0
 11
35.85171140698093
 21
-8.558579593073892
 31
0.0
  0
LINE
  5
CC
330
21
100
AcDbEntity
  8
STALLUNGEN_1_100
  6
Continuous
100
AcDbLine
 10
35.85171140698093
 20
-8.558579593073892
 30
0.0
 11
35.85171140698093
 21
-8.018579593073893
 31
0.0
  0
LINE
  5
CD
330
21
100
AcDbEntity
  8
STALLUNGEN_1_100
  6
Continuous
100
AcDbLine
 10
35.85171140698093
 20
-8.018579593073893
 30
0.0
 11
35.18171140698092
 21
-8.018579593073893
 31
0.0
  0
LINE
  5
CE
330
21
100
AcDbEntity
  8
STALLUNGEN_1_100
  6
Continuous
100
AcDbLine
 10
35.18171140698092
 20
-8.018579593073893
 30
0.0
 11
35.18171140698092
 21
-8.173579593073892
 31
0.0
  0
LINE
  5
CF
330
21
100
AcDbEntity
  8
STALLUNGEN_1_100
  6
Continuous
100
AcDbLine
 10
35.18171140698092
 20
-8.173579593073892
 30
0.0
 11
31.17171140698093
 21
-8.173579593073892
 31
0.0
  0
LINE
  5
D0
330
21
100
AcDbEntity
  8
STALLUNGEN_1_100
  6
Continuous
100
AcDbLine
 10
31.17171140698093
 20
-8.173579593073892
 30
0.0
 11
31.17171140698093
 21
-8.043579593073888
 31
0.0
  0
LINE
  5
D1
330
21
100
AcDbEntity
  8
STALLUNGEN_1_100
  6
Continuous
100
AcDbLine
 10
31.17171140698093
 20
-8.043579593073888
 30
0.0
 11
30.67171140698092
 21
-8.043579593073888
 31
0.0
  0
LINE
  5
D2
330
21
100
AcDbEntity
  8
STALLUNGEN_1_100
  6
Continuous
100
AcDbLine
 10
30.67171140698092
 20
-8.043579593073888
 30
0.0
 11
30.67171140698092
 21
-8.173579593073892
 31
0.0
  0
LINE
  5
D3
330
21
100
AcDbEntity
  8
STALLUNGEN_1_100
  6
Continuous
100
AcDbLine
 10
26.97171140698092
 20
-18.93357959307389
 30
0.0
 11
29.12671140698093
 21
-18.93357959307389
 31
0.0
  0
ARC
  5
D4
330
21
100
AcDbEntity
  8
STALLUNGEN_1_100
  6
Continuous
100
AcDbCircle
 10
27.09421140698093
 20
-18.76857959307389
 30
0.0
 40
0.9549999999999998
100
AcDbArc
 50
270.0
 51
0.0
  0
LINE
  5
D5
330
21
100
AcDbEntity
  8
STALLUNGEN_1_100
  6
Continuous
100
AcDbLine
 10
27.09421140698093
 20
-19.72357959307389
 30
0.0
 11
27.09421140698093
 21
-18.71857959307389
 31
0.0
  0
LINE
  5
D6
330
21
100
AcDbEntity
  8
STALLUNGEN_1_100
  6
Continuous
100
AcDbLine
 10
28.04921140698093
 20
-18.76857959307389
 30
0.0
 11
28.04921140698093
 21
-18.71857959307389
 31
0.0
  0
ARC
  5
D7
330
21
100
AcDbEntity
  8
STALLUNGEN_1_100
  6
Continuous
100
AcDbCircle
 10
29.00421140698093
 20
-18.76857959307389
 30
0.0
 40
0.9549999999999998
100
AcDbArc
 50
180.0
 51
270.0
  0
LINE
  5
D8
330
21
100
AcDbEntity
  8
STALLUNGEN_1_100
  6
Continuous
100
AcDbLine
 10
29.00421140698093
 20
-19.72357959307389
 30
0.0
 11
29.00421140698093
 21
-18.71857959307389
 31
0.0
  0
LINE
  5
D9
330
21
100
AcDbEntity
  8
STALLUNGEN_1_100
  6
Continuous
100
AcDbLine
 10
35.38671140698092
 20
-15.53857959307389
 30
0.0
 11
-5.083288593019083
 21
-15.53857959307389
 31
0.0
  0
LINE
  5
DA
330
21
100
AcDbEntity
  8
STALLUNGEN_1_100
  6
Continuous
100
AcDbLine
 10
-5.083288593019076
 20
-15.53857959307389
 30
0.0
 11
-5.083288593019076
 21
-15.43857959307388
 31
0.0
  0
LINE
  5
DB
330
21
100
AcDbEntity
  8
STALLUNGEN_1_100
  6
Continuous
100
AcDbLine
 10
-5.083288593019076
 20
-15.43857959307388
 30
0.0
 11
35.38671140698092
 21
-15.43857959307389
 31
0.0
  0
LINE
  5
DC
330
21
100
AcDbEntity
  8
STALLUNGEN_1_100
  6
Continuous
100
AcDbLine
 10
35.38671140698092
 20
-15.43857959307389
 30
0.0
 11
35.38671140698092
 21
-15.53857959307389
 31
0.0
  0
LINE
  5
DD
330
21
100
AcDbEntity
  8
STALLUNGEN_1_100
  6
Continuous
100
AcDbLine
 10
35.38671140698092
 20
-11.66857959307389
 30
0.0
 11
-5.083288593019083
 21
-11.66857959307389
 31
0.0
  0
LINE
  5
DE
330
21
100
AcDbEntity
  8
STALLUNGEN_1_100
  6
Continuous
100
AcDbLine
 10
-5.083288593019076
 20
-11.66857959307389
 30
0.0
 11
-5.083288593019076
 21
-11.56857959307388
 31
0.0
  0
LINE
  5
DF
330
21
100
AcDbEntity
  8
STALLUNGEN_1_100
  6
Continuous
100
AcDbLine
 10
-5.083288593019076
 20
-11.56857959307388
 30
0.0
 11
35.38671140698092
 21
-11.56857959307389
 31
0.0
  0
LINE
  5
E0
330
21
100
AcDbEntity
  8
STALLUNGEN_1_100
  6
Continuous
100
AcDbLine
 10
35.38671140698092
 20
-11.56857959307389
 30
0.0
 11
35.38671140698092
 21
-11.66857959307389
 31
0.0
  0
LINE
  5
E1
330
21
100
AcDbEntity
  8
STALLUNGEN_1_100
  6
Continuous
100
AcDbLine
 10
35.38671140698092
 20
-15.39857959307389
 30
0.0
 11
35.32671140698092
 21
-15.39857959307389
 31
0.0
  0
LINE
  5
E2
330
21
100
AcDbEntity
  8
STALLUNGEN_1_100
  6
Continuous
100
AcDbLine
 10
35.32671140698092
 20
-15.39857959307389
 30
0.0
 11
35.32671140698093
 21
-11.70857959307389
 31
0.0
  0
LINE
  5
E3
330
21
100
AcDbEntity
  8
STALLUNGEN_1_100
  6
Continuous
100
AcDbLine
 10
35.32671140698093
 20
-11.70857959307389
 30
0.0
 11
35.38671140698092
 21
-11.70857959307389
 31
0.0
  0
LINE
  5
E4
330
21
100
AcDbEntity
  8
STALLUNGEN_1_100
  6
Continuous
100
AcDbLine
 10
35.38671140698092
 20
-11.70857959307389
 30
0.0
 11
35.38671140698092
 21
-15.39857959307389
 31
0.0
  0
LINE
  5
E5
330
21
100
AcDbEntity
  8
STALLUNGEN_1_100
  6
Continuous
100
AcDbLine
 10
-5.023288593019073
 20
-15.39857959307388
 30
0.0
 11
-5.083288593019076
 21
-15.39857959307388
 31
0.0
  0
LINE
  5
E6
330
21
100
AcDbEntity
  8
STALLUNGEN_1_100
  6
Continuous
100
AcDbLine
 10
-5.083288593019076
 20
-15.39857959307388
 30
0.0
 11
-5.083288593019076
 21
-11.70857959307389
 31
0.0
  0
LINE
  5
E7
330
21
100
AcDbEntity
  8
STALLUNGEN_1_100
  6
Continuous
100
AcDbLine
 10
-5.083288593019076
 20
-11.70857959307389
 30
0.0
 11
-5.023288593019073
 21
-11.70857959307389
 31
0.0
  0
LINE
  5
E8
330
21
100
AcDbEntity
  8
STALLUNGEN_1_100
  6
Continuous
100
AcDbLine
 10
-5.023288593019073
 20
-11.70857959307389
 30
0.0
 11
-5.023288593019073
 21
-15.39857959307388
 31
0.0
  0
LINE
  5
E9
330
21
100
AcDbEntity
  8
STALLUNGEN_1_100
  6
Continuous
100
AcDbLine
 10
-4.773288593019078
 20
-11.61857959307389
 30
0.0
 11
-5.083288593019076
 21
-11.61857959307389
 31
0.0
  0
LINE
  5
EA
330
21
100
AcDbEntity
  8
STALLUNGEN_1_100
  6
Continuous
100
AcDbLine
 10
-5.083288593019076
 20
-11.61857959307389
 30
0.0
 11
-5.083288593019076
 21
-11.14357959307389
 31
0.0
  0
LINE
  5
EB
330
21
100
AcDbEntity
  8
STALLUNGEN_1_100
  6
Continuous
100
AcDbLine
 10
-5.083288593019076
 20
-11.14357959307389
 30
0.0
 11
-4.773288593019078
 21
-11.14357959307389
 31
0.0
  0
LINE
  5
EC
330
21
100
AcDbEntity
  8
STALLUNGEN_1_100
  6
Continuous
100
AcDbLine
 10
-4.773288593019078
 20
-11.14357959307389
 30
0.0
 11
-4.773288593019078
 21
-11.61857959307389
 31
0.0
  0
LINE
  5
ED
330
21
100
AcDbEntity
  8
STALLUNGEN_1_100
  6
Continuous
100
AcDbLine
 10
35.38671140698092
 20
-15.96357959307389
 30
0.0
 11
35.07671140698093
 21
-15.96357959307389
 31
0.0
  0
LINE
  5
EE
330
21
100
AcDbEntity
  8
STALLUNGEN_1_100
  6
Continuous
100
AcDbLine
 10
35.07671140698093
 20
-15.96357959307389
 30
0.0
 11
35.07671140698093
 21
-15.48857959307389
 31
0.0
  0
LINE
  5
EF
330
21
100
AcDbEntity
  8
STALLUNGEN_1_100
  6
Continuous
100
AcDbLine
 10
35.07671140698093
 20
-15.48857959307389
 30
0.0
 11
35.38671140698092
 21
-15.48857959307389
 31
0.0
  0
LINE
  5
F0
330
21
100
AcDbEntity
  8
STALLUNGEN_1_100
  6
Continuous
100
AcDbLine
 10
35.38671140698092
 20
-15.48857959307389
 30
0.0
 11
35.38671140698092
 21
-15.96357959307389
 31
0.0
  0
LINE
  5
F1
330
21
100
AcDbEntity
  8
STALLUNGEN_1_100
  6
Continuous
100
AcDbLine
 10
29.00421140698093
 20
-18.71857959307389
 30
0.0
 11
27.09421140698093
 21
-18.71857959307389
 31
0.0
  0
LINE
  5
F2
330
21
100
AcDbEntity
  8
STALLUNGEN_1_100
  6
Continuous
100
AcDbLine
 10
27.09421140698093
 20
-18.71857959307389
 30
0.0
 11
27.09421140698093
 21
-18.53857959307389
 31
0.0
  0
LINE
  5
F3
330
21
100
AcDbEntity
  8
STALLUNGEN_1_100
  6
Continuous
100
AcDbLine
 10
27.09421140698093
 20
-18.53857959307389
 30
0.0
 11
29.00421140698093
 21
-18.53857959307389
 31
0.0
  0
LINE
  5
F4
330
21
100
AcDbEntity
  8
STALLUNGEN_1_100
  6
Continuous
100
AcDbLine
 10
29.00421140698093
 20
-18.53857959307389
 30
0.0
 11
29.00421140698093
 21
-18.71857959307389
 31
0.0
  0
LINE
  5
F5
330
21
100
AcDbEntity
  8
STALLUNGEN_1_100
  6
Continuous
100
AcDbLine
 10
29.12671140698093
 20
-18.76857959307389
 30
0.0
 11
26.97171140698092
 21
-18.76857959307389
 31
0.0
  0
LINE
  5
F6
330
21
100
AcDbEntity
  8
STALLUNGEN_1_100
  6
Continuous
100
AcDbLine
 10
26.97171140698092
 20
-18.76857959307389
 30
0.0
 11
26.97171140698092
 21
-18.71857959307389
 31
0.0
  0
LINE
  5
F7
330
21
100
AcDbEntity
  8
STALLUNGEN_1_100
  6
Continuous
100
AcDbLine
 10
26.97171140698092
 20
-18.71857959307389
 30
0.0
 11
29.12671140698093
 21
-18.71857959307389
 31
0.0
  0
LINE
  5
F8
330
21
100
AcDbEntity
  8
STALLUNGEN_1_100
  6
Continuous
100
AcDbLine
 10
29.12671140698093
 20
-18.71857959307389
 30
0.0
 11
29.12671140698093
 21
-18.76857959307389
 31
0.0
  0
TEXT
  5
FA
330
21
100
AcDbEntity
  8
HALLE_0_1_EG
  6
Continuous
100
AcDbText
 10
29.8875184054736
 20
-33.3822102108718
 30
0.0
 40
0.3015217156407044
  1
Veranstalter
  7
ARIAL
100
AcDbText
  0
TEXT
  5
FC
330
21
100
AcDbEntity
  8
HALLE_0_1_EG
  6
Continuous
100
AcDbText
 10
29.89213389200141
 20
-34.00438048416504
 30
0.0
 40
0.3015217156407044
  1
Projekt
  7
ARIAL
100
AcDbText
  0
TEXT
  5
FD
330
21
100
AcDbEntity
  8
HALLE_0_1_EG
  6
Continuous
100
AcDbText
 10
29.8875184054736
 20
-34.6094125735623
 30
0.0
 40
0.3015217156407044
  1
Zeit/Datum
  7
ARIAL
100
AcDbText
  0
TEXT
  5
FE
330
21
100
AcDbEntity
  8
HALLE_0_1_EG
  6
Continuous
100
AcDbText
 10
29.8875184054736
 20
-36.56332131979207
 30
0.0
 40
0.3015217156407043
  1
Massstab 1:200
  7
ARIAL
100
AcDbText
  0
TEXT
  5
FF
330
21
100
AcDbEntity
  8
HALLE_0_1_EG
  6
Continuous
100
AcDbText
 10
34.03657728488491
 20
-36.58662781318117
 30
0.0
 40
0.3015217156407044
  1
Thun,
  7
ARIAL
100
AcDbText
  0
TEXT
  5
100
330
21
100
AcDbEntity
  8
HALLE_0_1_EG
  6
Continuous
100
AcDbText
 10
29.8875184054736
 20
-35.67774661432411
 30
0.0
 40
0.6030434312814086
  1
Grundriss EG Halle 5
  7
ARIAL
100
AcDbText
  0
LWPOLYLINE
  5
101
330
21
100
AcDbEntity
  8
HALLE_0_1_EG
  6
Continuous
100
AcDbPolyline
 90
        4
 70
     1
 43
0.0
 10
29.51658832088397
 20
-32.76680834740277
 10
42.61671583657061
 20
-32.76680834740277
 10
42.61671583657061
 20
-36.82328864545957
 10
29.51658832088397
 20
-36.82328864545957
  0
LINE
  5
102
330
21
100
AcDbEntity
  8
HALLE_0_1_EG
  6
Continuous
100
AcDbLine
 10
37.80175798625471
 20
-32.77179574362545
 30
0.0
 11
37.80175798625471
 21
-36.82827604168224
 31
0.0
  0
LINE
  5
103
330
21
100
AcDbEntity
  8
HALLE_0_1_EG
  6
Continuous
100
AcDbLine
 10
29.51658832088397
 20
-34.85855788523902
 30
0.0
 11
37.80175798625471
 21
-34.85855788523902
 31
0.0
  0
LINE
  5
104
330
21
100
AcDbEntity
  8
HALLE_0_1_EG
  6
Continuous
100
AcDbLine
 10
29.51658832088397
 20
-35.9813776402025
 30
0.0
 11
37.80175798625471
 21
-35.9813776402025
 31
0.0
  0
LINE
  5
105
330
21
100
AcDbEntity
  8
HALLE_0_1_EG
  6
Continuous
100
AcDbLine
 10
33.70443737541684
 20
-35.99121056545329
 30
0.0
 11
33.70443737541684
 21
-36.81515740082743
 31
0.0
  0
TEXT
  5
106
330
21
100
AcDbEntity
  8
HALLE_0_1_EG
  6
Continuous
100
AcDbText
 10
38.17882917853666
 20
-33.37526383385362
 30
0.0
 40
0.3015217156407044
  1
Thun-Expo
  7
ARIAL
100
AcDbText
  0
TEXT
  5
107
330
21
100
AcDbEntity
  8
HALLE_0_1_EG
  6
Continuous
100
AcDbText
 10
38.17882917853666
 20
-33.82754640731467
 30
0.0
 40
0.3015217156407044
  1
Mittlere Strasse 27
  7
ARIAL
100
AcDbText
  0
TEXT
  5
108
330
21
100
AcDbEntity
  8
HALLE_0_1_EG
  6
Continuous
100
AcDbText
 10
38.17882917853666
 20
-34.27982898077573
 30
0.0
 40
0.3015217156407044
  1
Postfach 879
  7
ARIAL
100
AcDbText
  0
TEXT
  5
109
330
21
100
AcDbEntity
  8
HALLE_0_1_EG
  6
Continuous
100
AcDbText
 10
38.17882917853666
 20
-34.73211155423679
 30
0.0
 40
0.3015217156407044
  1
3607 Thun
  7
ARIAL
100
AcDbText
  0
TEXT
  5
10A
330
21
100
AcDbEntity
  8
HALLE_0_1_EG
  6
Continuous
100
AcDbText
 10
38.17576264757801
 20
-35.67920540961598
 30
0.0
 40
0.3015217156407044
  1
Fon  +41 33 225 11 20
  7
ARIAL
100
AcDbText
  0
TEXT
  5
10B
330
21
100
AcDbEntity
  8
HALLE_0_1_EG
  6
Continuous
100
AcDbText
 10
38.17576264757801
 20
-36.13148798307704
 30
0.0
 40
0.3015217156407044
  1
Fax  +41 33 225 11 28
  7
ARIAL
100
AcDbText
  0
TEXT
  5
10C
330
21
100
AcDbEntity
  8
HALLE_0_1_EG
  6
Continuous
100
AcDbText
 10
38.17576264757801
 20
-36.5837705565381
 30
0.0
 40
0.3015217156407044
  1
Mail  info@thun-expo.ch
  7
ARIAL
100
AcDbText
  0
ENDSEC
  0
SECTION
  2
OBJECTS
  0
DICTIONARY
  5
C
330
0
100
AcDbDictionary
281
     1
  3
ACAD_COLOR
350
1C
  3
ACAD_GROUP
350
D
  3
ACAD_LAYOUT
350
1A
  3
ACAD_MATERIAL
350
1B
  3
ACAD_MLINESTYLE
350
17
  3
ACAD_PLOTSETTINGS
350
19
  3
ACAD_PLOTSTYLENAME
350
E
  3
ACDBHEADERROUNDTRIPXREC
350
111
  3
AcDbVariableDictionary
350
10D
  0
DICTIONARY
  5
1C
102
{ACAD_REACTORS
330
C
102
}
330
C
100
AcDbDictionary
281
     1
  0
DICTIONARY
  5
D
102
{ACAD_REACTORS
330
C
102
}
330
C
100
AcDbDictionary
281
     1
  0
DICTIONARY
  5
1A
102
{ACAD_REACTORS
330
C
102
}
330
C
100
AcDbDictionary
281
     1
  3
Layout1
350
20
  3
Layout2
350
28
  3
Model
350
24
  0
DICTIONARY
  5
1B
102
{ACAD_REACTORS
330
C
102
}
330
C
100
AcDbDictionary
281
     1
  0
DICTIONARY
  5
17
102
{ACAD_REACTORS
330
C
102
}
330
C
100
AcDbDictionary
281
     1
  3
Standard
350
18
  0
DICTIONARY
  5
19
102
{ACAD_REACTORS
330
C
102
}
330
C
100
AcDbDictionary
281
     1
  0
ACDBDICTIONARYWDFLT
  5
E
102
{ACAD_REACTORS
330
C
102
}
330
C
100
AcDbDictionary
281
     1
  3
Normal
350
F
100
AcDbDictionaryWithDefault
340
F
  0
DICTIONARY
  5
111
102
{ACAD_REACTORS
330
C
102
}
330
C
100
AcDbDictionary
281
     1
  0
DICTIONARY
  5
10D
102
{ACAD_REACTORS
330
C
102
}
330
C
100
AcDbDictionary
281
     1
  3
DIMASSOC
350
10F
  3
HIDETEXT
350
10E
  3
PROJECTNAME
350
110
  0
LAYOUT
  5
20
102
{ACAD_XDICTIONARY
360
112
102
}
102
{ACAD_REACTORS
330
1A
102
}
330
1A
100
AcDbPlotSettings
  1

  2

  4

  6

 40
0.0
 41
0.0
 42
0.0
 43
0.0
 44
0.0
 45
0.0
 46
0.0
 47
0.0
 48
0.0
 49
0.0
140
0.0
141
0.0
142
1.0
143
1.0
 70
   688
 72
     0
 73
     0
 74
     5
  7

 75
    16
147
1.0
148
0.0
149
0.0
100
AcDbLayout
  1
Layout1
 70
     1
 71
     1
 10
0.0
 20
0.0
 11
12.0
 21
9.0
 12
0.0
 22
0.0
 32
0.0
 14
0.0
 24
0.0
 34
0.0
 15
0.0
 25
0.0
 35
0.0
146
0.0
 13
0.0
 23
0.0
 33
0.0
 16
1.0
 26
0.0
 36
0.0
 17
0.0
 27
1.0
 37
0.0
 76
     0
330
1D
  0
LAYOUT
  5
28
102
{ACAD_XDICTIONARY
360
116
102
}
102
{ACAD_REACTORS
330
1A
102
}
330
1A
100
AcDbPlotSettings
  1

  2

  4

  6

 40
0.0
 41
0.0
 42
0.0
 43
0.0
 44
0.0
 45
0.0
 46
0.0
 47
0.0
 48
0.0
 49
0.0
140
0.0
141
0.0
142
1.0
143
1.0
 70
   688
 72
     0
 73
     0
 74
     5
  7

 75
    16
147
1.0
148
0.0
149
0.0
100
AcDbLayout
  1
Layout2
 70
     1
 71
     2
 10
0.0
 20
0.0
 11
12.0
 21
9.0
 12
0.0
 22
0.0
 32
0.0
 14
0.0
 24
0.0
 34
0.0
 15
0.0
 25
0.0
 35
0.0
146
0.0
 13
0.0
 23
0.0
 33
0.0
 16
1.0
 26
0.0
 36
0.0
 17
0.0
 27
1.0
 37
0.0
 76
     0
330
25
  0
LAYOUT
  5
24
102
{ACAD_XDICTIONARY
360
114
102
}
102
{ACAD_REACTORS
330
1A
102
}
330
1A
100
AcDbPlotSettings
  1

  2

  4

  6

 40
0.0
 41
0.0
 42
0.0
 43
0.0
 44
0.0
 45
0.0
 46
0.0
 47
0.0
 48
0.0
 49
0.0
140
0.0
141
0.0
142
1.0
143
1.0
 70
  1712
 72
     0
 73
     0
 74
     0
  7

 75
     0
147
1.0
148
0.0
149
0.0
100
AcDbLayout
  1
Model
 70
     1
 71
     0
 10
0.0
 20
0.0
 11
12.0
 21
9.0
 12
0.0
 22
0.0
 32
0.0
 14
0.0
 24
0.0
 34
0.0
 15
0.0
 25
0.0
 35
0.0
146
0.0
 13
0.0
 23
0.0
 33
0.0
 16
1.0
 26
0.0
 36
0.0
 17
0.0
 27
1.0
 37
0.0
 76
     0
330
21
  0
MLINESTYLE
  5
18
102
{ACAD_REACTORS
330
17
102
}
330
17
100
AcDbMlineStyle
  2
STANDARD
 70
     0
  3

 62
   256
 51
90.0
 52
90.0
 71
     2
 49
0.5
 62
   256
  6
BYLAYER
 49
-0.5
 62
   256
  6
BYLAYER
  0
ACDBPLACEHOLDER
  5
F
102
{ACAD_REACTORS
330
E
102
}
330
E
  0
DICTIONARYVAR
  5
10F
102
{ACAD_REACTORS
330
10D
102
}
330
10D
100
DictionaryVariables
280
     0
  1
2
  0
DICTIONARYVAR
  5
10E
102
{ACAD_REACTORS
330
10D
102
}
330
10D
100
DictionaryVariables
280
     0
  1
1
  0
DICTIONARYVAR
  5
110
102
{ACAD_REACTORS
330
10D
102
}
330
10D
100
DictionaryVariables
280
     0
  1

  0
DICTIONARY
  5
112
330
20
100
AcDbDictionary
280
     1
281
     1
  3
ACAD_XREC_ROUNDTRIP
360
113
  0
DICTIONARY
  5
116
330
28
100
AcDbDictionary
280
     1
281
     1
  3
ACAD_XREC_ROUNDTRIP
360
117
  0
DICTIONARY
  5
114
330
24
100
AcDbDictionary
280
     1
281
     1
  3
ACAD_XREC_ROUNDTRIP
360
115
  0
XRECORD
  5
113
102
{ACAD_REACTORS
330
112
102
}
330
112
100
AcDbXrecord
280
     1
102
SHADEPLOT
 70
     0
102
SHADEPLOTRESLEVEL
 70
     2
102
SHADEPLOTCUSTOMDPI
 70
   300
  0
XRECORD
  5
117
102
{ACAD_REACTORS
330
116
102
}
330
116
100
AcDbXrecord
280
     1
102
SHADEPLOT
 70
     0
102
SHADEPLOTRESLEVEL
 70
     2
102
SHADEPLOTCUSTOMDPI
 70
   300
  0
XRECORD
  5
115
102
{ACAD_REACTORS
330
114
102
}
330
114
100
AcDbXrecord
280
     1
102
SHADEPLOT
 70
     0
102
SHADEPLOTRESLEVEL
 70
     2
102
SHADEPLOTCUSTOMDPI
 70
   300
  0
ENDSEC
  0
EOF
