  0
SECTION
  2
HEADER
  9
$ACADVER
  1
AC1015
  9
$ACADMAINTVER
 70
    18
  9
$DWGCODEPAGE
  3
ANSI_1252
  9
$INSBASE
 10
0.0
 20
0.0
 30
0.0
  9
$EXTMIN
 10
-12418.9840881273
 20
-48208.27724208148
 30
-0.00000001
  9
$EXTMAX
 10
54328.33312861638
 20
-4390.614443074453
 30
0.00000001
  9
$LIMMIN
 10
-641.8415642428544
 20
-2012.769413635728
  9
$LIMMAX
 10
2281.386782213839
 20
54.15972022253914
  9
$ORTHOMODE
 70
     0
  9
$REGENMODE
 70
     1
  9
$FILLMODE
 70
     1
  9
$QTEXTMODE
 70
     0
  9
$MIRRTEXT
 70
     0
  9
$LTSCALE
 40
0.254
  9
$ATTMODE
 70
     1
  9
$TEXTSIZE
 40
0.2
  9
$TRACEWID
 40
0.05
  9
$TEXTSTYLE
  7
Standard
  9
$CLAYER
  8
0
  9
$CELTYPE
  6
ByLayer
  9
$CECOLOR
 62
   256
  9
$CELTSCALE
 40
1.0
  9
$DISPSILH
 70
     0
  9
$DIMSCALE
 40
1.0
  9
$DIMASZ
 40
0.18
  9
$DIMEXO
 40
0.0625
  9
$DIMDLI
 40
0.38
  9
$DIMRND
 40
0.0
  9
$DIMDLE
 40
0.0
  9
$DIMEXE
 40
0.18
  9
$DIMTP
 40
0.0
  9
$DIMTM
 40
0.0
  9
$DIMTXT
 40
39.37007874015748
  9
$DIMCEN
 40
0.09
  9
$DIMTSZ
 40
0.0
  9
$DIMTOL
 70
     0
  9
$DIMLIM
 70
     0
  9
$DIMTIH
 70
     1
  9
$DIMTOH
 70
     1
  9
$DIMSE1
 70
     0
  9
$DIMSE2
 70
     0
  9
$DIMTAD
 70
     0
  9
$DIMZIN
 70
     0
  9
$DIMBLK
  1

  9
$DIMASO
 70
     1
  9
$DIMSHO
 70
     1
  9
$DIMPOST
  1

  9
$DIMAPOST
  1

  9
$DIMALT
 70
     0
  9
$DIMALTD
 70
     2
  9
$DIMALTF
 40
25.4
  9
$DIMLFAC
 40
1.0
  9
$DIMTOFL
 70
     0
  9
$DIMTVP
 40
0.0
  9
$DIMTIX
 70
     0
  9
$DIMSOXD
 70
     0
  9
$DIMSAH
 70
     0
  9
$DIMBLK1
  1

  9
$DIMBLK2
  1

  9
$DIMSTYLE
  2
Standard
  9
$DIMCLRD
 70
     0
  9
$DIMCLRE
 70
     0
  9
$DIMCLRT
 70
     0
  9
$DIMTFAC
 40
1.0
  9
$DIMGAP
 40
0.09
  9
$DIMJUST
 70
     0
  9
$DIMSD1
 70
     0
  9
$DIMSD2
 70
     0
  9
$DIMTOLJ
 70
     1
  9
$DIMTZIN
 70
     0
  9
$DIMALTZ
 70
     0
  9
$DIMALTTZ
 70
     0
  9
$DIMUPT
 70
     0
  9
$DIMDEC
 70
     4
  9
$DIMTDEC
 70
     4
  9
$DIMALTU
 70
     2
  9
$DIMALTTD
 70
     2
  9
$DIMTXSTY
  7
Standard
  9
$DIMAUNIT
 70
     1
  9
$DIMADEC
 70
     0
  9
$DIMALTRND
 40
0.0
  9
$DIMAZIN
 70
     0
  9
$DIMDSEP
 70
    46
  9
$DIMATFIT
 70
     3
  9
$DIMFRAC
 70
     0
  9
$DIMLDRBLK
  1

  9
$DIMLUNIT
 70
     4
  9
$DIMLWD
 70
    -2
  9
$DIMLWE
 70
    -2
  9
$DIMTMOVE
 70
     0
  9
$LUNITS
 70
     2
  9
$LUPREC
 70
     4
  9
$SKETCHINC
 40
0.1
  9
$FILLETRAD
 40
4.999999999999999
  9
$AUNITS
 70
     0
  9
$AUPREC
 70
     0
  9
$MENU
  1
.
  9
$ELEVATION
 40
0.0
  9
$PELEVATION
 40
0.0
  9
$THICKNESS
 40
0.0
  9
$LIMCHECK
 70
     0
  9
$CHAMFERA
 40
4.999999999999999
  9
$CHAMFERB
 40
4.999999999999999
  9
$CHAMFERC
 40
0.0
  9
$CHAMFERD
 40
0.0
  9
$SKPOLY
 70
     0
  9
$TDCREATE
 40
2453531.699242257
  9
$TDUCREATE
 40
2453531.615908924
  9
$TDUPDATE
 40
2453531.699242257
  9
$TDUUPDATE
 40
2453531.615908924
  9
$TDINDWG
 40
0.0000005440
  9
$TDUSRTIMER
 40
0.0000005440
  9
$USRTIMER
 70
     1
  9
$ANGBASE
 50
0.0
  9
$ANGDIR
 70
     0
  9
$PDMODE
 70
     0
  9
$PDSIZE
 40
0.0
  9
$PLINEWID
 40
0.0
  9
$SPLFRAME
 70
     0
  9
$SPLINETYPE
 70
     6
  9
$SPLINESEGS
 70
     8
  9
$HANDSEED
  5
2B3
  9
$SURFTAB1
 70
     6
  9
$SURFTAB2
 70
     6
  9
$SURFTYPE
 70
     6
  9
$SURFU
 70
     6
  9
$SURFV
 70
     6
  9
$UCSBASE
  2

  9
$UCSNAME
  2

  9
$UCSORG
 10
0.0
 20
0.0
 30
0.0
  9
$UCSXDIR
 10
1.0
 20
0.0
 30
0.0
  9
$UCSYDIR
 10
0.0
 20
1.0
 30
0.0
  9
$UCSORTHOREF
  2

  9
$UCSORTHOVIEW
 70
     0
  9
$UCSORGTOP
 10
0.0
 20
0.0
 30
0.0
  9
$UCSORGBOTTOM
 10
0.0
 20
0.0
 30
0.0
  9
$UCSORGLEFT
 10
0.0
 20
0.0
 30
0.0
  9
$UCSORGRIGHT
 10
0.0
 20
0.0
 30
0.0
  9
$UCSORGFRONT
 10
0.0
 20
0.0
 30
0.0
  9
$UCSORGBACK
 10
0.0
 20
0.0
 30
0.0
  9
$PUCSBASE
  2

  9
$PUCSNAME
  2

  9
$PUCSORG
 10
0.0
 20
0.0
 30
0.0
  9
$PUCSXDIR
 10
1.0
 20
0.0
 30
0.0
  9
$PUCSYDIR
 10
0.0
 20
1.0
 30
0.0
  9
$PUCSORTHOREF
  2

  9
$PUCSORTHOVIEW
 70
     0
  9
$PUCSORGTOP
 10
0.0
 20
0.0
 30
0.0
  9
$PUCSORGBOTTOM
 10
0.0
 20
0.0
 30
0.0
  9
$PUCSORGLEFT
 10
0.0
 20
0.0
 30
0.0
  9
$PUCSORGRIGHT
 10
0.0
 20
0.0
 30
0.0
  9
$PUCSORGFRONT
 10
0.0
 20
0.0
 30
0.0
  9
$PUCSORGBACK
 10
0.0
 20
0.0
 30
0.0
  9
$USERI1
 70
     0
  9
$USERI2
 70
     0
  9
$USERI3
 70
     0
  9
$USERI4
 70
     0
  9
$USERI5
 70
     0
  9
$USERR1
 40
0.0
  9
$USERR2
 40
0.0
  9
$USERR3
 40
0.0
  9
$USERR4
 40
0.0
  9
$USERR5
 40
0.0
  9
$WORLDVIEW
 70
     1
  9
$SHADEDGE
 70
     3
  9
$SHADEDIF
 70
    70
  9
$TILEMODE
 70
     1
  9
$MAXACTVP
 70
    64
  9
$PINSBASE
 10
0.0
 20
0.0
 30
0.0
  9
$PLIMCHECK
 70
     0
  9
$PEXTMIN
 10
1.000000000000000E+20
 20
1.000000000000000E+20
 30
1.000000000000000E+20
  9
$PEXTMAX
 10
-1.000000000000000E+20
 20
-1.000000000000000E+20
 30
-1.000000000000000E+20
  9
$PLIMMIN
 10
0.0
 20
0.0
  9
$PLIMMAX
 10
12.0
 20
9.0
  9
$UNITMODE
 70
     0
  9
$VISRETAIN
 70
     1
  9
$PLINEGEN
 70
     0
  9
$PSLTSCALE
 70
     1
  9
$TREEDEPTH
 70
  3020
  9
$CMLSTYLE
  2
Standard
  9
$CMLJUST
 70
     0
  9
$CMLSCALE
 40
1.0
  9
$PROXYGRAPHICS
 70
     1
  9
$MEASUREMENT
 70
     1
  9
$CELWEIGHT
370
    -1
  9
$ENDCAPS
280
     0
  9
$JOINSTYLE
280
     0
  9
$LWDISPLAY
290
     0
  9
$INSUNITS
 70
     0
  9
$HYPERLINKBASE
  1

  9
$STYLESHEET
  1

  9
$XEDIT
290
     1
  9
$CEPSNTYPE
380
     0
  9
$PSTYLEMODE
290
     1
  9
$FINGERPRINTGUID
  2
{FEA84920-8267-4ACF-BA0C-2E0E9BC5B247}
  9
$VERSIONGUID
  2
{571532E9-84A6-48EF-86B3-E022D70FD577}
  9
$EXTNAMES
290
     1
  9
$PSVPSCALE
 40
0.0
  9
$OLESTARTUP
290
     0
  0
ENDSEC
  0
SECTION
  2
CLASSES
  0
CLASS
  1
ACDBDICTIONARYWDFLT
  2
AcDbDictionaryWithDefault
  3
ObjectDBX Classes
 90
        0
280
     0
281
     0
  0
CLASS
  1
DICTIONARYVAR
  2
AcDbDictionaryVar
  3
ObjectDBX Classes
 90
        0
280
     0
281
     0
  0
CLASS
  1
ACDBPLACEHOLDER
  2
AcDbPlaceHolder
  3
ObjectDBX Classes
 90
        0
280
     0
281
     0
  0
CLASS
  1
LAYOUT
  2
AcDbLayout
  3
ObjectDBX Classes
 90
        0
280
     0
281
     0
  0
ENDSEC
  0
SECTION
  2
TABLES
  0
TABLE
  2
VPORT
  5
8
330
0
100
AcDbSymbolTable
 70
     1
  0
VPORT
  5
13
330
8
100
AcDbSymbolTableRecord
100
AcDbViewportTableRecord
  2
*Active
 70
     0
 10
0.0
 20
0.0
 11
1.0
 21
1.0
 12
14745.18247618089
 22
-48181.19738197021
 13
0.0
 23
0.0
 14
1.0
 24
1.0
 15
0.0
 25
0.0
 16
0.0
 26
0.0
 36
1.0
 17
0.0
 27
0.0
 37
0.0
 40
54.15972022253914
 41
1003.113252900577
 42
50.0
 43
0.0
 44
0.0
 50
0.0
 51
0.0
 71
     0
 72
   100
 73
     1
 74
     1
 75
     0
 76
     0
 77
     0
 78
     0
281
     0
 65
     1
110
0.0
120
0.0
130
0.0
111
1.0
121
0.0
131
0.0
112
0.0
122
1.0
132
0.0
 79
     0
146
0.0
  0
ENDTAB
  0
TABLE
  2
LTYPE
  5
5
330
0
100
AcDbSymbolTable
 70
    47
  0
LTYPE
  5
14
330
5
100
AcDbSymbolTableRecord
100
AcDbLinetypeTableRecord
  2
ByBlock
 70
     0
  3

 72
    65
 73
     0
 40
0.0
  0
LTYPE
  5
15
330
5
100
AcDbSymbolTableRecord
100
AcDbLinetypeTableRecord
  2
ByLayer
 70
     0
  3

 72
    65
 73
     0
 40
0.0
  0
LTYPE
  5
16
330
5
100
AcDbSymbolTableRecord
100
AcDbLinetypeTableRecord
  2
Continuous
 70
     0
  3
Solid line
 72
    65
 73
     0
 40
0.0
  0
LTYPE
  5
2A
330
5
100
AcDbSymbolTableRecord
100
AcDbLinetypeTableRecord
  2
HIDDEN
 70
     0
  3
_ _ _ _ _ _ _ _ _ _ _ _ _ _ 
 72
    65
 73
     2
 40
9.524999999999998
 49
6.349999999999999
 74
     0
 49
-3.174999999999999
 74
     0
  0
LTYPE
  5
2B
330
5
100
AcDbSymbolTableRecord
100
AcDbLinetypeTableRecord
  2
DASHED
 70
     0
  3
__ __ __ __ __ __ __ __ __ 
 72
    65
 73
     2
 40
19.05
 49
12.7
 74
     0
 49
-6.349999999999999
 74
     0
  0
LTYPE
  5
2C
330
5
100
AcDbSymbolTableRecord
100
AcDbLinetypeTableRecord
  2
CENTER
 70
     0
  3
____ _ ____ _ ____ _ ____ _ 
 72
    65
 73
     4
 40
50.8
 49
31.75
 74
     0
 49
-6.349999999999999
 74
     0
 49
6.349999999999999
 74
     0
 49
-6.349999999999999
 74
     0
  0
LTYPE
  5
2D
330
5
100
AcDbSymbolTableRecord
100
AcDbLinetypeTableRecord
  2
PHANTOM
 70
     0
  3
_____ _ _ _____ _ _ _____ _ _ 
 72
    65
 73
     6
 40
63.50000000000001
 49
31.75
 74
     0
 49
-6.349999999999999
 74
     0
 49
6.349999999999999
 74
     0
 49
-6.349999999999999
 74
     0
 49
6.349999999999999
 74
     0
 49
-6.349999999999999
 74
     0
  0
LTYPE
  5
2E
330
5
100
AcDbSymbolTableRecord
100
AcDbLinetypeTableRecord
  2
DOT
 70
     0
  3
...........................
 72
    65
 73
     2
 40
6.349999999999999
 49
0.0
 74
     0
 49
-6.349999999999999
 74
     0
  0
LTYPE
  5
2F
330
5
100
AcDbSymbolTableRecord
100
AcDbLinetypeTableRecord
  2
DASHDOT
 70
     0
  3
__ . __ . __ . __ . __ . __ . 
 72
    65
 73
     4
 40
25.4
 49
12.7
 74
     0
 49
-6.349999999999999
 74
     0
 49
0.0
 74
     0
 49
-6.349999999999999
 74
     0
  0
LTYPE
  5
30
330
5
100
AcDbSymbolTableRecord
100
AcDbLinetypeTableRecord
  2
DIVIDE
 70
     0
  3
__ . . __ . . __ . . __ . . 
 72
    65
 73
     6
 40
31.75
 49
12.7
 74
     0
 49
-6.349999999999999
 74
     0
 49
0.0
 74
     0
 49
-6.349999999999999
 74
     0
 49
0.0
 74
     0
 49
-6.349999999999999
 74
     0
  0
LTYPE
  5
31
330
5
100
AcDbSymbolTableRecord
100
AcDbLinetypeTableRecord
  2
BORDER
 70
     0
  3
__ __ . __ __ . __ __ . __ __ .
 72
    65
 73
     6
 40
44.44999999999999
 49
12.7
 74
     0
 49
-6.349999999999999
 74
     0
 49
12.7
 74
     0
 49
-6.349999999999999
 74
     0
 49
0.0
 74
     0
 49
-6.349999999999999
 74
     0
  0
LTYPE
  5
32
330
5
100
AcDbSymbolTableRecord
100
AcDbLinetypeTableRecord
  2
RAND
 70
     0
  3
Rand __ __ . __ __ . __ __ . __
 72
    65
 73
     6
 40
1.75
 49
0.5
 74
     0
 49
-0.25
 74
     0
 49
0.5
 74
     0
 49
-0.25
 74
     0
 49
0.0
 74
     0
 49
-0.25
 74
     0
  0
LTYPE
  5
33
330
5
100
AcDbSymbolTableRecord
100
AcDbLinetypeTableRecord
  2
RAND2
 70
     0
  3
Rand (.5x) __.__.__.__.__.__.__
 72
    65
 73
     6
 40
0.875
 49
0.25
 74
     0
 49
-0.125
 74
     0
 49
0.25
 74
     0
 49
-0.125
 74
     0
 49
0.0
 74
     0
 49
-0.125
 74
     0
  0
LTYPE
  5
34
330
5
100
AcDbSymbolTableRecord
100
AcDbLinetypeTableRecord
  2
RANDX2
 70
     0
  3
Rand (2x) ____  ____  .  ____  
 72
    65
 73
     6
 40
3.5
 49
1.0
 74
     0
 49
-0.5
 74
     0
 49
1.0
 74
     0
 49
-0.5
 74
     0
 49
0.0
 74
     0
 49
-0.5
 74
     0
  0
LTYPE
  5
35
330
5
100
AcDbSymbolTableRecord
100
AcDbLinetypeTableRecord
  2
MITTE
 70
     0
  3
Mitte ____ _ ____ _ ____ _ ____
 72
    65
 73
     4
 40
2.0
 49
1.25
 74
     0
 49
-0.25
 74
     0
 49
0.25
 74
     0
 49
-0.25
 74
     0
  0
LTYPE
  5
36
330
5
100
AcDbSymbolTableRecord
100
AcDbLinetypeTableRecord
  2
MITTE2
 70
     0
  3
Mitte (.5x) ___ _ ___ _ ___ _ _
 72
    65
 73
     4
 40
1.125
 49
0.7500000000000001
 74
     0
 49
-0.125
 74
     0
 49
0.125
 74
     0
 49
-0.125
 74
     0
  0
LTYPE
  5
37
330
5
100
AcDbSymbolTableRecord
100
AcDbLinetypeTableRecord
  2
MITTEX2
 70
     0
  3
Mitte (2x) ________  __  ______
 72
    65
 73
     4
 40
4.0
 49
2.5
 74
     0
 49
-0.5
 74
     0
 49
0.5
 74
     0
 49
-0.5
 74
     0
  0
LTYPE
  5
38
330
5
100
AcDbSymbolTableRecord
100
AcDbLinetypeTableRecord
  2
STRICHPUNKT
 70
     0
  3
Strichpunkt __ . __ . __ . __ .
 72
    65
 73
     4
 40
1.0
 49
0.5
 74
     0
 49
-0.25
 74
     0
 49
0.0
 74
     0
 49
-0.25
 74
     0
  0
LTYPE
  5
39
330
5
100
AcDbSymbolTableRecord
100
AcDbLinetypeTableRecord
  2
STRICHPUNKT2
 70
     0
  3
Strichpunkt (.5x) _._._._._._._
 72
    65
 73
     4
 40
0.5
 49
0.25
 74
     0
 49
-0.125
 74
     0
 49
0.0
 74
     0
 49
-0.125
 74
     0
  0
LTYPE
  5
3A
330
5
100
AcDbSymbolTableRecord
100
AcDbLinetypeTableRecord
  2
STRICHPUNKTX2
 70
     0
  3
Strichpunkt (2x) ____  .  ____ 
 72
    65
 73
     4
 40
2.0
 49
1.0
 74
     0
 49
-0.5
 74
     0
 49
0.0
 74
     0
 49
-0.5
 74
     0
  0
LTYPE
  5
3B
330
5
100
AcDbSymbolTableRecord
100
AcDbLinetypeTableRecord
  2
STRICHLINIE
 70
     0
  3
Strichlinie __ __ __ __ __ __ _
 72
    65
 73
     2
 40
0.75
 49
0.5
 74
     0
 49
-0.25
 74
     0
  0
LTYPE
  5
3C
330
5
100
AcDbSymbolTableRecord
100
AcDbLinetypeTableRecord
  2
STRICHLINIE2
 70
     0
  3
Strichlinie (.5x) _ _ _ _ _ _ _
 72
    65
 73
     2
 40
0.375
 49
0.25
 74
     0
 49
-0.125
 74
     0
  0
LTYPE
  5
3D
330
5
100
AcDbSymbolTableRecord
100
AcDbLinetypeTableRecord
  2
STRICHLINIEX2
 70
     0
  3
Strichlinie (2x) ____  ____  __
 72
    65
 73
     2
 40
1.5
 49
1.0
 74
     0
 49
-0.5
 74
     0
  0
LTYPE
  5
3E
330
5
100
AcDbSymbolTableRecord
100
AcDbLinetypeTableRecord
  2
GETRENNT
 70
     0
  3
Getrennt ____ . . ____ . . ____
 72
    65
 73
     6
 40
1.25
 49
0.5
 74
     0
 49
-0.25
 74
     0
 49
0.0
 74
     0
 49
-0.25
 74
     0
 49
0.0
 74
     0
 49
-0.25
 74
     0
  0
LTYPE
  5
3F
330
5
100
AcDbSymbolTableRecord
100
AcDbLinetypeTableRecord
  2
GETRENNT2
 70
     0
  3
Getrennt (.5x) __..__..__..__..
 72
    65
 73
     6
 40
0.625
 49
0.25
 74
     0
 49
-0.125
 74
     0
 49
0.0
 74
     0
 49
-0.125
 74
     0
 49
0.0
 74
     0
 49
-0.125
 74
     0
  0
LTYPE
  5
40
330
5
100
AcDbSymbolTableRecord
100
AcDbLinetypeTableRecord
  2
GETRENNTX2
 70
     0
  3
Getrennt (2x) ________  .  .  _
 72
    65
 73
     6
 40
2.5
 49
1.0
 74
     0
 49
-0.5
 74
     0
 49
0.0
 74
     0
 49
-0.5
 74
     0
 49
0.0
 74
     0
 49
-0.5
 74
     0
  0
LTYPE
  5
41
330
5
100
AcDbSymbolTableRecord
100
AcDbLinetypeTableRecord
  2
PUNKT
 70
     0
  3
Punkt . . . . . . . . . . . . .
 72
    65
 73
     2
 40
0.25
 49
0.0
 74
     0
 49
-0.25
 74
     0
  0
LTYPE
  5
42
330
5
100
AcDbSymbolTableRecord
100
AcDbLinetypeTableRecord
  2
PUNKT2
 70
     0
  3
Punkt (.5x) ...................
 72
    65
 73
     2
 40
0.125
 49
0.0
 74
     0
 49
-0.125
 74
     0
  0
LTYPE
  5
43
330
5
100
AcDbSymbolTableRecord
100
AcDbLinetypeTableRecord
  2
PUNKTX2
 70
     0
  3
Punkt (2x) .  .  .  .  .  .  . 
 72
    65
 73
     2
 40
0.5
 49
0.0
 74
     0
 49
-0.5
 74
     0
  0
LTYPE
  5
44
330
5
100
AcDbSymbolTableRecord
100
AcDbLinetypeTableRecord
  2
VERDECKT
 70
     0
  3
Verdeckt __ __ __ __ __ __ __ _
 72
    65
 73
     2
 40
0.375
 49
0.25
 74
     0
 49
-0.125
 74
     0
  0
LTYPE
  5
45
330
5
100
AcDbSymbolTableRecord
100
AcDbLinetypeTableRecord
  2
VERDECKT2
 70
     0
  3
Verdeckt (.5x) _ _ _ _ _ _ _ _ 
 72
    65
 73
     2
 40
0.1875
 49
0.125
 74
     0
 49
-0.0625
 74
     0
  0
LTYPE
  5
46
330
5
100
AcDbSymbolTableRecord
100
AcDbLinetypeTableRecord
  2
VERDECKTX2
 70
     0
  3
Verdeckt (2x) ____ ____ ____ __
 72
    65
 73
     2
 40
0.75
 49
0.5
 74
     0
 49
-0.25
 74
     0
  0
LTYPE
  5
47
330
5
100
AcDbSymbolTableRecord
100
AcDbLinetypeTableRecord
  2
PHANTOM2
 70
     0
  3
Phantom (.5x) ___ _ _ ___ _ _ _
 72
    65
 73
     6
 40
1.25
 49
0.6250000000000001
 74
     0
 49
-0.125
 74
     0
 49
0.125
 74
     0
 49
-0.125
 74
     0
 49
0.125
 74
     0
 49
-0.125
 74
     0
  0
LTYPE
  5
48
330
5
100
AcDbSymbolTableRecord
100
AcDbLinetypeTableRecord
  2
PHANTOMX2
 70
     0
  3
Phantom (2x) ____________    __
 72
    65
 73
     6
 40
5.0
 49
2.5
 74
     0
 49
-0.5
 74
     0
 49
0.5
 74
     0
 49
-0.5
 74
     0
 49
0.5
 74
     0
 49
-0.5
 74
     0
  0
LTYPE
  5
49
330
5
100
AcDbSymbolTableRecord
100
AcDbLinetypeTableRecord
  2
PUNKTE
 70
     0
  3
Punkte - - - - - - - - - - - - 
 72
    65
 73
     2
 40
0.1
 49
0.05
 74
     0
 49
-0.05
 74
     0
  0
LTYPE
  5
4A
330
5
100
AcDbSymbolTableRecord
100
AcDbLinetypeTableRecord
  2
ACAD_ISO02W100
 70
     0
  3
__ __ __ __ __ __ __ __ __ __ _
 72
    65
 73
     2
 40
15.0
 49
12.0
 74
     0
 49
-3.0
 74
     0
  0
LTYPE
  5
4B
330
5
100
AcDbSymbolTableRecord
100
AcDbLinetypeTableRecord
  2
ACAD_ISO03W100
 70
     0
  3
__    __    __    __    __    _
 72
    65
 73
     2
 40
30.0
 49
12.0
 74
     0
 49
-18.0
 74
     0
  0
LTYPE
  5
4C
330
5
100
AcDbSymbolTableRecord
100
AcDbLinetypeTableRecord
  2
ACAD_ISO04W100
 70
     0
  3
____ . ____ . ____ . ____ . ___
 72
    65
 73
     4
 40
30.5
 49
24.0
 74
     0
 49
-3.0
 74
     0
 49
0.5
 74
     0
 49
-3.0
 74
     0
  0
LTYPE
  5
4D
330
5
100
AcDbSymbolTableRecord
100
AcDbLinetypeTableRecord
  2
ACAD_ISO05W100
 70
     0
  3
____ .. ____ .. ____ .. ____ ..
 72
    65
 73
     6
 40
34.0
 49
24.0
 74
     0
 49
-3.0
 74
     0
 49
0.5
 74
     0
 49
-3.0
 74
     0
 49
0.5
 74
     0
 49
-3.0
 74
     0
  0
LTYPE
  5
4E
330
5
100
AcDbSymbolTableRecord
100
AcDbLinetypeTableRecord
  2
ACAD_ISO06W100
 70
     0
  3
____ ... ____ ... ____ ... ____
 72
    65
 73
     6
 40
34.0
 49
24.0
 74
     0
 49
-3.0
 74
     0
 49
0.5
 74
     0
 49
-3.0
 74
     0
 49
0.5
 74
     0
 49
-3.0
 74
     0
  0
LTYPE
  5
4F
330
5
100
AcDbSymbolTableRecord
100
AcDbLinetypeTableRecord
  2
ACAD_ISO07W100
 70
     0
  3
. . . . . . . . . . . . . . . .
 72
    65
 73
     2
 40
3.5
 49
0.5
 74
     0
 49
-3.0
 74
     0
  0
LTYPE
  5
50
330
5
100
AcDbSymbolTableRecord
100
AcDbLinetypeTableRecord
  2
ACAD_ISO08W100
 70
     0
  3
____ __ ____ __ ____ __ ____ __
 72
    65
 73
     4
 40
36.0
 49
24.0
 74
     0
 49
-3.0
 74
     0
 49
6.0
 74
     0
 49
-3.0
 74
     0
  0
LTYPE
  5
51
330
5
100
AcDbSymbolTableRecord
100
AcDbLinetypeTableRecord
  2
ACAD_ISO09W100
 70
     0
  3
____ __ __ ____ __ __ ____ __ _
 72
    65
 73
     6
 40
45.0
 49
24.0
 74
     0
 49
-3.0
 74
     0
 49
6.0
 74
     0
 49
-3.0
 74
     0
 49
6.0
 74
     0
 49
-3.0
 74
     0
  0
LTYPE
  5
52
330
5
100
AcDbSymbolTableRecord
100
AcDbLinetypeTableRecord
  2
ACAD_ISO10W100
 70
     0
  3
__ . __ . __ . __ . __ . __ . _
 72
    65
 73
     4
 40
18.5
 49
12.0
 74
     0
 49
-3.0
 74
     0
 49
0.5
 74
     0
 49
-3.0
 74
     0
  0
LTYPE
  5
53
330
5
100
AcDbSymbolTableRecord
100
AcDbLinetypeTableRecord
  2
ACAD_ISO11W100
 70
     0
  3
__ __ . __ __ . __ __ . __ __ .
 72
    65
 73
     6
 40
33.5
 49
12.0
 74
     0
 49
-3.0
 74
     0
 49
12.0
 74
     0
 49
-3.0
 74
     0
 49
0.5
 74
     0
 49
-3.0
 74
     0
  0
LTYPE
  5
54
330
5
100
AcDbSymbolTableRecord
100
AcDbLinetypeTableRecord
  2
ACAD_ISO12W100
 70
     0
  3
__ . . __ . . __ . . __ . . __ 
 72
    65
 73
     6
 40
22.0
 49
12.0
 74
     0
 49
-3.0
 74
     0
 49
0.5
 74
     0
 49
-3.0
 74
     0
 49
0.5
 74
     0
 49
-3.0
 74
     0
  0
LTYPE
  5
55
330
5
100
AcDbSymbolTableRecord
100
AcDbLinetypeTableRecord
  2
ACAD_ISO13W100
 70
     0
  3
__ __ . . __ __ . . __ __ . . _
 72
    65
 73
     6
 40
33.5
 49
12.0
 74
     0
 49
-3.0
 74
     0
 49
12.0
 74
     0
 49
-3.0
 74
     0
 49
0.5
 74
     0
 49
-3.0
 74
     0
  0
LTYPE
  5
56
330
5
100
AcDbSymbolTableRecord
100
AcDbLinetypeTableRecord
  2
ACAD_ISO14W100
 70
     0
  3
__ . . . __ . . . __ . . . __ .
 72
    65
 73
     6
 40
22.0
 49
12.0
 74
     0
 49
-3.0
 74
     0
 49
0.5
 74
     0
 49
-3.0
 74
     0
 49
0.5
 74
     0
 49
-3.0
 74
     0
  0
LTYPE
  5
57
330
5
100
AcDbSymbolTableRecord
100
AcDbLinetypeTableRecord
  2
ACAD_ISO15W100
 70
     0
  3
__ __ . . . __ __ . . . __ __ .
 72
    65
 73
     6
 40
33.5
 49
12.0
 74
     0
 49
-3.0
 74
     0
 49
12.0
 74
     0
 49
-3.0
 74
     0
 49
0.5
 74
     0
 49
-3.0
 74
     0
  0
ENDTAB
  0
TABLE
  2
LAYER
  5
2
330
0
100
AcDbSymbolTable
 70
     3
  0
LAYER
  5
10
330
2
100
AcDbSymbolTableRecord
100
AcDbLayerTableRecord
  2
0
 70
     0
 62
     7
  6
Continuous
370
    -3
390
F
  0
LAYER
  5
58
330
2
100
AcDbSymbolTableRecord
100
AcDbLayerTableRecord
  2
HALLE_0_1_EG
 70
     0
 62
     7
  6
Continuous
370
    -3
390
F
  0
LAYER
  5
59
330
2
100
AcDbSymbolTableRecord
100
AcDbLayerTableRecord
  2
HALLE_0_1_UG
 70
     0
 62
     7
  6
Continuous
370
    -3
390
F
  0
ENDTAB
  0
TABLE
  2
STYLE
  5
3
330
0
100
AcDbSymbolTable
 70
     6
  0
STYLE
  5
11
330
3
100
AcDbSymbolTableRecord
100
AcDbTextStyleTableRecord
  2
Standard
 70
     0
 40
0.0
 41
1.0
 50
0.0
 71
     0
 42
0.2
  3
txt
  4

  0
STYLE
  5
5A
330
3
100
AcDbSymbolTableRecord
100
AcDbTextStyleTableRecord
  2
ITALIC
 70
     0
 40
0.0
 41
1.0
 50
0.0
 71
     0
 42
0.2
  3
ITALIC
  4

  0
STYLE
  5
5B
330
3
100
AcDbSymbolTableRecord
100
AcDbTextStyleTableRecord
  2
SIMPLEX
 70
     0
 40
0.0
 41
1.0
 50
0.0
 71
     0
 42
0.2
  3
SIMPLEX
  4

  0
STYLE
  5
5C
330
3
100
AcDbSymbolTableRecord
100
AcDbTextStyleTableRecord
  2
COMPLEX
 70
     0
 40
0.0
 41
1.0
 50
0.0
 71
     0
 42
0.2
  3
COMPLEX
  4

  0
STYLE
  5
EF
330
3
100
AcDbSymbolTableRecord
100
AcDbTextStyleTableRecord
  2
ARIALB
 70
     0
 40
0.0
 41
1.0
 50
0.0
 71
     0
 42
0.2
  3
ARIALBD.TTF
  4

1001
ACAD
1000
Arial
1071
 33554432
  0
STYLE
  5
294
330
3
100
AcDbSymbolTableRecord
100
AcDbTextStyleTableRecord
  2
ARIAL
 70
     0
 40
0.0
 41
1.0
 50
0.0
 71
     0
 42
0.2
  3
ARIAL.TTF
  4

1001
ACAD
1000
Arial
1071
        0
  0
ENDTAB
  0
TABLE
  2
VIEW
  5
6
330
0
100
AcDbSymbolTable
 70
     0
  0
ENDTAB
  0
TABLE
  2
UCS
  5
7
330
0
100
AcDbSymbolTable
 70
     0
  0
ENDTAB
  0
TABLE
  2
APPID
  5
9
330
0
100
AcDbSymbolTable
 70
     1
  0
APPID
  5
12
330
9
100
AcDbSymbolTableRecord
100
AcDbRegAppTableRecord
  2
ACAD
 70
     0
  0
ENDTAB
  0
TABLE
  2
DIMSTYLE
  5
A
330
0
100
AcDbSymbolTable
 70
     1
100
AcDbDimStyleTable
 71
     0
  0
DIMSTYLE
105
29
330
A
100
AcDbSymbolTableRecord
100
AcDbDimStyleTableRecord
  2
Standard
 70
     0
340
11
  0
ENDTAB
  0
TABLE
  2
BLOCK_RECORD
  5
1
330
0
100
AcDbSymbolTable
 70
     1
  0
BLOCK_RECORD
  5
21
330
1
100
AcDbSymbolTableRecord
100
AcDbBlockTableRecord
  2
*Model_Space
340
24
  0
BLOCK_RECORD
  5
1D
330
1
100
AcDbSymbolTableRecord
100
AcDbBlockTableRecord
  2
*Paper_Space
340
20
  0
BLOCK_RECORD
  5
25
330
1
100
AcDbSymbolTableRecord
100
AcDbBlockTableRecord
  2
*Paper_Space0
340
28
  0
ENDTAB
  0
ENDSEC
  0
SECTION
  2
BLOCKS
  0
BLOCK
  5
22
330
21
100
AcDbEntity
  8
0
100
AcDbBlockBegin
  2
*Model_Space
 70
     0
 10
0.0
 20
0.0
 30
0.0
  3
*Model_Space
  1

  0
ENDBLK
  5
23
330
21
100
AcDbEntity
  8
0
100
AcDbBlockEnd
  0
BLOCK
  5
1E
330
1D
100
AcDbEntity
 67
     1
  8
0
100
AcDbBlockBegin
  2
*Paper_Space
 70
     0
 10
0.0
 20
0.0
 30
0.0
  3
*Paper_Space
  1

  0
ENDBLK
  5
1F
330
1D
100
AcDbEntity
 67
     1
  8
0
100
AcDbBlockEnd
  0
BLOCK
  5
26
330
25
100
AcDbEntity
  8
0
100
AcDbBlockBegin
  2
*Paper_Space0
 70
     0
 10
0.0
 20
0.0
 30
0.0
  3
*Paper_Space0
  1

  0
ENDBLK
  5
27
330
25
100
AcDbEntity
  8
0
100
AcDbBlockEnd
  0
ENDSEC
  0
SECTION
  2
ENTITIES
  0
LINE
  5
5E
102
{ACAD_REACTORS
330
5D
102
}
330
21
100
AcDbEntity
  8
HALLE_0_1_UG
  6
Continuous
100
AcDbLine
 10
42061.0159118727
 20
-6447.376766711497
 30
0.0
 11
37661.0150848491
 21
-6447.376766711497
 31
0.0
  0
LINE
  5
5F
102
{ACAD_REACTORS
330
5D
102
}
330
21
100
AcDbEntity
  8
HALLE_0_1_UG
  6
Continuous
100
AcDbLine
 10
43061.0159118727
 20
-6444.614443084454
 30
0.0
 11
43061.0159118727
 21
-6694.614443084454
 31
0.0
  0
LINE
  5
60
102
{ACAD_REACTORS
330
5D
102
}
330
21
100
AcDbEntity
  8
HALLE_0_1_UG
  6
Continuous
100
AcDbLine
 10
43911.0159118727
 20
-6694.614443084454
 30
0.0
 11
43061.0159118727
 21
-6694.614443084454
 31
0.0
  0
LINE
  5
61
102
{ACAD_REACTORS
330
5D
102
}
330
21
100
AcDbEntity
  8
HALLE_0_1_UG
  6
Continuous
100
AcDbLine
 10
48665.91834474998
 20
-6434.55487263584
 30
0.0
 11
43061.00711591921
 21
-6434.55487263584
 31
0.0
  0
LINE
  5
62
102
{ACAD_REACTORS
330
5D
102
}
330
21
100
AcDbEntity
  8
HALLE_0_1_UG
  6
Continuous
100
AcDbLine
 10
46361.0159118727
 20
-6694.614443084454
 30
0.0
 11
44061.01591187269
 21
-6694.614443084454
 31
0.0
  0
LINE
  5
63
102
{ACAD_REACTORS
330
5D
102
}
330
21
100
AcDbEntity
  8
HALLE_0_1_UG
  6
Continuous
100
AcDbLine
 10
48411.01591187269
 20
-6694.614443084454
 30
0.0
 11
46511.0159118727
 21
-6694.614443084454
 31
0.0
  0
LINE
  5
64
102
{ACAD_REACTORS
330
5D
102
}
330
21
100
AcDbEntity
  8
HALLE_0_1_UG
  6
Continuous
100
AcDbLine
 10
14375.0159118727
 20
-6444.614443084454
 30
0.0
 11
14375.0159118727
 21
-6694.614443084454
 31
0.0
  0
LINE
  5
65
102
{ACAD_REACTORS
330
5D
102
}
330
21
100
AcDbEntity
  8
HALLE_0_1_UG
  6
Continuous
100
AcDbLine
 10
24751.0159118727
 20
-6694.614443084454
 30
0.0
 11
14375.0159118727
 21
-6694.614443084454
 31
0.0
  0
LINE
  5
66
102
{ACAD_REACTORS
330
5D
102
}
330
21
100
AcDbEntity
  8
HALLE_0_1_UG
  6
Continuous
100
AcDbLine
 10
24751.0159118727
 20
-6444.614443084454
 30
0.0
 11
14375.0159118727
 21
-6444.614443084454
 31
0.0
  0
LINE
  5
67
102
{ACAD_REACTORS
330
5D
102
}
330
21
100
AcDbEntity
  8
HALLE_0_1_UG
  6
Continuous
100
AcDbLine
 10
25751.0159118727
 20
-6444.614443084454
 30
0.0
 11
25751.0159118727
 21
-6694.614443084454
 31
0.0
  0
LINE
  5
68
102
{ACAD_REACTORS
330
5D
102
}
330
21
100
AcDbEntity
  8
HALLE_0_1_UG
  6
Continuous
100
AcDbLine
 10
24751.0159118727
 20
-6444.614443084454
 30
0.0
 11
24751.0159118727
 21
-6694.614443084454
 31
0.0
  0
LINE
  5
69
102
{ACAD_REACTORS
330
5D
102
}
330
21
100
AcDbEntity
  8
HALLE_0_1_UG
  6
Continuous
100
AcDbLine
 10
36661.0159118727
 20
-6694.614443084454
 30
0.0
 11
25751.0159118727
 21
-6694.614443084454
 31
0.0
  0
LINE
  5
6A
102
{ACAD_REACTORS
330
5D
102
}
330
21
100
AcDbEntity
  8
HALLE_0_1_UG
  6
Continuous
100
AcDbLine
 10
28527.01591187269
 20
-6444.614443084454
 30
0.0
 11
25751.0159118727
 21
-6444.614443084454
 31
0.0
  0
LINE
  5
6B
102
{ACAD_REACTORS
330
5D
102
}
330
21
100
AcDbEntity
  8
HALLE_0_1_UG
  6
Continuous
100
AcDbLine
 10
35138.0159118727
 20
-6444.614443084454
 30
0.0
 11
28677.0159118727
 21
-6444.614443084454
 31
0.0
  0
LINE
  5
6C
102
{ACAD_REACTORS
330
5D
102
}
330
21
100
AcDbEntity
  8
HALLE_0_1_UG
  6
Continuous
100
AcDbLine
 10
36661.0159118727
 20
-6444.614443084454
 30
0.0
 11
35288.0159118727
 21
-6444.614443084454
 31
0.0
  0
LINE
  5
6D
102
{ACAD_REACTORS
330
5D
102
}
330
21
100
AcDbEntity
  8
HALLE_0_1_UG
  6
Continuous
100
AcDbLine
 10
37661.0159118727
 20
-6444.614443084454
 30
0.0
 11
37661.0159118727
 21
-6694.614443084454
 31
0.0
  0
LINE
  5
6E
102
{ACAD_REACTORS
330
5D
102
}
330
21
100
AcDbEntity
  8
HALLE_0_1_UG
  6
Continuous
100
AcDbLine
 10
36661.0159118727
 20
-6444.614443084454
 30
0.0
 11
36661.0159118727
 21
-6694.614443084454
 31
0.0
  0
LINE
  5
6F
102
{ACAD_REACTORS
330
5D
102
}
330
21
100
AcDbEntity
  8
HALLE_0_1_UG
  6
Continuous
100
AcDbLine
 10
41811.015911878
 20
-6694.614443084454
 30
0.0
 11
37661.0159118727
 21
-6694.614443084454
 31
0.0
  0
LINE
  5
70
102
{ACAD_REACTORS
330
5D
102
}
330
21
100
AcDbEntity
  8
HALLE_0_1_UG
  6
Continuous
100
AcDbLine
 10
42061.0159118727
 20
-6694.614443084454
 30
0.0
 11
41961.015911878
 21
-6694.614443084454
 31
0.0
  0
LINE
  5
71
102
{ACAD_REACTORS
330
5D
102
}
330
21
100
AcDbEntity
  8
HALLE_0_1_UG
  6
Continuous
100
AcDbLine
 10
42061.0159118727
 20
-6447.376766711497
 30
0.0
 11
42061.0159118727
 21
-6694.614443084454
 31
0.0
  0
LINE
  5
72
102
{ACAD_REACTORS
330
5D
102
}
330
21
100
AcDbEntity
  8
HALLE_0_1_UG
  6
Continuous
100
AcDbLine
 10
-6588.984088127299
 20
-6444.614443084454
 30
0.0
 11
-6588.984088127299
 21
-6694.614443084454
 31
0.0
  0
LINE
  5
73
102
{ACAD_REACTORS
330
5D
102
}
330
21
100
AcDbEntity
  8
HALLE_0_1_UG
  6
Continuous
100
AcDbLine
 10
-6088.984088127299
 20
-6694.614443084454
 30
0.0
 11
-6588.984088127299
 21
-6694.614443084454
 31
0.0
  0
LINE
  5
74
102
{ACAD_REACTORS
330
5D
102
}
330
21
100
AcDbEntity
  8
HALLE_0_1_UG
  6
Continuous
100
AcDbLine
 10
-1688.984088127298
 20
-6444.614443084454
 30
0.0
 11
-6588.984088127299
 21
-6444.614443084454
 31
0.0
  0
LINE
  5
75
102
{ACAD_REACTORS
330
5D
102
}
330
21
100
AcDbEntity
  8
HALLE_0_1_UG
  6
Continuous
100
AcDbLine
 10
-1688.984088127298
 20
-6694.614443084454
 30
0.0
 11
-5938.984088127299
 21
-6694.614443084454
 31
0.0
  0
LINE
  5
76
102
{ACAD_REACTORS
330
5D
102
}
330
21
100
AcDbEntity
  8
HALLE_0_1_UG
  6
Continuous
100
AcDbLine
 10
-688.9840881272989
 20
-6444.614443084454
 30
0.0
 11
-688.9840881272989
 21
-6694.614443084454
 31
0.0
  0
LINE
  5
77
102
{ACAD_REACTORS
330
5D
102
}
330
21
100
AcDbEntity
  8
HALLE_0_1_UG
  6
Continuous
100
AcDbLine
 10
-1688.984088127298
 20
-6444.614443084454
 30
0.0
 11
-1688.984088127298
 21
-6694.614443084454
 31
0.0
  0
LINE
  5
78
102
{ACAD_REACTORS
330
5D
102
}
330
21
100
AcDbEntity
  8
HALLE_0_1_UG
  6
Continuous
100
AcDbLine
 10
-438.9840881272994
 20
-6694.614443084454
 30
0.0
 11
-688.9840881272989
 21
-6694.614443084454
 31
0.0
  0
LINE
  5
79
102
{ACAD_REACTORS
330
5D
102
}
330
21
100
AcDbEntity
  8
HALLE_0_1_UG
  6
Continuous
100
AcDbLine
 10
10335.0159118727
 20
-6444.614443084454
 30
0.0
 11
-688.9840881272989
 21
-6444.614443084454
 31
0.0
  0
LINE
  5
7A
102
{ACAD_REACTORS
330
5D
102
}
330
21
100
AcDbEntity
  8
HALLE_0_1_UG
  6
Continuous
100
AcDbLine
 10
10335.0159118727
 20
-6694.614443084454
 30
0.0
 11
-288.9840881273004
 21
-6694.614443084454
 31
0.0
  0
LINE
  5
7B
102
{ACAD_REACTORS
330
5D
102
}
330
21
100
AcDbEntity
  8
HALLE_0_1_UG
  6
Continuous
100
AcDbLine
 10
10335.0159118727
 20
-6444.614443084454
 30
0.0
 11
10335.0159118727
 21
-6694.614443084454
 31
0.0
  0
LINE
  5
7C
102
{ACAD_REACTORS
330
5D
102
}
330
21
100
AcDbEntity
  8
HALLE_0_1_UG
  6
Continuous
100
AcDbLine
 10
-10588.9840881273
 20
-6444.614443084454
 30
0.0
 11
-11340.16893444096
 21
-6444.614443084454
 31
0.0
  0
LINE
  5
7D
102
{ACAD_REACTORS
330
5D
102
}
330
21
100
AcDbEntity
  8
HALLE_0_1_UG
  6
Continuous
100
AcDbLine
 10
-10588.9840881273
 20
-6694.614443084454
 30
0.0
 11
-11088.9840881273
 21
-6694.614443084454
 31
0.0
  0
LINE
  5
7E
102
{ACAD_REACTORS
330
5D
102
}
330
21
100
AcDbEntity
  8
HALLE_0_1_UG
  6
Continuous
100
AcDbLine
 10
-10588.9840881273
 20
-6444.614443084454
 30
0.0
 11
-10588.9840881273
 21
-6694.614443084454
 31
0.0
  0
LINE
  5
7F
102
{ACAD_REACTORS
330
5D
102
}
330
21
100
AcDbEntity
  8
HALLE_0_1_UG
  6
Continuous
100
AcDbLine
 10
28677.0159118727
 20
-6444.614443084454
 30
0.0
 11
36661.0159118727
 21
-6444.614443084454
 31
0.0
  0
ARC
  5
80
102
{ACAD_REACTORS
330
5D
102
}
330
21
100
AcDbEntity
  8
HALLE_0_1_UG
  6
Continuous
100
AcDbCircle
 10
42061.0159118727
 20
-6694.614443084454
 30
0.0
 40
1000.0
100
AcDbArc
 50
270.0
 51
0.0
  0
LINE
  5
81
102
{ACAD_REACTORS
330
5D
102
}
330
21
100
AcDbEntity
  8
HALLE_0_1_UG
  6
Continuous
100
AcDbLine
 10
42061.0159118727
 20
-6694.614443084454
 30
0.0
 11
42061.0159118727
 21
-7694.614443084451
 31
0.0
  0
LINE
  5
82
102
{ACAD_REACTORS
330
5D
102
}
330
21
100
AcDbEntity
  8
HALLE_0_1_UG
  6
Continuous
100
AcDbLine
 10
48665.91834474998
 20
-6434.55487263584
 30
0.0
 11
48665.91834474998
 21
-32644.61489277024
 31
0.0
  0
LINE
  5
83
102
{ACAD_REACTORS
330
5D
102
}
330
21
100
AcDbEntity
  8
HALLE_0_1_UG
  6
Continuous
100
AcDbLine
 10
48411.01591187269
 20
-12494.72785995573
 30
0.0
 11
48411.01591187269
 21
-32394.61444308445
 31
0.0
  0
LINE
  5
84
102
{ACAD_REACTORS
330
5D
102
}
330
21
100
AcDbEntity
  8
HALLE_0_1_UG
  6
Continuous
100
AcDbLine
 10
48411.01591187269
 20
-6694.614443084454
 30
0.0
 11
48411.01591187269
 21
-12344.72785995572
 31
0.0
  0
LINE
  5
85
102
{ACAD_REACTORS
330
5D
102
}
330
21
100
AcDbEntity
  8
HALLE_0_1_UG
  6
Continuous
100
AcDbLine
 10
5211.015911872699
 20
-32644.61444308445
 30
0.0
 11
-438.9840881272994
 21
-32644.61444308445
 31
0.0
  0
LINE
  5
86
102
{ACAD_REACTORS
330
5D
102
}
330
21
100
AcDbEntity
  8
HALLE_0_1_UG
  6
Continuous
100
AcDbLine
 10
5211.015911872699
 20
-32394.61444308445
 30
0.0
 11
-288.9840881273004
 21
-32394.61444308445
 31
0.0
  0
LINE
  5
87
102
{ACAD_REACTORS
330
5D
102
}
330
21
100
AcDbEntity
  8
HALLE_0_1_UG
  6
Continuous
100
AcDbLine
 10
10211.0159118727
 20
-32644.61444308445
 30
0.0
 11
8411.015911872699
 21
-32644.61444308445
 31
0.0
  0
LINE
  5
88
102
{ACAD_REACTORS
330
5D
102
}
330
21
100
AcDbEntity
  8
HALLE_0_1_UG
  6
Continuous
100
AcDbLine
 10
10211.0159118727
 20
-32394.61444308445
 30
0.0
 11
8411.015911872699
 21
-32394.61444308445
 31
0.0
  0
LINE
  5
89
102
{ACAD_REACTORS
330
5D
102
}
330
21
100
AcDbEntity
  8
HALLE_0_1_UG
  6
Continuous
100
AcDbLine
 10
16811.0159118727
 20
-32644.61444308445
 30
0.0
 11
13411.0159118727
 21
-32644.61444308445
 31
0.0
  0
LINE
  5
8A
102
{ACAD_REACTORS
330
5D
102
}
330
21
100
AcDbEntity
  8
HALLE_0_1_UG
  6
Continuous
100
AcDbLine
 10
16811.0159118727
 20
-32394.61444308445
 30
0.0
 11
13411.0159118727
 21
-32394.61444308445
 31
0.0
  0
LINE
  5
8B
102
{ACAD_REACTORS
330
5D
102
}
330
21
100
AcDbEntity
  8
HALLE_0_1_UG
  6
Continuous
100
AcDbLine
 10
48661.01591187269
 20
-32644.61444308445
 30
0.0
 11
20011.0159118727
 21
-32644.61444308445
 31
0.0
  0
LINE
  5
8C
102
{ACAD_REACTORS
330
5D
102
}
330
21
100
AcDbEntity
  8
HALLE_0_1_UG
  6
Continuous
100
AcDbLine
 10
48411.01591187269
 20
-32394.61444308445
 30
0.0
 11
20011.0159118727
 21
-32394.61444308445
 31
0.0
  0
LINE
  5
8D
102
{ACAD_REACTORS
330
5D
102
}
330
21
100
AcDbEntity
  8
HALLE_0_1_UG
  6
Continuous
100
AcDbLine
 10
-11338.9840881273
 20
-13894.61444308445
 30
0.0
 11
-11088.9840881273
 21
-13894.61444308445
 31
0.0
  0
LINE
  5
8E
102
{ACAD_REACTORS
330
5D
102
}
330
21
100
AcDbEntity
  8
HALLE_0_1_UG
  6
Continuous
100
AcDbLine
 10
-11088.9840881273
 20
-6694.614443084454
 30
0.0
 11
-11088.9840881273
 21
-13894.61444308445
 31
0.0
  0
LINE
  5
8F
102
{ACAD_REACTORS
330
5D
102
}
330
21
100
AcDbEntity
  8
HALLE_0_1_UG
  6
Continuous
100
AcDbLine
 10
-11340.16893444096
 20
-6444.614443084454
 30
0.0
 11
-11340.16893444096
 21
-13894.61453504619
 31
0.0
  0
LINE
  5
90
102
{ACAD_REACTORS
330
5D
102
}
330
21
100
AcDbEntity
  8
HALLE_0_1_UG
  6
Continuous
100
AcDbLine
 10
-11088.9840881273
 20
-13894.61444308445
 30
0.0
 11
-11088.9840881273
 21
-16394.61444308445
 31
0.0
  0
LINE
  5
91
102
{ACAD_REACTORS
330
5D
102
}
330
21
100
AcDbEntity
  8
HALLE_0_1_UG
  6
Continuous
100
AcDbLine
 10
-11338.9840881273
 20
-13894.61444308445
 30
0.0
 11
-11338.9840881273
 21
-16394.61444308445
 31
0.0
  0
LINE
  5
92
102
{ACAD_REACTORS
330
5D
102
}
330
21
100
AcDbEntity
  8
HALLE_0_1_UG
  6
Continuous
100
AcDbLine
 10
-11088.9840881273
 20
-16394.61444308445
 30
0.0
 11
-11088.9840881273
 21
-36144.61444308446
 31
0.0
  0
LINE
  5
93
102
{ACAD_REACTORS
330
5D
102
}
330
21
100
AcDbEntity
  8
HALLE_0_1_UG
  6
Continuous
100
AcDbLine
 10
-11338.9840881273
 20
-16394.61444308445
 30
0.0
 11
-11338.9840881273
 21
-36394.61444308446
 31
0.0
  0
LINE
  5
94
102
{ACAD_REACTORS
330
5D
102
}
330
21
100
AcDbEntity
  8
HALLE_0_1_UG
  6
Continuous
100
AcDbLine
 10
-11338.9840881273
 20
-16394.61444308445
 30
0.0
 11
-11088.9840881273
 21
-16394.61444308445
 31
0.0
  0
LINE
  5
95
102
{ACAD_REACTORS
330
5D
102
}
330
21
100
AcDbEntity
  8
HALLE_0_1_UG
  6
Continuous
100
AcDbLine
 10
48661.01591187269
 20
-36394.61444308446
 30
0.0
 11
48661.01591187269
 21
-36144.61444308446
 31
0.0
  0
LINE
  5
96
102
{ACAD_REACTORS
330
5D
102
}
330
21
100
AcDbEntity
  8
HALLE_0_1_UG
  6
Continuous
100
AcDbLine
 10
-11088.9840881273
 20
-36144.61444308446
 30
0.0
 11
48661.01591187269
 21
-36144.61444308446
 31
0.0
  0
LINE
  5
97
102
{ACAD_REACTORS
330
5D
102
}
330
21
100
AcDbEntity
  8
HALLE_0_1_UG
  6
Continuous
100
AcDbLine
 10
-11338.9840881273
 20
-36394.61444308446
 30
0.0
 11
48661.01591187269
 21
-36394.61444308446
 31
0.0
  0
LINE
  5
98
102
{ACAD_REACTORS
330
5D
102
}
330
21
100
AcDbEntity
  8
HALLE_0_1_UG
  6
Continuous
100
AcDbLine
 10
-1838.984088127299
 20
-26604.61444308445
 30
0.0
 11
-1838.984088127299
 21
-26454.61444308446
 31
0.0
  0
LINE
  5
99
102
{ACAD_REACTORS
330
5D
102
}
330
21
100
AcDbEntity
  8
HALLE_0_1_UG
  6
Continuous
100
AcDbLine
 10
-5938.984088127299
 20
-26454.61444308446
 30
0.0
 11
-1838.984088127299
 21
-26454.61444308446
 31
0.0
  0
LINE
  5
9A
102
{ACAD_REACTORS
330
5D
102
}
330
21
100
AcDbEntity
  8
HALLE_0_1_UG
  6
Continuous
100
AcDbLine
 10
-6088.984088127299
 20
-26604.61444308445
 30
0.0
 11
-1838.984088127299
 21
-26604.61444308445
 31
0.0
  0
LINE
  5
9B
102
{ACAD_REACTORS
330
5D
102
}
330
21
100
AcDbEntity
  8
HALLE_0_1_UG
  6
Continuous
100
AcDbLine
 10
-6088.984088127299
 20
-26604.61444308445
 30
0.0
 11
-6088.984088127299
 21
-26454.61444308446
 31
0.0
  0
LINE
  5
9C
102
{ACAD_REACTORS
330
5D
102
}
330
21
100
AcDbEntity
  8
HALLE_0_1_UG
  6
Continuous
100
AcDbLine
 10
-638.9840881273002
 20
-26454.61444308446
 30
0.0
 11
-438.9840881272994
 21
-26454.61444308446
 31
0.0
  0
LINE
  5
9D
102
{ACAD_REACTORS
330
5D
102
}
330
21
100
AcDbEntity
  8
HALLE_0_1_UG
  6
Continuous
100
AcDbLine
 10
-638.9840881273002
 20
-26604.61444308445
 30
0.0
 11
-288.9840881273004
 21
-26604.61444308445
 31
0.0
  0
LINE
  5
9E
102
{ACAD_REACTORS
330
5D
102
}
330
21
100
AcDbEntity
  8
HALLE_0_1_UG
  6
Continuous
100
AcDbLine
 10
-638.9840881273002
 20
-26604.61444308445
 30
0.0
 11
-638.9840881273002
 21
-26454.61444308446
 31
0.0
  0
LINE
  5
9F
102
{ACAD_REACTORS
330
5D
102
}
330
21
100
AcDbEntity
  8
HALLE_0_1_UG
  6
Continuous
100
AcDbLine
 10
-6088.984088127299
 20
-7194.61444308445
 30
0.0
 11
-5938.984088127299
 21
-7194.61444308445
 31
0.0
  0
LINE
  5
A0
102
{ACAD_REACTORS
330
5D
102
}
330
21
100
AcDbEntity
  8
HALLE_0_1_UG
  6
Continuous
100
AcDbLine
 10
-5938.984088127299
 20
-6694.614443084454
 30
0.0
 11
-5938.984088127299
 21
-7194.61444308445
 31
0.0
  0
LINE
  5
A1
102
{ACAD_REACTORS
330
5D
102
}
330
21
100
AcDbEntity
  8
HALLE_0_1_UG
  6
Continuous
100
AcDbLine
 10
-6088.984088127299
 20
-6694.614443084454
 30
0.0
 11
-6088.984088127299
 21
-7194.61444308445
 31
0.0
  0
LINE
  5
A2
102
{ACAD_REACTORS
330
5D
102
}
330
21
100
AcDbEntity
  8
HALLE_0_1_UG
  6
Continuous
100
AcDbLine
 10
-6088.984088127299
 20
-14194.61444308445
 30
0.0
 11
-5938.984088127299
 21
-14194.61444308445
 31
0.0
  0
LINE
  5
A3
102
{ACAD_REACTORS
330
5D
102
}
330
21
100
AcDbEntity
  8
HALLE_0_1_UG
  6
Continuous
100
AcDbLine
 10
-5938.984088127299
 20
-8944.614443084452
 30
0.0
 11
-5938.984088127299
 21
-14194.61444308445
 31
0.0
  0
LINE
  5
A4
102
{ACAD_REACTORS
330
5D
102
}
330
21
100
AcDbEntity
  8
HALLE_0_1_UG
  6
Continuous
100
AcDbLine
 10
-6088.984088127299
 20
-8394.614443084455
 30
0.0
 11
-6088.984088127299
 21
-14194.61444308445
 31
0.0
  0
LINE
  5
A5
102
{ACAD_REACTORS
330
5D
102
}
330
21
100
AcDbEntity
  8
HALLE_0_1_UG
  6
Continuous
100
AcDbLine
 10
-5938.984088127299
 20
-8394.614443084455
 30
0.0
 11
-5938.984088127299
 21
-8794.614443084457
 31
0.0
  0
LINE
  5
A6
102
{ACAD_REACTORS
330
5D
102
}
330
21
100
AcDbEntity
  8
HALLE_0_1_UG
  6
Continuous
100
AcDbLine
 10
-6088.984088127299
 20
-8394.614443084455
 30
0.0
 11
-5938.984088127299
 21
-8394.614443084455
 31
0.0
  0
LINE
  5
A7
102
{ACAD_REACTORS
330
5D
102
}
330
21
100
AcDbEntity
  8
HALLE_0_1_UG
  6
Continuous
100
AcDbLine
 10
-6088.984088127299
 20
-18899.61444308445
 30
0.0
 11
-5938.984088127299
 21
-18899.61444308445
 31
0.0
  0
LINE
  5
A8
102
{ACAD_REACTORS
330
5D
102
}
330
21
100
AcDbEntity
  8
HALLE_0_1_UG
  6
Continuous
100
AcDbLine
 10
-5938.984088127299
 20
-17594.61444308446
 30
0.0
 11
-5938.984088127299
 21
-18899.61444308445
 31
0.0
  0
LINE
  5
A9
102
{ACAD_REACTORS
330
5D
102
}
330
21
100
AcDbEntity
  8
HALLE_0_1_UG
  6
Continuous
100
AcDbLine
 10
-6088.984088127299
 20
-15694.61444308445
 30
0.0
 11
-6088.984088127299
 21
-18899.61444308445
 31
0.0
  0
LINE
  5
AA
102
{ACAD_REACTORS
330
5D
102
}
330
21
100
AcDbEntity
  8
HALLE_0_1_UG
  6
Continuous
100
AcDbLine
 10
-5938.984088127299
 20
-15694.61444308445
 30
0.0
 11
-5938.984088127299
 21
-17444.61444308445
 31
0.0
  0
LINE
  5
AB
102
{ACAD_REACTORS
330
5D
102
}
330
21
100
AcDbEntity
  8
HALLE_0_1_UG
  6
Continuous
100
AcDbLine
 10
-6088.984088127299
 20
-15694.61444308445
 30
0.0
 11
-5938.984088127299
 21
-15694.61444308445
 31
0.0
  0
LINE
  5
AC
102
{ACAD_REACTORS
330
5D
102
}
330
21
100
AcDbEntity
  8
HALLE_0_1_UG
  6
Continuous
100
AcDbLine
 10
-5938.984088127299
 20
-21554.61444308445
 30
0.0
 11
-5938.984088127299
 21
-26454.61444308446
 31
0.0
  0
LINE
  5
AD
102
{ACAD_REACTORS
330
5D
102
}
330
21
100
AcDbEntity
  8
HALLE_0_1_UG
  6
Continuous
100
AcDbLine
 10
-6088.984088127299
 20
-20099.61444308446
 30
0.0
 11
-6088.984088127299
 21
-26454.61444308446
 31
0.0
  0
LINE
  5
AE
102
{ACAD_REACTORS
330
5D
102
}
330
21
100
AcDbEntity
  8
HALLE_0_1_UG
  6
Continuous
100
AcDbLine
 10
-5938.984088127299
 20
-20099.61444308446
 30
0.0
 11
-5938.984088127299
 21
-21404.61444308445
 31
0.0
  0
LINE
  5
AF
102
{ACAD_REACTORS
330
5D
102
}
330
21
100
AcDbEntity
  8
HALLE_0_1_UG
  6
Continuous
100
AcDbLine
 10
-6088.984088127299
 20
-20099.61444308446
 30
0.0
 11
-5938.984088127299
 21
-20099.61444308446
 31
0.0
  0
LINE
  5
B0
102
{ACAD_REACTORS
330
5D
102
}
330
21
100
AcDbEntity
  8
HALLE_0_1_UG
  6
Continuous
100
AcDbLine
 10
-438.9840881272994
 20
-21754.61444308445
 30
0.0
 11
-288.9840881273004
 21
-21754.61444308445
 31
0.0
  0
LINE
  5
B1
102
{ACAD_REACTORS
330
5D
102
}
330
21
100
AcDbEntity
  8
HALLE_0_1_UG
  6
Continuous
100
AcDbLine
 10
-288.9840881273004
 20
-6694.614443084454
 30
0.0
 11
-288.9840881273004
 21
-21754.61444308445
 31
0.0
  0
LINE
  5
B2
102
{ACAD_REACTORS
330
5D
102
}
330
21
100
AcDbEntity
  8
HALLE_0_1_UG
  6
Continuous
100
AcDbLine
 10
-438.9840881272994
 20
-21554.61444308445
 30
0.0
 11
-438.9840881272994
 21
-21754.61444308445
 31
0.0
  0
LINE
  5
B3
102
{ACAD_REACTORS
330
5D
102
}
330
21
100
AcDbEntity
  8
HALLE_0_1_UG
  6
Continuous
100
AcDbLine
 10
-438.9840881272994
 20
-17594.61444308446
 30
0.0
 11
-438.9840881272994
 21
-21404.61444308445
 31
0.0
  0
LINE
  5
B4
102
{ACAD_REACTORS
330
5D
102
}
330
21
100
AcDbEntity
  8
HALLE_0_1_UG
  6
Continuous
100
AcDbLine
 10
-438.9840881272994
 20
-8944.614443084452
 30
0.0
 11
-438.9840881272994
 21
-17444.61444308445
 31
0.0
  0
LINE
  5
B5
102
{ACAD_REACTORS
330
5D
102
}
330
21
100
AcDbEntity
  8
HALLE_0_1_UG
  6
Continuous
100
AcDbLine
 10
-438.9840881272994
 20
-6694.614443084454
 30
0.0
 11
-438.9840881272994
 21
-8794.614443084457
 31
0.0
  0
LINE
  5
B6
102
{ACAD_REACTORS
330
5D
102
}
330
21
100
AcDbEntity
  8
HALLE_0_1_UG
  6
Continuous
100
AcDbLine
 10
-288.9840881273004
 20
-22754.61444308445
 30
0.0
 11
-288.9840881273004
 21
-26604.61444308445
 31
0.0
  0
LINE
  5
B7
102
{ACAD_REACTORS
330
5D
102
}
330
21
100
AcDbEntity
  8
HALLE_0_1_UG
  6
Continuous
100
AcDbLine
 10
-438.9840881272994
 20
-22754.61444308445
 30
0.0
 11
-438.9840881272994
 21
-26454.61444308446
 31
0.0
  0
LINE
  5
B8
102
{ACAD_REACTORS
330
5D
102
}
330
21
100
AcDbEntity
  8
HALLE_0_1_UG
  6
Continuous
100
AcDbLine
 10
-438.9840881272994
 20
-22754.61444308445
 30
0.0
 11
-288.9840881273004
 21
-22754.61444308445
 31
0.0
  0
LINE
  5
B9
102
{ACAD_REACTORS
330
5D
102
}
330
21
100
AcDbEntity
  8
HALLE_0_1_UG
  6
Continuous
100
AcDbLine
 10
-288.9840881273004
 20
-30604.61444308446
 30
0.0
 11
-288.9840881273004
 21
-32394.61444308445
 31
0.0
  0
LINE
  5
BA
102
{ACAD_REACTORS
330
5D
102
}
330
21
100
AcDbEntity
  8
HALLE_0_1_UG
  6
Continuous
100
AcDbLine
 10
-438.9840881272994
 20
-30604.61444308446
 30
0.0
 11
-438.9840881272994
 21
-32644.61444308445
 31
0.0
  0
LINE
  5
BB
102
{ACAD_REACTORS
330
5D
102
}
330
21
100
AcDbEntity
  8
HALLE_0_1_UG
  6
Continuous
100
AcDbLine
 10
-438.9840881272994
 20
-30604.61444308446
 30
0.0
 11
-288.9840881273004
 21
-30604.61444308446
 31
0.0
  0
LINE
  5
BC
102
{ACAD_REACTORS
330
5D
102
}
330
21
100
AcDbEntity
  8
HALLE_0_1_UG
  6
Continuous
100
AcDbLine
 10
-5938.984088127299
 20
-8794.614443084457
 30
0.0
 11
-438.9840881272994
 21
-8794.614443084457
 31
0.0
  0
LINE
  5
BD
102
{ACAD_REACTORS
330
5D
102
}
330
21
100
AcDbEntity
  8
HALLE_0_1_UG
  6
Continuous
100
AcDbLine
 10
-5938.984088127299
 20
-8944.614443084452
 30
0.0
 11
-438.9840881272994
 21
-8944.614443084452
 31
0.0
  0
LINE
  5
BE
102
{ACAD_REACTORS
330
5D
102
}
330
21
100
AcDbEntity
  8
HALLE_0_1_UG
  6
Continuous
100
AcDbLine
 10
-5938.984088127299
 20
-17444.61444308445
 30
0.0
 11
-438.9840881272994
 21
-17444.61444308445
 31
0.0
  0
LINE
  5
BF
102
{ACAD_REACTORS
330
5D
102
}
330
21
100
AcDbEntity
  8
HALLE_0_1_UG
  6
Continuous
100
AcDbLine
 10
-5938.984088127299
 20
-17594.61444308446
 30
0.0
 11
-438.9840881272994
 21
-17594.61444308446
 31
0.0
  0
LINE
  5
C0
102
{ACAD_REACTORS
330
5D
102
}
330
21
100
AcDbEntity
  8
HALLE_0_1_UG
  6
Continuous
100
AcDbLine
 10
-5938.984088127299
 20
-21404.61444308445
 30
0.0
 11
-438.9840881272994
 21
-21404.61444308445
 31
0.0
  0
LINE
  5
C1
102
{ACAD_REACTORS
330
5D
102
}
330
21
100
AcDbEntity
  8
HALLE_0_1_UG
  6
Continuous
100
AcDbLine
 10
-5938.984088127299
 20
-21554.61444308445
 30
0.0
 11
-438.9840881272994
 21
-21554.61444308445
 31
0.0
  0
LINE
  5
C2
102
{ACAD_REACTORS
330
5D
102
}
330
21
100
AcDbEntity
  8
HALLE_0_1_UG
  6
Continuous
100
AcDbLine
 10
-438.9840881272994
 20
-30604.61444308446
 30
0.0
 11
-438.9840881272994
 21
-26604.61444308445
 31
0.0
  0
ARC
  5
C3
102
{ACAD_REACTORS
330
5D
102
}
330
21
100
AcDbEntity
  8
HALLE_0_1_UG
  6
Continuous
100
AcDbCircle
 10
-438.9840881272994
 20
-28604.61444308445
 30
0.0
 40
1950.0
100
AcDbArc
 50
90.0
 51
95.8868421387077
  0
ARC
  5
C4
102
{ACAD_REACTORS
330
5D
102
}
330
21
100
AcDbEntity
  8
HALLE_0_1_UG
  6
Continuous
100
AcDbCircle
 10
-438.9840881272994
 20
-26664.89796895738
 30
0.0
 40
1950.0
100
AcDbArc
 50
180.0
 51
264.1131578612923
  0
LINE
  5
C5
102
{ACAD_REACTORS
330
5D
102
}
330
21
100
AcDbEntity
  8
HALLE_0_1_UG
  6
Continuous
100
AcDbLine
 10
-2388.984088127299
 20
-26664.89796895738
 30
0.0
 11
-438.9840881272994
 21
-26664.89796895738
 31
0.0
  0
ARC
  5
C6
102
{ACAD_REACTORS
330
5D
102
}
330
21
100
AcDbEntity
  8
HALLE_0_1_UG
  6
Continuous
100
AcDbCircle
 10
-438.9840881272994
 20
-30604.61444308446
 30
0.0
 40
2005.617112013158
100
AcDbArc
 50
94.28915332881899
 51
270.0
  0
LINE
  5
C7
102
{ACAD_REACTORS
330
5D
102
}
330
21
100
AcDbEntity
  8
HALLE_0_1_UG
  6
Continuous
100
AcDbLine
 10
-438.9840881272994
 20
-30604.61444308446
 30
0.0
 11
-2444.60120014046
 21
-30604.61444308446
 31
0.0
  0
ARC
  5
C8
102
{ACAD_REACTORS
330
5D
102
}
330
21
100
AcDbEntity
  8
HALLE_0_1_UG
  6
Continuous
100
AcDbCircle
 10
-638.9840881273002
 20
-26604.61444308445
 30
0.0
 40
1200.0
100
AcDbArc
 50
180.0
 51
270.0
  0
LINE
  5
C9
102
{ACAD_REACTORS
330
5D
102
}
330
21
100
AcDbEntity
  8
HALLE_0_1_UG
  6
Continuous
100
AcDbLine
 10
-638.9840881273002
 20
-26604.61444308445
 30
0.0
 11
-638.9840881273002
 21
-27804.61444308445
 31
0.0
  0
ARC
  5
CA
102
{ACAD_REACTORS
330
5D
102
}
330
21
100
AcDbEntity
  8
HALLE_0_1_UG
  6
Continuous
100
AcDbCircle
 10
-438.9840881272994
 20
-21754.61444308445
 30
0.0
 40
1000.0
100
AcDbArc
 50
180.0
 51
270.0
  0
LINE
  5
CB
102
{ACAD_REACTORS
330
5D
102
}
330
21
100
AcDbEntity
  8
HALLE_0_1_UG
  6
Continuous
100
AcDbLine
 10
-1438.984088127299
 20
-21754.61444308445
 30
0.0
 11
-438.9840881272994
 21
-21754.61444308445
 31
0.0
  0
ARC
  5
CC
102
{ACAD_REACTORS
330
5D
102
}
330
21
100
AcDbEntity
  8
HALLE_0_1_UG
  6
Continuous
100
AcDbCircle
 10
-5938.984088127299
 20
-18899.61444308445
 30
0.0
 40
1200.0
100
AcDbArc
 50
270.0
 51
0.0
  0
LINE
  5
CD
102
{ACAD_REACTORS
330
5D
102
}
330
21
100
AcDbEntity
  8
HALLE_0_1_UG
  6
Continuous
100
AcDbLine
 10
-5938.984088127299
 20
-18899.61444308445
 30
0.0
 11
-4738.984088127299
 21
-18899.61444308445
 31
0.0
  0
ARC
  5
CE
102
{ACAD_REACTORS
330
5D
102
}
330
21
100
AcDbEntity
  8
HALLE_0_1_UG
  6
Continuous
100
AcDbCircle
 10
-5938.984088127299
 20
-7194.61444308445
 30
0.0
 40
1200.0
100
AcDbArc
 50
270.0
 51
0.0
  0
LINE
  5
CF
102
{ACAD_REACTORS
330
5D
102
}
330
21
100
AcDbEntity
  8
HALLE_0_1_UG
  6
Continuous
100
AcDbLine
 10
-5938.984088127299
 20
-7194.61444308445
 30
0.0
 11
-4738.984088127299
 21
-7194.61444308445
 31
0.0
  0
LINE
  5
D0
102
{ACAD_REACTORS
330
5D
102
}
330
21
100
AcDbEntity
  8
HALLE_0_1_UG
  6
Continuous
100
AcDbLine
 10
-6588.984088127299
 20
-6444.614443084454
 30
0.0
 11
-10588.9840881273
 21
-6444.614443084454
 31
0.0
  0
ARC
  5
D1
102
{ACAD_REACTORS
330
5D
102
}
330
21
100
AcDbEntity
  8
HALLE_0_1_UG
  6
Continuous
100
AcDbCircle
 10
-6588.984088127299
 20
-6444.614443084454
 30
0.0
 40
2000.0
100
AcDbArc
 50
90.0
 51
180.0
  0
LINE
  5
D2
102
{ACAD_REACTORS
330
5D
102
}
330
21
100
AcDbEntity
  8
HALLE_0_1_UG
  6
Continuous
100
AcDbLine
 10
-6588.984088127299
 20
-6444.614443084454
 30
0.0
 11
-6588.984088127299
 21
-4444.614443084452
 31
0.0
  0
ARC
  5
D3
102
{ACAD_REACTORS
330
5D
102
}
330
21
100
AcDbEntity
  8
HALLE_0_1_UG
  6
Continuous
100
AcDbCircle
 10
-10588.9840881273
 20
-6444.614443084454
 30
0.0
 40
2000.0
100
AcDbArc
 50
0.0
 51
90.0
  0
LINE
  5
D4
102
{ACAD_REACTORS
330
5D
102
}
330
21
100
AcDbEntity
  8
HALLE_0_1_UG
  6
Continuous
100
AcDbLine
 10
-10588.9840881273
 20
-6444.614443084454
 30
0.0
 11
-10588.9840881273
 21
-4444.614443084452
 31
0.0
  0
LINE
  5
D5
102
{ACAD_REACTORS
330
5D
102
}
330
21
100
AcDbEntity
  8
HALLE_0_1_UG
  6
Continuous
100
AcDbLine
 10
48661.01591187269
 20
-32644.61444308445
 30
0.0
 11
48661.01591187269
 21
-36144.61444308446
 31
0.0
  0
LINE
  5
D6
102
{ACAD_REACTORS
330
5D
102
}
330
21
100
AcDbEntity
  8
HALLE_0_1_UG
  6
Continuous
100
AcDbLine
 10
48661.01591187269
 20
-34394.61444308445
 30
0.0
 11
3011.0159118727
 21
-32644.61444308445
 31
0.0
  0
LINE
  5
D7
102
{ACAD_REACTORS
330
5D
102
}
330
21
100
AcDbEntity
  8
HALLE_0_1_UG
  6
Continuous
100
AcDbLine
 10
3011.0159118727
 20
-36144.61444308446
 30
0.0
 11
48661.01591187269
 21
-34394.61444308445
 31
0.0
  0
LINE
  5
D8
102
{ACAD_REACTORS
330
5D
102
}
330
21
100
AcDbEntity
  8
HALLE_0_1_UG
  6
Continuous
100
AcDbLine
 10
41961.015911878
 20
-6694.614443084454
 30
0.0
 11
41961.015911878
 21
-12344.72785995572
 31
0.0
  0
LINE
  5
D9
102
{ACAD_REACTORS
330
5D
102
}
330
21
100
AcDbEntity
  8
HALLE_0_1_UG
  6
Continuous
100
AcDbLine
 10
41811.015911878
 20
-6694.614443084454
 30
0.0
 11
41811.015911878
 21
-12494.72785995573
 31
0.0
  0
LINE
  5
DA
102
{ACAD_REACTORS
330
5D
102
}
330
21
100
AcDbEntity
  8
HALLE_0_1_UG
  6
Continuous
100
AcDbLine
 10
46211.0159118727
 20
-12494.72785995573
 30
0.0
 11
46211.0159118727
 21
-12344.72785995572
 31
0.0
  0
LINE
  5
DB
102
{ACAD_REACTORS
330
5D
102
}
330
21
100
AcDbEntity
  8
HALLE_0_1_UG
  6
Continuous
100
AcDbLine
 10
41961.015911878
 20
-12344.72785995572
 30
0.0
 11
46211.0159118727
 21
-12344.72785995572
 31
0.0
  0
LINE
  5
DC
102
{ACAD_REACTORS
330
5D
102
}
330
21
100
AcDbEntity
  8
HALLE_0_1_UG
  6
Continuous
100
AcDbLine
 10
41811.015911878
 20
-12494.72785995573
 30
0.0
 11
46211.0159118727
 21
-12494.72785995573
 31
0.0
  0
LINE
  5
DD
102
{ACAD_REACTORS
330
5D
102
}
330
21
100
AcDbEntity
  8
HALLE_0_1_UG
  6
Continuous
100
AcDbLine
 10
48211.0159118727
 20
-12344.72785995572
 30
0.0
 11
48411.01591187269
 21
-12344.72785995572
 31
0.0
  0
LINE
  5
DE
102
{ACAD_REACTORS
330
5D
102
}
330
21
100
AcDbEntity
  8
HALLE_0_1_UG
  6
Continuous
100
AcDbLine
 10
48211.0159118727
 20
-12494.72785995573
 30
0.0
 11
48411.01591187269
 21
-12494.72785995573
 31
0.0
  0
LINE
  5
DF
102
{ACAD_REACTORS
330
5D
102
}
330
21
100
AcDbEntity
  8
HALLE_0_1_UG
  6
Continuous
100
AcDbLine
 10
48211.0159118727
 20
-12494.72785995573
 30
0.0
 11
48211.0159118727
 21
-12344.72785995572
 31
0.0
  0
LINE
  5
E0
102
{ACAD_REACTORS
330
5D
102
}
330
21
100
AcDbEntity
  8
HALLE_0_1_UG
  6
Continuous
100
AcDbLine
 10
46511.0159118727
 20
-6694.614443084454
 30
0.0
 11
46511.0159118727
 21
-7444.614443084451
 31
0.0
  0
LINE
  5
E1
102
{ACAD_REACTORS
330
5D
102
}
330
21
100
AcDbEntity
  8
HALLE_0_1_UG
  6
Continuous
100
AcDbLine
 10
46361.0159118727
 20
-6694.614443084454
 30
0.0
 11
46361.0159118727
 21
-7294.614443084451
 31
0.0
  0
LINE
  5
E2
102
{ACAD_REACTORS
330
5D
102
}
330
21
100
AcDbEntity
  8
HALLE_0_1_UG
  6
Continuous
100
AcDbLine
 10
46511.0159118727
 20
-7444.614443084451
 30
0.0
 11
43911.0159118727
 21
-7444.614443084451
 31
0.0
  0
LINE
  5
E3
102
{ACAD_REACTORS
330
5D
102
}
330
21
100
AcDbEntity
  8
HALLE_0_1_UG
  6
Continuous
100
AcDbLine
 10
46361.0159118727
 20
-7294.614443084451
 30
0.0
 11
44061.01591187269
 21
-7294.614443084451
 31
0.0
  0
LINE
  5
E4
102
{ACAD_REACTORS
330
5D
102
}
330
21
100
AcDbEntity
  8
HALLE_0_1_UG
  6
Continuous
100
AcDbLine
 10
43911.0159118727
 20
-7444.614443084451
 30
0.0
 11
43911.0159118727
 21
-6694.614443084454
 31
0.0
  0
LINE
  5
E5
102
{ACAD_REACTORS
330
5D
102
}
330
21
100
AcDbEntity
  8
HALLE_0_1_UG
  6
Continuous
100
AcDbLine
 10
44061.01591187269
 20
-7294.614443084451
 30
0.0
 11
44061.01591187269
 21
-6694.614443084454
 31
0.0
  0
LINE
  5
E6
102
{ACAD_REACTORS
330
5D
102
}
330
21
100
AcDbEntity
  8
HALLE_0_1_UG
  6
Continuous
100
AcDbLine
 10
46511.0159118727
 20
-7444.614443084451
 30
0.0
 11
48411.01591187269
 21
-7444.614443084451
 31
0.0
  0
LINE
  5
E7
102
{ACAD_REACTORS
330
5D
102
}
330
21
100
AcDbEntity
  8
HALLE_0_1_UG
  6
Continuous
100
AcDbLine
 10
48211.0159118727
 20
-12344.72785995572
 30
0.0
 11
46211.0159118727
 21
-12344.72785995572
 31
0.0
  0
ARC
  5
E8
102
{ACAD_REACTORS
330
5D
102
}
330
21
100
AcDbEntity
  8
HALLE_0_1_UG
  6
Continuous
100
AcDbCircle
 10
48211.0159118727
 20
-12344.72785995572
 30
0.0
 40
1000.0
100
AcDbArc
 50
90.0
 51
180.0
  0
LINE
  5
E9
102
{ACAD_REACTORS
330
5D
102
}
330
21
100
AcDbEntity
  8
HALLE_0_1_UG
  6
Continuous
100
AcDbLine
 10
48211.0159118727
 20
-11344.72785995573
 30
0.0
 11
48211.0159118727
 21
-12344.72785995572
 31
0.0
  0
LINE
  5
EA
102
{ACAD_REACTORS
330
5D
102
}
330
21
100
AcDbEntity
  8
HALLE_0_1_UG
  6
Continuous
100
AcDbLine
 10
46211.0159118727
 20
-12344.72785995572
 30
0.0
 11
47211.0159118727
 21
-12344.72785995572
 31
0.0
  0
LINE
  5
EB
102
{ACAD_REACTORS
330
5D
102
}
330
21
100
AcDbEntity
  8
HALLE_0_1_UG
  6
Continuous
100
AcDbLine
 10
46211.0159118727
 20
-12344.72785995572
 30
0.0
 11
47211.0159118727
 21
-12344.72785995572
 31
0.0
  0
ARC
  5
EC
102
{ACAD_REACTORS
330
5D
102
}
330
21
100
AcDbEntity
  8
HALLE_0_1_UG
  6
Continuous
100
AcDbCircle
 10
46211.0159118727
 20
-12344.72785995572
 30
0.0
 40
1000.0
100
AcDbArc
 50
0.0
 51
180.0
  0
LINE
  5
ED
102
{ACAD_REACTORS
330
5D
102
}
330
21
100
AcDbEntity
  8
HALLE_0_1_UG
  6
Continuous
100
AcDbLine
 10
5311.015911872702
 20
-36144.61444308446
 30
0.0
 11
5311.015911872702
 21
-32644.61444308445
 31
0.0
  0
LINE
  5
EE
102
{ACAD_REACTORS
330
5D
102
}
330
21
100
AcDbEntity
  8
HALLE_0_1_UG
  6
Continuous
100
AcDbLine
 10
43611.01591187799
 20
-10844.72785995573
 30
0.0
 11
43501.01591187799
 21
-10844.72785995573
 31
0.0
  0
TEXT
  5
F0
102
{ACAD_REACTORS
330
5D
102
}
330
21
100
AcDbEntity
  8
HALLE_0_1_UG
100
AcDbText
 10
48068.93466187269
 20
-13256.29002080845
 30
0.0
 40
113.6434108527132
  1
F
  7
ARIALB
 11
48068.93466187269
 21
-13142.64660995574
 31
0.0
100
AcDbText
 73
     3
  0
LINE
  5
F2
102
{ACAD_REACTORS
330
5D
102
}
330
21
100
AcDbEntity
  8
HALLE_0_1_UG
  6
Continuous
100
AcDbLine
 10
41437.44751714016
 20
-18747.00047437183
 30
0.0
 11
42771.01591187269
 21
-18747.00047437183
 31
0.0
  0
LINE
  5
F3
102
{ACAD_REACTORS
330
5D
102
}
330
21
100
AcDbEntity
  8
HALLE_0_1_UG
  6
Continuous
100
AcDbLine
 10
41437.44751714016
 20
-20227.00047437183
 30
0.0
 11
42771.01591187269
 21
-20227.00047437183
 31
0.0
  0
LINE
  5
F4
102
{ACAD_REACTORS
330
5D
102
}
330
21
100
AcDbEntity
  8
HALLE_0_1_UG
  6
Continuous
100
AcDbLine
 10
41437.44751714016
 20
-24490.00047437183
 30
0.0
 11
42771.01591187269
 21
-24490.00047437183
 31
0.0
  0
LINE
  5
F5
102
{ACAD_REACTORS
330
5D
102
}
330
21
100
AcDbEntity
  8
HALLE_0_1_UG
  6
Continuous
100
AcDbLine
 10
41437.44751714016
 20
-26110.00047437182
 30
0.0
 11
42771.01591187269
 21
-26110.00047437182
 31
0.0
  0
LINE
  5
F6
102
{ACAD_REACTORS
330
5D
102
}
330
21
100
AcDbEntity
  8
HALLE_0_1_UG
  6
Continuous
100
AcDbLine
 10
41437.44751714016
 20
-26110.00047437182
 30
0.0
 11
41437.44751714016
 21
-24490.00047437183
 31
0.0
  0
LINE
  5
F7
102
{ACAD_REACTORS
330
5D
102
}
330
21
100
AcDbEntity
  8
HALLE_0_1_UG
  6
Continuous
100
AcDbLine
 10
41437.44751714016
 20
-20227.00047437183
 30
0.0
 11
41437.44751714016
 21
-18747.00047437183
 31
0.0
  0
LINE
  5
F8
102
{ACAD_REACTORS
330
5D
102
}
330
21
100
AcDbEntity
  8
HALLE_0_1_UG
  6
Continuous
100
AcDbLine
 10
43607.44751714016
 20
-15294.00047437182
 30
0.0
 11
44947.44751714017
 21
-15294.00047437182
 31
0.0
  0
LINE
  5
F9
102
{ACAD_REACTORS
330
5D
102
}
330
21
100
AcDbEntity
  8
HALLE_0_1_UG
  6
Continuous
100
AcDbLine
 10
-5938.984088127299
 20
-14194.61444308445
 30
0.0
 11
-5938.984088127299
 21
-15694.61444308445
 31
0.0
  0
ARC
  5
FA
102
{ACAD_REACTORS
330
5D
102
}
330
21
100
AcDbEntity
  8
HALLE_0_1_UG
  6
Continuous
100
AcDbCircle
 10
-5938.984088127299
 20
-15694.61444308445
 30
0.0
 40
1000.0
100
AcDbArc
 50
0.0
 51
90.0
  0
LINE
  5
FB
102
{ACAD_REACTORS
330
5D
102
}
330
21
100
AcDbEntity
  8
HALLE_0_1_UG
  6
Continuous
100
AcDbLine
 10
-4938.984088127299
 20
-15694.61444308445
 30
0.0
 11
-5938.984088127299
 21
-15694.61444308445
 31
0.0
  0
ARC
  5
FC
102
{ACAD_REACTORS
330
5D
102
}
330
21
100
AcDbEntity
  8
HALLE_0_1_UG
  6
Continuous
100
AcDbCircle
 10
-5938.984088127299
 20
-14194.61444308445
 30
0.0
 40
500.0
100
AcDbArc
 50
270.0
 51
0.0
  0
LINE
  5
FD
102
{ACAD_REACTORS
330
5D
102
}
330
21
100
AcDbEntity
  8
HALLE_0_1_UG
  6
Continuous
100
AcDbLine
 10
-5438.984088127299
 20
-14194.61444308445
 30
0.0
 11
-5938.984088127299
 21
-14194.61444308445
 31
0.0
  0
LINE
  5
FE
102
{ACAD_REACTORS
330
5D
102
}
330
21
100
AcDbEntity
  8
HALLE_0_1_UG
  6
Continuous
100
AcDbLine
 10
-11088.9840881273
 20
-13894.61444308445
 30
0.0
 11
-6088.984088127299
 21
-13894.61444308445
 31
0.0
  0
LINE
  5
FF
102
{ACAD_REACTORS
330
5D
102
}
330
21
100
AcDbEntity
  8
HALLE_0_1_UG
  6
Continuous
100
AcDbLine
 10
-11088.9840881273
 20
-16394.61444308445
 30
0.0
 11
-6088.984088127299
 21
-16394.61444308445
 31
0.0
  0
LINE
  5
100
102
{ACAD_REACTORS
330
5D
102
}
330
21
100
AcDbEntity
  8
HALLE_0_1_UG
  6
Continuous
100
AcDbLine
 10
10335.0159118727
 20
-6444.614443084454
 30
0.0
 11
14421.0159118727
 21
-6444.614443084454
 31
0.0
  0
ARC
  5
101
102
{ACAD_REACTORS
330
5D
102
}
330
21
100
AcDbEntity
  8
HALLE_0_1_UG
  6
Continuous
100
AcDbCircle
 10
10267.0159118727
 20
-6444.614443084454
 30
0.0
 40
2054.0
100
AcDbArc
 50
0.0
 51
90.0
  0
LINE
  5
102
102
{ACAD_REACTORS
330
5D
102
}
330
21
100
AcDbEntity
  8
HALLE_0_1_UG
  6
Continuous
100
AcDbLine
 10
10267.0159118727
 20
-4390.614443084458
 30
0.0
 11
10267.0159118727
 21
-6444.614443084454
 31
0.0
  0
ARC
  5
103
102
{ACAD_REACTORS
330
5D
102
}
330
21
100
AcDbEntity
  8
HALLE_0_1_UG
  6
Continuous
100
AcDbCircle
 10
14375.0159118727
 20
-6444.614443084454
 30
0.0
 40
2054.0
100
AcDbArc
 50
90.0
 51
180.0
  0
LINE
  5
104
102
{ACAD_REACTORS
330
5D
102
}
330
21
100
AcDbEntity
  8
HALLE_0_1_UG
  6
Continuous
100
AcDbLine
 10
14375.0159118727
 20
-4390.614443084458
 30
0.0
 11
14375.0159118727
 21
-6444.614443084454
 31
0.0
  0
LINE
  5
105
102
{ACAD_REACTORS
330
5D
102
}
330
21
100
AcDbEntity
  8
HALLE_0_1_UG
  6
Continuous
100
AcDbLine
 10
-12418.9840881273
 20
-13814.61444308446
 30
0.0
 11
-12418.9840881273
 21
-16474.61444308445
 31
0.0
  0
LINE
  5
106
102
{ACAD_REACTORS
330
5D
102
}
330
21
100
AcDbEntity
  8
HALLE_0_1_UG
  6
Continuous
100
AcDbLine
 10
-12418.9840881273
 20
-16474.61444308445
 30
0.0
 11
-11338.9840881273
 21
-16474.61444308445
 31
0.0
  0
LINE
  5
107
102
{ACAD_REACTORS
330
5D
102
}
330
21
100
AcDbEntity
  8
HALLE_0_1_UG
  6
Continuous
100
AcDbLine
 10
-11338.9840881273
 20
-16474.61444308445
 30
0.0
 11
-11338.9840881273
 21
-16394.61444308445
 31
0.0
  0
LINE
  5
108
102
{ACAD_REACTORS
330
5D
102
}
330
21
100
AcDbEntity
  8
HALLE_0_1_UG
  6
Continuous
100
AcDbLine
 10
-11338.9840881273
 20
-16394.61444308445
 30
0.0
 11
-12338.9840881273
 21
-16394.61444308445
 31
0.0
  0
LINE
  5
109
102
{ACAD_REACTORS
330
5D
102
}
330
21
100
AcDbEntity
  8
HALLE_0_1_UG
  6
Continuous
100
AcDbLine
 10
-12338.9840881273
 20
-16394.61444308445
 30
0.0
 11
-12338.9840881273
 21
-13894.61444308445
 31
0.0
  0
LINE
  5
10A
102
{ACAD_REACTORS
330
5D
102
}
330
21
100
AcDbEntity
  8
HALLE_0_1_UG
  6
Continuous
100
AcDbLine
 10
-12338.9840881273
 20
-13894.61444308445
 30
0.0
 11
-11338.9840881273
 21
-13894.61444308445
 31
0.0
  0
LINE
  5
10B
102
{ACAD_REACTORS
330
5D
102
}
330
21
100
AcDbEntity
  8
HALLE_0_1_UG
  6
Continuous
100
AcDbLine
 10
-11338.9840881273
 20
-13894.61444308445
 30
0.0
 11
-11338.9840881273
 21
-13814.61444308446
 31
0.0
  0
LINE
  5
10C
102
{ACAD_REACTORS
330
5D
102
}
330
21
100
AcDbEntity
  8
HALLE_0_1_UG
  6
Continuous
100
AcDbLine
 10
-11338.9840881273
 20
-13814.61444308446
 30
0.0
 11
-12418.9840881273
 21
-13814.61444308446
 31
0.0
  0
LINE
  5
10D
102
{ACAD_REACTORS
330
5D
102
}
330
21
100
AcDbEntity
  8
HALLE_0_1_UG
  6
Continuous
100
AcDbLine
 10
8652.447517140171
 20
-26180.00047437183
 30
0.0
 11
8852.447517140172
 21
-26180.00047437183
 31
0.0
  0
LINE
  5
10E
102
{ACAD_REACTORS
330
5D
102
}
330
21
100
AcDbEntity
  8
HALLE_0_1_UG
  6
Continuous
100
AcDbLine
 10
8852.447517140172
 20
-26180.00047437183
 30
0.0
 11
8852.447517140172
 21
-26680.00047437183
 31
0.0
  0
LINE
  5
10F
102
{ACAD_REACTORS
330
5D
102
}
330
21
100
AcDbEntity
  8
HALLE_0_1_UG
  6
Continuous
100
AcDbLine
 10
8852.447517140172
 20
-26680.00047437183
 30
0.0
 11
8652.447517140171
 21
-26680.00047437183
 31
0.0
  0
LINE
  5
110
102
{ACAD_REACTORS
330
5D
102
}
330
21
100
AcDbEntity
  8
HALLE_0_1_UG
  6
Continuous
100
AcDbLine
 10
8652.447517140171
 20
-26680.00047437183
 30
0.0
 11
8652.447517140171
 21
-26180.00047437183
 31
0.0
  0
LINE
  5
111
102
{ACAD_REACTORS
330
5D
102
}
330
21
100
AcDbEntity
  8
HALLE_0_1_UG
  6
Continuous
100
AcDbLine
 10
15263.44751714017
 20
-26180.00047437183
 30
0.0
 11
15463.44751714017
 21
-26180.00047437183
 31
0.0
  0
LINE
  5
112
102
{ACAD_REACTORS
330
5D
102
}
330
21
100
AcDbEntity
  8
HALLE_0_1_UG
  6
Continuous
100
AcDbLine
 10
15463.44751714017
 20
-26180.00047437183
 30
0.0
 11
15463.44751714017
 21
-26680.00047437183
 31
0.0
  0
LINE
  5
113
102
{ACAD_REACTORS
330
5D
102
}
330
21
100
AcDbEntity
  8
HALLE_0_1_UG
  6
Continuous
100
AcDbLine
 10
15463.44751714017
 20
-26680.00047437183
 30
0.0
 11
15263.44751714017
 21
-26680.00047437183
 31
0.0
  0
LINE
  5
114
102
{ACAD_REACTORS
330
5D
102
}
330
21
100
AcDbEntity
  8
HALLE_0_1_UG
  6
Continuous
100
AcDbLine
 10
15263.44751714017
 20
-26680.00047437183
 30
0.0
 11
15263.44751714017
 21
-26180.00047437183
 31
0.0
  0
LINE
  5
115
102
{ACAD_REACTORS
330
5D
102
}
330
21
100
AcDbEntity
  8
HALLE_0_1_UG
  6
Continuous
100
AcDbLine
 10
21874.44751714017
 20
-26180.00047437183
 30
0.0
 11
22074.44751714017
 21
-26180.00047437183
 31
0.0
  0
LINE
  5
116
102
{ACAD_REACTORS
330
5D
102
}
330
21
100
AcDbEntity
  8
HALLE_0_1_UG
  6
Continuous
100
AcDbLine
 10
22074.44751714017
 20
-26180.00047437183
 30
0.0
 11
22074.44751714017
 21
-26680.00047437183
 31
0.0
  0
LINE
  5
117
102
{ACAD_REACTORS
330
5D
102
}
330
21
100
AcDbEntity
  8
HALLE_0_1_UG
  6
Continuous
100
AcDbLine
 10
22074.44751714017
 20
-26680.00047437183
 30
0.0
 11
21874.44751714017
 21
-26680.00047437183
 31
0.0
  0
LINE
  5
118
102
{ACAD_REACTORS
330
5D
102
}
330
21
100
AcDbEntity
  8
HALLE_0_1_UG
  6
Continuous
100
AcDbLine
 10
21874.44751714017
 20
-26680.00047437183
 30
0.0
 11
21874.44751714017
 21
-26180.00047437183
 31
0.0
  0
LINE
  5
119
102
{ACAD_REACTORS
330
5D
102
}
330
21
100
AcDbEntity
  8
HALLE_0_1_UG
  6
Continuous
100
AcDbLine
 10
28485.44751714017
 20
-26180.00047437183
 30
0.0
 11
28685.44751714018
 21
-26180.00047437183
 31
0.0
  0
LINE
  5
11A
102
{ACAD_REACTORS
330
5D
102
}
330
21
100
AcDbEntity
  8
HALLE_0_1_UG
  6
Continuous
100
AcDbLine
 10
28685.44751714018
 20
-26180.00047437183
 30
0.0
 11
28685.44751714018
 21
-26680.00047437183
 31
0.0
  0
LINE
  5
11B
102
{ACAD_REACTORS
330
5D
102
}
330
21
100
AcDbEntity
  8
HALLE_0_1_UG
  6
Continuous
100
AcDbLine
 10
28685.44751714018
 20
-26680.00047437183
 30
0.0
 11
28485.44751714017
 21
-26680.00047437183
 31
0.0
  0
LINE
  5
11C
102
{ACAD_REACTORS
330
5D
102
}
330
21
100
AcDbEntity
  8
HALLE_0_1_UG
  6
Continuous
100
AcDbLine
 10
28485.44751714017
 20
-26680.00047437183
 30
0.0
 11
28485.44751714017
 21
-26180.00047437183
 31
0.0
  0
LINE
  5
11D
102
{ACAD_REACTORS
330
5D
102
}
330
21
100
AcDbEntity
  8
HALLE_0_1_UG
  6
Continuous
100
AcDbLine
 10
35096.44751714017
 20
-26180.00047437183
 30
0.0
 11
35296.44751714017
 21
-26180.00047437183
 31
0.0
  0
LINE
  5
11E
102
{ACAD_REACTORS
330
5D
102
}
330
21
100
AcDbEntity
  8
HALLE_0_1_UG
  6
Continuous
100
AcDbLine
 10
35296.44751714017
 20
-26180.00047437183
 30
0.0
 11
35296.44751714017
 21
-26680.00047437183
 31
0.0
  0
LINE
  5
11F
102
{ACAD_REACTORS
330
5D
102
}
330
21
100
AcDbEntity
  8
HALLE_0_1_UG
  6
Continuous
100
AcDbLine
 10
35296.44751714017
 20
-26680.00047437183
 30
0.0
 11
35096.44751714017
 21
-26680.00047437183
 31
0.0
  0
LINE
  5
120
102
{ACAD_REACTORS
330
5D
102
}
330
21
100
AcDbEntity
  8
HALLE_0_1_UG
  6
Continuous
100
AcDbLine
 10
35096.44751714017
 20
-26680.00047437183
 30
0.0
 11
35096.44751714017
 21
-26180.00047437183
 31
0.0
  0
LINE
  5
121
102
{ACAD_REACTORS
330
5D
102
}
330
21
100
AcDbEntity
  8
HALLE_0_1_UG
  6
Continuous
100
AcDbLine
 10
41707.44751714017
 20
-26180.00047437183
 30
0.0
 11
41907.44751714017
 21
-26180.00047437183
 31
0.0
  0
LINE
  5
122
102
{ACAD_REACTORS
330
5D
102
}
330
21
100
AcDbEntity
  8
HALLE_0_1_UG
  6
Continuous
100
AcDbLine
 10
41907.44751714017
 20
-26180.00047437183
 30
0.0
 11
41907.44751714017
 21
-26680.00047437183
 31
0.0
  0
LINE
  5
123
102
{ACAD_REACTORS
330
5D
102
}
330
21
100
AcDbEntity
  8
HALLE_0_1_UG
  6
Continuous
100
AcDbLine
 10
41907.44751714017
 20
-26680.00047437183
 30
0.0
 11
41707.44751714017
 21
-26680.00047437183
 31
0.0
  0
LINE
  5
124
102
{ACAD_REACTORS
330
5D
102
}
330
21
100
AcDbEntity
  8
HALLE_0_1_UG
  6
Continuous
100
AcDbLine
 10
41707.44751714017
 20
-26680.00047437183
 30
0.0
 11
41707.44751714017
 21
-26180.00047437183
 31
0.0
  0
LINE
  5
125
102
{ACAD_REACTORS
330
5D
102
}
330
21
100
AcDbEntity
  8
HALLE_0_1_UG
  6
Continuous
100
AcDbLine
 10
2041.44751714017
 20
-20347.00047437183
 30
0.0
 11
2241.44751714017
 21
-20347.00047437183
 31
0.0
  0
LINE
  5
126
102
{ACAD_REACTORS
330
5D
102
}
330
21
100
AcDbEntity
  8
HALLE_0_1_UG
  6
Continuous
100
AcDbLine
 10
2241.44751714017
 20
-20347.00047437183
 30
0.0
 11
2241.44751714017
 21
-20847.00047437184
 31
0.0
  0
LINE
  5
127
102
{ACAD_REACTORS
330
5D
102
}
330
21
100
AcDbEntity
  8
HALLE_0_1_UG
  6
Continuous
100
AcDbLine
 10
2241.44751714017
 20
-20847.00047437184
 30
0.0
 11
2041.44751714017
 21
-20847.00047437184
 31
0.0
  0
LINE
  5
128
102
{ACAD_REACTORS
330
5D
102
}
330
21
100
AcDbEntity
  8
HALLE_0_1_UG
  6
Continuous
100
AcDbLine
 10
2041.44751714017
 20
-20847.00047437184
 30
0.0
 11
2041.44751714017
 21
-20347.00047437183
 31
0.0
  0
LINE
  5
129
102
{ACAD_REACTORS
330
5D
102
}
330
21
100
AcDbEntity
  8
HALLE_0_1_UG
  6
Continuous
100
AcDbLine
 10
8652.447517140171
 20
-20347.00047437183
 30
0.0
 11
8852.447517140172
 21
-20347.00047437183
 31
0.0
  0
LINE
  5
12A
102
{ACAD_REACTORS
330
5D
102
}
330
21
100
AcDbEntity
  8
HALLE_0_1_UG
  6
Continuous
100
AcDbLine
 10
8852.447517140172
 20
-20347.00047437183
 30
0.0
 11
8852.447517140172
 21
-20847.00047437184
 31
0.0
  0
LINE
  5
12B
102
{ACAD_REACTORS
330
5D
102
}
330
21
100
AcDbEntity
  8
HALLE_0_1_UG
  6
Continuous
100
AcDbLine
 10
8852.447517140172
 20
-20847.00047437184
 30
0.0
 11
8652.447517140171
 21
-20847.00047437184
 31
0.0
  0
LINE
  5
12C
102
{ACAD_REACTORS
330
5D
102
}
330
21
100
AcDbEntity
  8
HALLE_0_1_UG
  6
Continuous
100
AcDbLine
 10
8652.447517140171
 20
-20847.00047437184
 30
0.0
 11
8652.447517140171
 21
-20347.00047437183
 31
0.0
  0
LINE
  5
12D
102
{ACAD_REACTORS
330
5D
102
}
330
21
100
AcDbEntity
  8
HALLE_0_1_UG
  6
Continuous
100
AcDbLine
 10
15263.44751714017
 20
-20347.00047437183
 30
0.0
 11
15463.44751714017
 21
-20347.00047437183
 31
0.0
  0
LINE
  5
12E
102
{ACAD_REACTORS
330
5D
102
}
330
21
100
AcDbEntity
  8
HALLE_0_1_UG
  6
Continuous
100
AcDbLine
 10
15463.44751714017
 20
-20347.00047437183
 30
0.0
 11
15463.44751714017
 21
-20847.00047437184
 31
0.0
  0
LINE
  5
12F
102
{ACAD_REACTORS
330
5D
102
}
330
21
100
AcDbEntity
  8
HALLE_0_1_UG
  6
Continuous
100
AcDbLine
 10
15463.44751714017
 20
-20847.00047437184
 30
0.0
 11
15263.44751714017
 21
-20847.00047437184
 31
0.0
  0
LINE
  5
130
102
{ACAD_REACTORS
330
5D
102
}
330
21
100
AcDbEntity
  8
HALLE_0_1_UG
  6
Continuous
100
AcDbLine
 10
15263.44751714017
 20
-20847.00047437184
 30
0.0
 11
15263.44751714017
 21
-20347.00047437183
 31
0.0
  0
LINE
  5
131
102
{ACAD_REACTORS
330
5D
102
}
330
21
100
AcDbEntity
  8
HALLE_0_1_UG
  6
Continuous
100
AcDbLine
 10
21874.44751714017
 20
-20347.00047437183
 30
0.0
 11
22074.44751714017
 21
-20347.00047437183
 31
0.0
  0
LINE
  5
132
102
{ACAD_REACTORS
330
5D
102
}
330
21
100
AcDbEntity
  8
HALLE_0_1_UG
  6
Continuous
100
AcDbLine
 10
22074.44751714017
 20
-20347.00047437183
 30
0.0
 11
22074.44751714017
 21
-20847.00047437184
 31
0.0
  0
LINE
  5
133
102
{ACAD_REACTORS
330
5D
102
}
330
21
100
AcDbEntity
  8
HALLE_0_1_UG
  6
Continuous
100
AcDbLine
 10
22074.44751714017
 20
-20847.00047437184
 30
0.0
 11
21874.44751714017
 21
-20847.00047437184
 31
0.0
  0
LINE
  5
134
102
{ACAD_REACTORS
330
5D
102
}
330
21
100
AcDbEntity
  8
HALLE_0_1_UG
  6
Continuous
100
AcDbLine
 10
21874.44751714017
 20
-20847.00047437184
 30
0.0
 11
21874.44751714017
 21
-20347.00047437183
 31
0.0
  0
LINE
  5
135
102
{ACAD_REACTORS
330
5D
102
}
330
21
100
AcDbEntity
  8
HALLE_0_1_UG
  6
Continuous
100
AcDbLine
 10
28485.44751714017
 20
-20347.00047437183
 30
0.0
 11
28685.44751714018
 21
-20347.00047437183
 31
0.0
  0
LINE
  5
136
102
{ACAD_REACTORS
330
5D
102
}
330
21
100
AcDbEntity
  8
HALLE_0_1_UG
  6
Continuous
100
AcDbLine
 10
28685.44751714018
 20
-20347.00047437183
 30
0.0
 11
28685.44751714018
 21
-20847.00047437184
 31
0.0
  0
LINE
  5
137
102
{ACAD_REACTORS
330
5D
102
}
330
21
100
AcDbEntity
  8
HALLE_0_1_UG
  6
Continuous
100
AcDbLine
 10
28685.44751714018
 20
-20847.00047437184
 30
0.0
 11
28485.44751714017
 21
-20847.00047437184
 31
0.0
  0
LINE
  5
138
102
{ACAD_REACTORS
330
5D
102
}
330
21
100
AcDbEntity
  8
HALLE_0_1_UG
  6
Continuous
100
AcDbLine
 10
28485.44751714017
 20
-20847.00047437184
 30
0.0
 11
28485.44751714017
 21
-20347.00047437183
 31
0.0
  0
LINE
  5
139
102
{ACAD_REACTORS
330
5D
102
}
330
21
100
AcDbEntity
  8
HALLE_0_1_UG
  6
Continuous
100
AcDbLine
 10
35096.44751714017
 20
-20347.00047437183
 30
0.0
 11
35296.44751714017
 21
-20347.00047437183
 31
0.0
  0
LINE
  5
13A
102
{ACAD_REACTORS
330
5D
102
}
330
21
100
AcDbEntity
  8
HALLE_0_1_UG
  6
Continuous
100
AcDbLine
 10
35296.44751714017
 20
-20347.00047437183
 30
0.0
 11
35296.44751714017
 21
-20847.00047437184
 31
0.0
  0
LINE
  5
13B
102
{ACAD_REACTORS
330
5D
102
}
330
21
100
AcDbEntity
  8
HALLE_0_1_UG
  6
Continuous
100
AcDbLine
 10
35296.44751714017
 20
-20847.00047437184
 30
0.0
 11
35096.44751714017
 21
-20847.00047437184
 31
0.0
  0
LINE
  5
13C
102
{ACAD_REACTORS
330
5D
102
}
330
21
100
AcDbEntity
  8
HALLE_0_1_UG
  6
Continuous
100
AcDbLine
 10
35096.44751714017
 20
-20847.00047437184
 30
0.0
 11
35096.44751714017
 21
-20347.00047437183
 31
0.0
  0
LINE
  5
13D
102
{ACAD_REACTORS
330
5D
102
}
330
21
100
AcDbEntity
  8
HALLE_0_1_UG
  6
Continuous
100
AcDbLine
 10
41707.44751714017
 20
-20347.00047437183
 30
0.0
 11
41907.44751714017
 21
-20347.00047437183
 31
0.0
  0
LINE
  5
13E
102
{ACAD_REACTORS
330
5D
102
}
330
21
100
AcDbEntity
  8
HALLE_0_1_UG
  6
Continuous
100
AcDbLine
 10
41907.44751714017
 20
-20347.00047437183
 30
0.0
 11
41907.44751714017
 21
-20847.00047437184
 31
0.0
  0
LINE
  5
13F
102
{ACAD_REACTORS
330
5D
102
}
330
21
100
AcDbEntity
  8
HALLE_0_1_UG
  6
Continuous
100
AcDbLine
 10
41907.44751714017
 20
-20847.00047437184
 30
0.0
 11
41707.44751714017
 21
-20847.00047437184
 31
0.0
  0
LINE
  5
140
102
{ACAD_REACTORS
330
5D
102
}
330
21
100
AcDbEntity
  8
HALLE_0_1_UG
  6
Continuous
100
AcDbLine
 10
41707.44751714017
 20
-20847.00047437184
 30
0.0
 11
41707.44751714017
 21
-20347.00047437183
 31
0.0
  0
LINE
  5
141
102
{ACAD_REACTORS
330
5D
102
}
330
21
100
AcDbEntity
  8
HALLE_0_1_UG
  6
Continuous
100
AcDbLine
 10
2041.44751714017
 20
-14514.00047437182
 30
0.0
 11
2241.44751714017
 21
-14514.00047437182
 31
0.0
  0
LINE
  5
142
102
{ACAD_REACTORS
330
5D
102
}
330
21
100
AcDbEntity
  8
HALLE_0_1_UG
  6
Continuous
100
AcDbLine
 10
2241.44751714017
 20
-14514.00047437182
 30
0.0
 11
2241.44751714017
 21
-15014.00047437182
 31
0.0
  0
LINE
  5
143
102
{ACAD_REACTORS
330
5D
102
}
330
21
100
AcDbEntity
  8
HALLE_0_1_UG
  6
Continuous
100
AcDbLine
 10
2241.44751714017
 20
-15014.00047437182
 30
0.0
 11
2041.44751714017
 21
-15014.00047437182
 31
0.0
  0
LINE
  5
144
102
{ACAD_REACTORS
330
5D
102
}
330
21
100
AcDbEntity
  8
HALLE_0_1_UG
  6
Continuous
100
AcDbLine
 10
2041.44751714017
 20
-15014.00047437182
 30
0.0
 11
2041.44751714017
 21
-14514.00047437182
 31
0.0
  0
LINE
  5
145
102
{ACAD_REACTORS
330
5D
102
}
330
21
100
AcDbEntity
  8
HALLE_0_1_UG
  6
Continuous
100
AcDbLine
 10
8652.447517140171
 20
-14514.00047437182
 30
0.0
 11
8852.447517140172
 21
-14514.00047437182
 31
0.0
  0
LINE
  5
146
102
{ACAD_REACTORS
330
5D
102
}
330
21
100
AcDbEntity
  8
HALLE_0_1_UG
  6
Continuous
100
AcDbLine
 10
8852.447517140172
 20
-14514.00047437182
 30
0.0
 11
8852.447517140172
 21
-15014.00047437182
 31
0.0
  0
LINE
  5
147
102
{ACAD_REACTORS
330
5D
102
}
330
21
100
AcDbEntity
  8
HALLE_0_1_UG
  6
Continuous
100
AcDbLine
 10
8852.447517140172
 20
-15014.00047437182
 30
0.0
 11
8652.447517140171
 21
-15014.00047437182
 31
0.0
  0
LINE
  5
148
102
{ACAD_REACTORS
330
5D
102
}
330
21
100
AcDbEntity
  8
HALLE_0_1_UG
  6
Continuous
100
AcDbLine
 10
8652.447517140171
 20
-15014.00047437182
 30
0.0
 11
8652.447517140171
 21
-14514.00047437182
 31
0.0
  0
LINE
  5
149
102
{ACAD_REACTORS
330
5D
102
}
330
21
100
AcDbEntity
  8
HALLE_0_1_UG
  6
Continuous
100
AcDbLine
 10
15263.44751714017
 20
-14514.00047437182
 30
0.0
 11
15463.44751714017
 21
-14514.00047437182
 31
0.0
  0
LINE
  5
14A
102
{ACAD_REACTORS
330
5D
102
}
330
21
100
AcDbEntity
  8
HALLE_0_1_UG
  6
Continuous
100
AcDbLine
 10
15463.44751714017
 20
-14514.00047437182
 30
0.0
 11
15463.44751714017
 21
-15014.00047437182
 31
0.0
  0
LINE
  5
14B
102
{ACAD_REACTORS
330
5D
102
}
330
21
100
AcDbEntity
  8
HALLE_0_1_UG
  6
Continuous
100
AcDbLine
 10
15463.44751714017
 20
-15014.00047437182
 30
0.0
 11
15263.44751714017
 21
-15014.00047437182
 31
0.0
  0
LINE
  5
14C
102
{ACAD_REACTORS
330
5D
102
}
330
21
100
AcDbEntity
  8
HALLE_0_1_UG
  6
Continuous
100
AcDbLine
 10
15263.44751714017
 20
-15014.00047437182
 30
0.0
 11
15263.44751714017
 21
-14514.00047437182
 31
0.0
  0
LINE
  5
14D
102
{ACAD_REACTORS
330
5D
102
}
330
21
100
AcDbEntity
  8
HALLE_0_1_UG
  6
Continuous
100
AcDbLine
 10
21874.44751714017
 20
-14514.00047437182
 30
0.0
 11
22074.44751714017
 21
-14514.00047437182
 31
0.0
  0
LINE
  5
14E
102
{ACAD_REACTORS
330
5D
102
}
330
21
100
AcDbEntity
  8
HALLE_0_1_UG
  6
Continuous
100
AcDbLine
 10
22074.44751714017
 20
-14514.00047437182
 30
0.0
 11
22074.44751714017
 21
-15014.00047437182
 31
0.0
  0
LINE
  5
14F
102
{ACAD_REACTORS
330
5D
102
}
330
21
100
AcDbEntity
  8
HALLE_0_1_UG
  6
Continuous
100
AcDbLine
 10
22074.44751714017
 20
-15014.00047437182
 30
0.0
 11
21874.44751714017
 21
-15014.00047437182
 31
0.0
  0
LINE
  5
150
102
{ACAD_REACTORS
330
5D
102
}
330
21
100
AcDbEntity
  8
HALLE_0_1_UG
  6
Continuous
100
AcDbLine
 10
21874.44751714017
 20
-15014.00047437182
 30
0.0
 11
21874.44751714017
 21
-14514.00047437182
 31
0.0
  0
LINE
  5
151
102
{ACAD_REACTORS
330
5D
102
}
330
21
100
AcDbEntity
  8
HALLE_0_1_UG
  6
Continuous
100
AcDbLine
 10
28485.44751714017
 20
-14514.00047437182
 30
0.0
 11
28685.44751714018
 21
-14514.00047437182
 31
0.0
  0
LINE
  5
152
102
{ACAD_REACTORS
330
5D
102
}
330
21
100
AcDbEntity
  8
HALLE_0_1_UG
  6
Continuous
100
AcDbLine
 10
28685.44751714018
 20
-14514.00047437182
 30
0.0
 11
28685.44751714018
 21
-15014.00047437182
 31
0.0
  0
LINE
  5
153
102
{ACAD_REACTORS
330
5D
102
}
330
21
100
AcDbEntity
  8
HALLE_0_1_UG
  6
Continuous
100
AcDbLine
 10
28685.44751714018
 20
-15014.00047437182
 30
0.0
 11
28485.44751714017
 21
-15014.00047437182
 31
0.0
  0
LINE
  5
154
102
{ACAD_REACTORS
330
5D
102
}
330
21
100
AcDbEntity
  8
HALLE_0_1_UG
  6
Continuous
100
AcDbLine
 10
28485.44751714017
 20
-15014.00047437182
 30
0.0
 11
28485.44751714017
 21
-14514.00047437182
 31
0.0
  0
LINE
  5
155
102
{ACAD_REACTORS
330
5D
102
}
330
21
100
AcDbEntity
  8
HALLE_0_1_UG
  6
Continuous
100
AcDbLine
 10
35096.44751714017
 20
-14514.00047437182
 30
0.0
 11
35296.44751714017
 21
-14514.00047437182
 31
0.0
  0
LINE
  5
156
102
{ACAD_REACTORS
330
5D
102
}
330
21
100
AcDbEntity
  8
HALLE_0_1_UG
  6
Continuous
100
AcDbLine
 10
35296.44751714017
 20
-14514.00047437182
 30
0.0
 11
35296.44751714017
 21
-15014.00047437182
 31
0.0
  0
LINE
  5
157
102
{ACAD_REACTORS
330
5D
102
}
330
21
100
AcDbEntity
  8
HALLE_0_1_UG
  6
Continuous
100
AcDbLine
 10
35296.44751714017
 20
-15014.00047437182
 30
0.0
 11
35096.44751714017
 21
-15014.00047437182
 31
0.0
  0
LINE
  5
158
102
{ACAD_REACTORS
330
5D
102
}
330
21
100
AcDbEntity
  8
HALLE_0_1_UG
  6
Continuous
100
AcDbLine
 10
35096.44751714017
 20
-15014.00047437182
 30
0.0
 11
35096.44751714017
 21
-14514.00047437182
 31
0.0
  0
LINE
  5
159
102
{ACAD_REACTORS
330
5D
102
}
330
21
100
AcDbEntity
  8
HALLE_0_1_UG
  6
Continuous
100
AcDbLine
 10
41707.44751714017
 20
-14514.00047437182
 30
0.0
 11
41907.44751714017
 21
-14514.00047437182
 31
0.0
  0
LINE
  5
15A
102
{ACAD_REACTORS
330
5D
102
}
330
21
100
AcDbEntity
  8
HALLE_0_1_UG
  6
Continuous
100
AcDbLine
 10
41907.44751714017
 20
-14514.00047437182
 30
0.0
 11
41907.44751714017
 21
-15014.00047437182
 31
0.0
  0
LINE
  5
15B
102
{ACAD_REACTORS
330
5D
102
}
330
21
100
AcDbEntity
  8
HALLE_0_1_UG
  6
Continuous
100
AcDbLine
 10
41907.44751714017
 20
-15014.00047437182
 30
0.0
 11
41707.44751714017
 21
-15014.00047437182
 31
0.0
  0
LINE
  5
15C
102
{ACAD_REACTORS
330
5D
102
}
330
21
100
AcDbEntity
  8
HALLE_0_1_UG
  6
Continuous
100
AcDbLine
 10
41707.44751714017
 20
-15014.00047437182
 30
0.0
 11
41707.44751714017
 21
-14514.00047437182
 31
0.0
  0
LINE
  5
15D
102
{ACAD_REACTORS
330
5D
102
}
330
21
100
AcDbEntity
  8
HALLE_0_1_UG
  6
Continuous
100
AcDbLine
 10
2041.44751714017
 20
-8681.000474371824
 30
0.0
 11
2241.44751714017
 21
-8681.000474371824
 31
0.0
  0
LINE
  5
15E
102
{ACAD_REACTORS
330
5D
102
}
330
21
100
AcDbEntity
  8
HALLE_0_1_UG
  6
Continuous
100
AcDbLine
 10
2241.44751714017
 20
-8681.000474371824
 30
0.0
 11
2241.44751714017
 21
-9181.000474371826
 31
0.0
  0
LINE
  5
15F
102
{ACAD_REACTORS
330
5D
102
}
330
21
100
AcDbEntity
  8
HALLE_0_1_UG
  6
Continuous
100
AcDbLine
 10
2241.44751714017
 20
-9181.000474371826
 30
0.0
 11
2041.44751714017
 21
-9181.000474371826
 31
0.0
  0
LINE
  5
160
102
{ACAD_REACTORS
330
5D
102
}
330
21
100
AcDbEntity
  8
HALLE_0_1_UG
  6
Continuous
100
AcDbLine
 10
2041.44751714017
 20
-9181.000474371826
 30
0.0
 11
2041.44751714017
 21
-8681.000474371824
 31
0.0
  0
LINE
  5
161
102
{ACAD_REACTORS
330
5D
102
}
330
21
100
AcDbEntity
  8
HALLE_0_1_UG
  6
Continuous
100
AcDbLine
 10
8652.447517140171
 20
-8681.000474371824
 30
0.0
 11
8852.447517140172
 21
-8681.000474371824
 31
0.0
  0
LINE
  5
162
102
{ACAD_REACTORS
330
5D
102
}
330
21
100
AcDbEntity
  8
HALLE_0_1_UG
  6
Continuous
100
AcDbLine
 10
8852.447517140172
 20
-8681.000474371824
 30
0.0
 11
8852.447517140172
 21
-9181.000474371826
 31
0.0
  0
LINE
  5
163
102
{ACAD_REACTORS
330
5D
102
}
330
21
100
AcDbEntity
  8
HALLE_0_1_UG
  6
Continuous
100
AcDbLine
 10
8852.447517140172
 20
-9181.000474371826
 30
0.0
 11
8652.447517140171
 21
-9181.000474371826
 31
0.0
  0
LINE
  5
164
102
{ACAD_REACTORS
330
5D
102
}
330
21
100
AcDbEntity
  8
HALLE_0_1_UG
  6
Continuous
100
AcDbLine
 10
8652.447517140171
 20
-9181.000474371826
 30
0.0
 11
8652.447517140171
 21
-8681.000474371824
 31
0.0
  0
LINE
  5
165
102
{ACAD_REACTORS
330
5D
102
}
330
21
100
AcDbEntity
  8
HALLE_0_1_UG
  6
Continuous
100
AcDbLine
 10
15263.44751714017
 20
-8681.000474371824
 30
0.0
 11
15463.44751714017
 21
-8681.000474371824
 31
0.0
  0
LINE
  5
166
102
{ACAD_REACTORS
330
5D
102
}
330
21
100
AcDbEntity
  8
HALLE_0_1_UG
  6
Continuous
100
AcDbLine
 10
15463.44751714017
 20
-8681.000474371824
 30
0.0
 11
15463.44751714017
 21
-9181.000474371826
 31
0.0
  0
LINE
  5
167
102
{ACAD_REACTORS
330
5D
102
}
330
21
100
AcDbEntity
  8
HALLE_0_1_UG
  6
Continuous
100
AcDbLine
 10
15463.44751714017
 20
-9181.000474371826
 30
0.0
 11
15263.44751714017
 21
-9181.000474371826
 31
0.0
  0
LINE
  5
168
102
{ACAD_REACTORS
330
5D
102
}
330
21
100
AcDbEntity
  8
HALLE_0_1_UG
  6
Continuous
100
AcDbLine
 10
15263.44751714017
 20
-9181.000474371826
 30
0.0
 11
15263.44751714017
 21
-8681.000474371824
 31
0.0
  0
LINE
  5
169
102
{ACAD_REACTORS
330
5D
102
}
330
21
100
AcDbEntity
  8
HALLE_0_1_UG
  6
Continuous
100
AcDbLine
 10
21874.44751714017
 20
-8681.000474371824
 30
0.0
 11
22074.44751714017
 21
-8681.000474371824
 31
0.0
  0
LINE
  5
16A
102
{ACAD_REACTORS
330
5D
102
}
330
21
100
AcDbEntity
  8
HALLE_0_1_UG
  6
Continuous
100
AcDbLine
 10
22074.44751714017
 20
-8681.000474371824
 30
0.0
 11
22074.44751714017
 21
-9181.000474371826
 31
0.0
  0
LINE
  5
16B
102
{ACAD_REACTORS
330
5D
102
}
330
21
100
AcDbEntity
  8
HALLE_0_1_UG
  6
Continuous
100
AcDbLine
 10
22074.44751714017
 20
-9181.000474371826
 30
0.0
 11
21874.44751714017
 21
-9181.000474371826
 31
0.0
  0
LINE
  5
16C
102
{ACAD_REACTORS
330
5D
102
}
330
21
100
AcDbEntity
  8
HALLE_0_1_UG
  6
Continuous
100
AcDbLine
 10
21874.44751714017
 20
-9181.000474371826
 30
0.0
 11
21874.44751714017
 21
-8681.000474371824
 31
0.0
  0
LINE
  5
16D
102
{ACAD_REACTORS
330
5D
102
}
330
21
100
AcDbEntity
  8
HALLE_0_1_UG
  6
Continuous
100
AcDbLine
 10
28485.44751714017
 20
-8681.000474371824
 30
0.0
 11
28685.44751714018
 21
-8681.000474371824
 31
0.0
  0
LINE
  5
16E
102
{ACAD_REACTORS
330
5D
102
}
330
21
100
AcDbEntity
  8
HALLE_0_1_UG
  6
Continuous
100
AcDbLine
 10
28685.44751714018
 20
-8681.000474371824
 30
0.0
 11
28685.44751714018
 21
-9181.000474371826
 31
0.0
  0
LINE
  5
16F
102
{ACAD_REACTORS
330
5D
102
}
330
21
100
AcDbEntity
  8
HALLE_0_1_UG
  6
Continuous
100
AcDbLine
 10
28685.44751714018
 20
-9181.000474371826
 30
0.0
 11
28485.44751714017
 21
-9181.000474371826
 31
0.0
  0
LINE
  5
170
102
{ACAD_REACTORS
330
5D
102
}
330
21
100
AcDbEntity
  8
HALLE_0_1_UG
  6
Continuous
100
AcDbLine
 10
28485.44751714017
 20
-9181.000474371826
 30
0.0
 11
28485.44751714017
 21
-8681.000474371824
 31
0.0
  0
LINE
  5
171
102
{ACAD_REACTORS
330
5D
102
}
330
21
100
AcDbEntity
  8
HALLE_0_1_UG
  6
Continuous
100
AcDbLine
 10
35096.44751714017
 20
-8681.000474371824
 30
0.0
 11
35296.44751714017
 21
-8681.000474371824
 31
0.0
  0
LINE
  5
172
102
{ACAD_REACTORS
330
5D
102
}
330
21
100
AcDbEntity
  8
HALLE_0_1_UG
  6
Continuous
100
AcDbLine
 10
35296.44751714017
 20
-8681.000474371824
 30
0.0
 11
35296.44751714017
 21
-9181.000474371826
 31
0.0
  0
LINE
  5
173
102
{ACAD_REACTORS
330
5D
102
}
330
21
100
AcDbEntity
  8
HALLE_0_1_UG
  6
Continuous
100
AcDbLine
 10
35296.44751714017
 20
-9181.000474371826
 30
0.0
 11
35096.44751714017
 21
-9181.000474371826
 31
0.0
  0
LINE
  5
174
102
{ACAD_REACTORS
330
5D
102
}
330
21
100
AcDbEntity
  8
HALLE_0_1_UG
  6
Continuous
100
AcDbLine
 10
35096.44751714017
 20
-9181.000474371826
 30
0.0
 11
35096.44751714017
 21
-8681.000474371824
 31
0.0
  0
LINE
  5
175
102
{ACAD_REACTORS
330
5D
102
}
330
21
100
AcDbEntity
  8
HALLE_0_1_UG
  6
Continuous
100
AcDbLine
 10
2041.44751714017
 20
-26180.00047437183
 30
0.0
 11
2241.44751714017
 21
-26180.00047437183
 31
0.0
  0
LINE
  5
176
102
{ACAD_REACTORS
330
5D
102
}
330
21
100
AcDbEntity
  8
HALLE_0_1_UG
  6
Continuous
100
AcDbLine
 10
2241.44751714017
 20
-26180.00047437183
 30
0.0
 11
2241.44751714017
 21
-26680.00047437183
 31
0.0
  0
LINE
  5
177
102
{ACAD_REACTORS
330
5D
102
}
330
21
100
AcDbEntity
  8
HALLE_0_1_UG
  6
Continuous
100
AcDbLine
 10
2241.44751714017
 20
-26680.00047437183
 30
0.0
 11
2041.44751714017
 21
-26680.00047437183
 31
0.0
  0
LINE
  5
178
102
{ACAD_REACTORS
330
5D
102
}
330
21
100
AcDbEntity
  8
HALLE_0_1_UG
  6
Continuous
100
AcDbLine
 10
2041.44751714017
 20
-26680.00047437183
 30
0.0
 11
2041.44751714017
 21
-26180.00047437183
 31
0.0
  0
LINE
  5
179
102
{ACAD_REACTORS
330
5D
102
}
330
21
100
AcDbEntity
  8
HALLE_0_1_UG
  6
Continuous
100
AcDbLine
 10
15455.0159118727
 20
-6444.614443084454
 30
0.0
 11
15355.0159118727
 21
-6444.614443084454
 31
0.0
  0
LINE
  5
17A
102
{ACAD_REACTORS
330
5D
102
}
330
21
100
AcDbEntity
  8
HALLE_0_1_UG
  6
Continuous
100
AcDbLine
 10
-2688.984088127299
 20
-23404.61444308857
 30
0.0
 11
-2688.984088127299
 21
-23204.61444308857
 31
0.0
  0
LINE
  5
17B
102
{ACAD_REACTORS
330
5D
102
}
330
21
100
AcDbEntity
  8
HALLE_0_1_UG
  6
Continuous
100
AcDbLine
 10
-2538.9840881273
 20
-23404.61444308857
 30
0.0
 11
-2538.9840881273
 21
-23054.61444308857
 31
0.0
  0
LINE
  5
17C
102
{ACAD_REACTORS
330
5D
102
}
330
21
100
AcDbEntity
  8
HALLE_0_1_UG
  6
Continuous
100
AcDbLine
 10
-2538.9840881273
 20
-23404.61444308857
 30
0.0
 11
-2688.984088127299
 21
-23404.61444308857
 31
0.0
  0
LINE
  5
17D
102
{ACAD_REACTORS
330
5D
102
}
330
21
100
AcDbEntity
  8
HALLE_0_1_UG
  6
Continuous
100
AcDbLine
 10
-2688.984088127299
 20
-23204.61444308857
 30
0.0
 11
-4288.984088127299
 21
-23204.61444308857
 31
0.0
  0
LINE
  5
17E
102
{ACAD_REACTORS
330
5D
102
}
330
21
100
AcDbEntity
  8
HALLE_0_1_UG
  6
Continuous
100
AcDbLine
 10
-2538.9840881273
 20
-23054.61444308857
 30
0.0
 11
-4438.984088127299
 21
-23054.61444308857
 31
0.0
  0
LINE
  5
17F
102
{ACAD_REACTORS
330
5D
102
}
330
21
100
AcDbEntity
  8
HALLE_0_1_UG
  6
Continuous
100
AcDbLine
 10
-4288.984088127299
 20
-23204.61444308857
 30
0.0
 11
-4288.984088127299
 21
-24804.61444308445
 31
0.0
  0
LINE
  5
180
102
{ACAD_REACTORS
330
5D
102
}
330
21
100
AcDbEntity
  8
HALLE_0_1_UG
  6
Continuous
100
AcDbLine
 10
-4438.984088127299
 20
-23054.61444308857
 30
0.0
 11
-4438.984088127299
 21
-24954.61444308446
 31
0.0
  0
LINE
  5
181
102
{ACAD_REACTORS
330
5D
102
}
330
21
100
AcDbEntity
  8
HALLE_0_1_UG
  6
Continuous
100
AcDbLine
 10
-4288.984088127299
 20
-24804.61444308445
 30
0.0
 11
-2688.984088127299
 21
-24804.61444308445
 31
0.0
  0
LINE
  5
182
102
{ACAD_REACTORS
330
5D
102
}
330
21
100
AcDbEntity
  8
HALLE_0_1_UG
  6
Continuous
100
AcDbLine
 10
-4438.984088127299
 20
-24954.61444308446
 30
0.0
 11
-2538.9840881273
 21
-24954.61444308446
 31
0.0
  0
LINE
  5
183
102
{ACAD_REACTORS
330
5D
102
}
330
21
100
AcDbEntity
  8
HALLE_0_1_UG
  6
Continuous
100
AcDbLine
 10
-2538.9840881273
 20
-24604.61444308446
 30
0.0
 11
-2688.984088127299
 21
-24604.61444308446
 31
0.0
  0
LINE
  5
184
102
{ACAD_REACTORS
330
5D
102
}
330
21
100
AcDbEntity
  8
HALLE_0_1_UG
  6
Continuous
100
AcDbLine
 10
-2688.984088127299
 20
-24804.61444308445
 30
0.0
 11
-2688.984088127299
 21
-24604.61444308446
 31
0.0
  0
LINE
  5
185
102
{ACAD_REACTORS
330
5D
102
}
330
21
100
AcDbEntity
  8
HALLE_0_1_UG
  6
Continuous
100
AcDbLine
 10
-2538.9840881273
 20
-24954.61444308446
 30
0.0
 11
-2538.9840881273
 21
-24604.61444308446
 31
0.0
  0
LINE
  5
186
102
{ACAD_REACTORS
330
5D
102
}
330
21
100
AcDbEntity
  8
HALLE_0_1_UG
  6
Continuous
100
AcDbLine
 10
-4388.984088127299
 20
-25704.61444308445
 30
0.0
 11
-2588.984088127299
 21
-25704.61444308445
 31
0.0
  0
LINE
  5
187
102
{ACAD_REACTORS
330
5D
102
}
330
21
100
AcDbEntity
  8
HALLE_0_1_UG
  6
Continuous
100
AcDbLine
 10
-2588.984088127299
 20
-25704.61444308445
 30
0.0
 11
-2888.9840881273
 21
-26454.61444308446
 31
0.0
  0
LINE
  5
188
102
{ACAD_REACTORS
330
5D
102
}
330
21
100
AcDbEntity
  8
HALLE_0_1_UG
  6
Continuous
100
AcDbLine
 10
-2588.984088127299
 20
-25704.61444308445
 30
0.0
 11
-2888.9840881273
 21
-24954.61444308445
 31
0.0
  0
LINE
  5
189
102
{ACAD_REACTORS
330
5D
102
}
330
21
100
AcDbEntity
  8
HALLE_0_1_UG
  6
Continuous
100
AcDbLine
 10
-5188.984088127299
 20
-24904.61444308652
 30
0.0
 11
-5188.984088127299
 21
-23104.61444308652
 31
0.0
  0
LINE
  5
18A
102
{ACAD_REACTORS
330
5D
102
}
330
21
100
AcDbEntity
  8
HALLE_0_1_UG
  6
Continuous
100
AcDbLine
 10
-5938.984088127299
 20
-24604.61444308652
 30
0.0
 11
-5188.984088127299
 21
-24904.61444308652
 31
0.0
  0
LINE
  5
18B
102
{ACAD_REACTORS
330
5D
102
}
330
21
100
AcDbEntity
  8
HALLE_0_1_UG
  6
Continuous
100
AcDbLine
 10
-5188.984088127299
 20
-24904.61444308652
 30
0.0
 11
-4438.984088127299
 21
-24604.61444308652
 31
0.0
  0
LINE
  5
18C
102
{ACAD_REACTORS
330
5D
102
}
330
21
100
AcDbEntity
  8
HALLE_0_1_UG
  6
Continuous
100
AcDbLine
 10
-4388.984088127299
 20
-22304.61444308856
 30
0.0
 11
-2588.984088127299
 21
-22304.61444308856
 31
0.0
  0
LINE
  5
18D
102
{ACAD_REACTORS
330
5D
102
}
330
21
100
AcDbEntity
  8
HALLE_0_1_UG
  6
Continuous
100
AcDbLine
 10
-4388.984088127299
 20
-22304.61444308856
 30
0.0
 11
-4088.9840881273
 21
-23054.61444308856
 31
0.0
  0
LINE
  5
18E
102
{ACAD_REACTORS
330
5D
102
}
330
21
100
AcDbEntity
  8
HALLE_0_1_UG
  6
Continuous
100
AcDbLine
 10
-4388.984088127299
 20
-22304.61444308856
 30
0.0
 11
-4088.9840881273
 21
-21554.61444308856
 31
0.0
  0
LINE
  5
18F
102
{ACAD_REACTORS
330
5D
102
}
330
21
100
AcDbEntity
  8
HALLE_0_1_UG
  6
Continuous
100
AcDbLine
 10
2861.0159118727
 20
-32644.61444308445
 30
0.0
 11
3011.0159118727
 21
-32644.61444308445
 31
0.0
  0
LINE
  5
190
102
{ACAD_REACTORS
330
5D
102
}
330
21
100
AcDbEntity
  8
HALLE_0_1_UG
  6
Continuous
100
AcDbLine
 10
3011.0159118727
 20
-32644.61444308445
 30
0.0
 11
3011.0159118727
 21
-36144.61444308446
 31
0.0
  0
LINE
  5
191
102
{ACAD_REACTORS
330
5D
102
}
330
21
100
AcDbEntity
  8
HALLE_0_1_UG
  6
Continuous
100
AcDbLine
 10
3011.0159118727
 20
-36144.61444308446
 30
0.0
 11
2861.0159118727
 21
-36144.61444308446
 31
0.0
  0
LINE
  5
192
102
{ACAD_REACTORS
330
5D
102
}
330
21
100
AcDbEntity
  8
HALLE_0_1_UG
  6
Continuous
100
AcDbLine
 10
2861.0159118727
 20
-36144.61444308446
 30
0.0
 11
2861.0159118727
 21
-32644.61444308445
 31
0.0
  0
LINE
  5
193
102
{ACAD_REACTORS
330
5D
102
}
330
21
100
AcDbEntity
  8
HALLE_0_1_UG
  6
Continuous
100
AcDbLine
 10
43611.01591187799
 20
-11594.72785995675
 30
0.0
 11
45431.01591187799
 21
-11594.72785995573
 31
0.0
  0
LINE
  5
194
102
{ACAD_REACTORS
330
5D
102
}
330
21
100
AcDbEntity
  8
HALLE_0_1_UG
  6
Continuous
100
AcDbLine
 10
45431.01591187799
 20
-11594.72785995573
 30
0.0
 11
45171.01591187799
 21
-10844.72785995573
 31
0.0
  0
LINE
  5
195
102
{ACAD_REACTORS
330
5D
102
}
330
21
100
AcDbEntity
  8
HALLE_0_1_UG
  6
Continuous
100
AcDbLine
 10
45431.01591187799
 20
-11594.72785995573
 30
0.0
 11
45171.01591187799
 21
-12344.72785995572
 31
0.0
  0
LINE
  5
196
102
{ACAD_REACTORS
330
5D
102
}
330
21
100
AcDbEntity
  8
HALLE_0_1_UG
  6
Continuous
100
AcDbLine
 10
42711.01591187799
 20
-9114.614443093762
 30
0.0
 11
42711.01591187799
 21
-10674.61444309376
 31
0.0
  0
LINE
  5
197
102
{ACAD_REACTORS
330
5D
102
}
330
21
100
AcDbEntity
  8
HALLE_0_1_UG
  6
Continuous
100
AcDbLine
 10
42711.01591187799
 20
-10674.61444309376
 30
0.0
 11
43461.01591187799
 21
-10414.61444309376
 31
0.0
  0
LINE
  5
198
102
{ACAD_REACTORS
330
5D
102
}
330
21
100
AcDbEntity
  8
HALLE_0_1_UG
  6
Continuous
100
AcDbLine
 10
42711.01591187799
 20
-10674.61444309376
 30
0.0
 11
41961.015911878
 21
-10414.61444309376
 31
0.0
  0
LINE
  5
199
102
{ACAD_REACTORS
330
5D
102
}
330
21
100
AcDbEntity
  8
HALLE_0_1_UG
  6
Continuous
100
AcDbLine
 10
45431.01591187799
 20
-8194.614443084454
 30
0.0
 11
44131.015911878
 21
-8194.614443084454
 31
0.0
  0
LINE
  5
19A
102
{ACAD_REACTORS
330
5D
102
}
330
21
100
AcDbEntity
  8
HALLE_0_1_UG
  6
Continuous
100
AcDbLine
 10
44131.015911878
 20
-8194.614443084454
 30
0.0
 11
44391.015911878
 21
-8944.614443084452
 31
0.0
  0
LINE
  5
19B
102
{ACAD_REACTORS
330
5D
102
}
330
21
100
AcDbEntity
  8
HALLE_0_1_UG
  6
Continuous
100
AcDbLine
 10
44131.015911878
 20
-8194.614443084454
 30
0.0
 11
44391.015911878
 21
-7444.614443084451
 31
0.0
  0
LINE
  5
19C
102
{ACAD_REACTORS
330
5D
102
}
330
21
100
AcDbEntity
  8
HALLE_0_1_UG
  6
Continuous
100
AcDbLine
 10
45431.01591187799
 20
-8984.61444308446
 30
0.0
 11
43501.01591187799
 21
-8984.61444308446
 31
0.0
  0
LINE
  5
19D
102
{ACAD_REACTORS
330
5D
102
}
330
21
100
AcDbEntity
  8
HALLE_0_1_UG
  6
Continuous
100
AcDbLine
 10
43501.01591187799
 20
-8984.61444308446
 30
0.0
 11
43501.01591187799
 21
-10844.72785995573
 31
0.0
  0
LINE
  5
19E
102
{ACAD_REACTORS
330
5D
102
}
330
21
100
AcDbEntity
  8
HALLE_0_1_UG
  6
Continuous
100
AcDbLine
 10
43501.01591187799
 20
-10844.72785995573
 30
0.0
 11
43461.01591187799
 21
-10844.72785995573
 31
0.0
  0
LINE
  5
19F
102
{ACAD_REACTORS
330
5D
102
}
330
21
100
AcDbEntity
  8
HALLE_0_1_UG
  6
Continuous
100
AcDbLine
 10
43461.01591187799
 20
-10844.72785995573
 30
0.0
 11
43461.01591187799
 21
-8944.614443084452
 31
0.0
  0
LINE
  5
1A0
102
{ACAD_REACTORS
330
5D
102
}
330
21
100
AcDbEntity
  8
HALLE_0_1_UG
  6
Continuous
100
AcDbLine
 10
43461.01591187799
 20
-8944.614443084452
 30
0.0
 11
45431.01591187799
 21
-8944.614443084452
 31
0.0
  0
LINE
  5
1A1
102
{ACAD_REACTORS
330
5D
102
}
330
21
100
AcDbEntity
  8
HALLE_0_1_UG
  6
Continuous
100
AcDbLine
 10
45431.01591187799
 20
-8944.614443084452
 30
0.0
 11
45431.01591187799
 21
-8984.61444308446
 31
0.0
  0
LINE
  5
1A2
102
{ACAD_REACTORS
330
5D
102
}
330
21
100
AcDbEntity
  8
HALLE_0_1_UG
  6
Continuous
100
AcDbLine
 10
48211.0159118727
 20
-12784.72785995572
 30
0.0
 11
48411.01591187269
 21
-12784.72785995572
 31
0.0
  0
LINE
  5
1A3
102
{ACAD_REACTORS
330
5D
102
}
330
21
100
AcDbEntity
  8
HALLE_0_1_UG
  6
Continuous
100
AcDbLine
 10
48411.01591187269
 20
-12784.72785995572
 30
0.0
 11
48411.01591187269
 21
-13784.72785995573
 31
0.0
  0
LINE
  5
1A4
102
{ACAD_REACTORS
330
5D
102
}
330
21
100
AcDbEntity
  8
HALLE_0_1_UG
  6
Continuous
100
AcDbLine
 10
48411.01591187269
 20
-13784.72785995573
 30
0.0
 11
48211.0159118727
 21
-13784.72785995573
 31
0.0
  0
LINE
  5
1A5
102
{ACAD_REACTORS
330
5D
102
}
330
21
100
AcDbEntity
  8
HALLE_0_1_UG
  6
Continuous
100
AcDbLine
 10
48211.0159118727
 20
-13784.72785995573
 30
0.0
 11
48211.0159118727
 21
-12784.72785995572
 31
0.0
  0
LINE
  5
1A6
102
{ACAD_REACTORS
330
5D
102
}
330
21
100
AcDbEntity
  8
HALLE_0_1_UG
  6
Continuous
100
AcDbLine
 10
43607.44751714016
 20
-15344.00047437183
 30
0.0
 11
41487.44751714017
 21
-15344.00047437183
 31
0.0
  0
LINE
  5
1A7
102
{ACAD_REACTORS
330
5D
102
}
330
21
100
AcDbEntity
  8
HALLE_0_1_UG
  6
Continuous
100
AcDbLine
 10
41487.44751714017
 20
-15344.00047437183
 30
0.0
 11
41487.44751714017
 21
-18747.00047437183
 31
0.0
  0
LINE
  5
1A8
102
{ACAD_REACTORS
330
5D
102
}
330
21
100
AcDbEntity
  8
HALLE_0_1_UG
  6
Continuous
100
AcDbLine
 10
41487.44751714017
 20
-18747.00047437183
 30
0.0
 11
41437.44751714016
 21
-18747.00047437183
 31
0.0
  0
LINE
  5
1A9
102
{ACAD_REACTORS
330
5D
102
}
330
21
100
AcDbEntity
  8
HALLE_0_1_UG
  6
Continuous
100
AcDbLine
 10
41437.44751714016
 20
-18747.00047437183
 30
0.0
 11
41437.44751714016
 21
-15294.00047437182
 31
0.0
  0
LINE
  5
1AA
102
{ACAD_REACTORS
330
5D
102
}
330
21
100
AcDbEntity
  8
HALLE_0_1_UG
  6
Continuous
100
AcDbLine
 10
41437.44751714016
 20
-15294.00047437182
 30
0.0
 11
43607.44751714016
 21
-15294.00047437182
 31
0.0
  0
LINE
  5
1AB
102
{ACAD_REACTORS
330
5D
102
}
330
21
100
AcDbEntity
  8
HALLE_0_1_UG
  6
Continuous
100
AcDbLine
 10
43607.44751714016
 20
-15294.00047437182
 30
0.0
 11
43607.44751714016
 21
-15344.00047437183
 31
0.0
  0
LINE
  5
1AC
102
{ACAD_REACTORS
330
5D
102
}
330
21
100
AcDbEntity
  8
HALLE_0_1_UG
  6
Continuous
100
AcDbLine
 10
44947.44751714017
 20
-15294.00047437182
 30
0.0
 11
48411.01591187269
 21
-15294.00047437182
 31
0.0
  0
LINE
  5
1AD
102
{ACAD_REACTORS
330
5D
102
}
330
21
100
AcDbEntity
  8
HALLE_0_1_UG
  6
Continuous
100
AcDbLine
 10
48411.01591187269
 20
-15294.00047437182
 30
0.0
 11
48411.01591187269
 21
-15344.00047437183
 31
0.0
  0
LINE
  5
1AE
102
{ACAD_REACTORS
330
5D
102
}
330
21
100
AcDbEntity
  8
HALLE_0_1_UG
  6
Continuous
100
AcDbLine
 10
48411.01591187269
 20
-15344.00047437183
 30
0.0
 11
44947.44751714017
 21
-15344.00047437183
 31
0.0
  0
LINE
  5
1AF
102
{ACAD_REACTORS
330
5D
102
}
330
21
100
AcDbEntity
  8
HALLE_0_1_UG
  6
Continuous
100
AcDbLine
 10
44947.44751714017
 20
-15344.00047437183
 30
0.0
 11
44947.44751714017
 21
-15294.00047437182
 31
0.0
  0
LINE
  5
1B0
102
{ACAD_REACTORS
330
5D
102
}
330
21
100
AcDbEntity
  8
HALLE_0_1_UG
  6
Continuous
100
AcDbLine
 10
41437.44751714016
 20
-20227.00047437183
 30
0.0
 11
41487.44751714017
 21
-20227.00047437183
 31
0.0
  0
LINE
  5
1B1
102
{ACAD_REACTORS
330
5D
102
}
330
21
100
AcDbEntity
  8
HALLE_0_1_UG
  6
Continuous
100
AcDbLine
 10
41487.44751714017
 20
-20227.00047437183
 30
0.0
 11
41487.44751714017
 21
-24490.00047437183
 31
0.0
  0
LINE
  5
1B2
102
{ACAD_REACTORS
330
5D
102
}
330
21
100
AcDbEntity
  8
HALLE_0_1_UG
  6
Continuous
100
AcDbLine
 10
41487.44751714017
 20
-24490.00047437183
 30
0.0
 11
41437.44751714016
 21
-24490.00047437183
 31
0.0
  0
LINE
  5
1B3
102
{ACAD_REACTORS
330
5D
102
}
330
21
100
AcDbEntity
  8
HALLE_0_1_UG
  6
Continuous
100
AcDbLine
 10
41437.44751714016
 20
-24490.00047437183
 30
0.0
 11
41437.44751714016
 21
-20227.00047437183
 31
0.0
  0
LINE
  5
1B4
102
{ACAD_REACTORS
330
5D
102
}
330
21
100
AcDbEntity
  8
HALLE_0_1_UG
  6
Continuous
100
AcDbLine
 10
41437.44751714016
 20
-26110.00047437182
 30
0.0
 11
41487.44751714017
 21
-26110.00047437182
 31
0.0
  0
LINE
  5
1B5
102
{ACAD_REACTORS
330
5D
102
}
330
21
100
AcDbEntity
  8
HALLE_0_1_UG
  6
Continuous
100
AcDbLine
 10
41487.44751714017
 20
-26110.00047437182
 30
0.0
 11
41487.44751714017
 21
-32394.61444308445
 31
0.0
  0
LINE
  5
1B6
102
{ACAD_REACTORS
330
5D
102
}
330
21
100
AcDbEntity
  8
HALLE_0_1_UG
  6
Continuous
100
AcDbLine
 10
41487.44751714017
 20
-32394.61444308445
 30
0.0
 11
41437.44751714016
 21
-32394.61444308445
 31
0.0
  0
LINE
  5
1B7
102
{ACAD_REACTORS
330
5D
102
}
330
21
100
AcDbEntity
  8
HALLE_0_1_UG
  6
Continuous
100
AcDbLine
 10
41437.44751714016
 20
-32394.61444308445
 30
0.0
 11
41437.44751714016
 21
-26110.00047437182
 31
0.0
  0
LINE
  5
1B8
102
{ACAD_REACTORS
330
5D
102
}
330
21
100
AcDbEntity
  8
HALLE_0_1_UG
  6
Continuous
100
AcDbLine
 10
24751.0159118727
 20
-6444.614443084454
 30
0.0
 11
25751.0159118727
 21
-6444.614443084454
 31
0.0
  0
LINE
  5
1B9
102
{ACAD_REACTORS
330
5D
102
}
330
21
100
AcDbEntity
  8
HALLE_0_1_UG
  6
Continuous
100
AcDbLine
 10
25751.0159118727
 20
-6444.614443084454
 30
0.0
 11
25751.0159118727
 21
-6694.614443084454
 31
0.0
  0
LINE
  5
1BA
102
{ACAD_REACTORS
330
5D
102
}
330
21
100
AcDbEntity
  8
HALLE_0_1_UG
  6
Continuous
100
AcDbLine
 10
25751.0159118727
 20
-6694.614443084454
 30
0.0
 11
24751.0159118727
 21
-6694.614443084454
 31
0.0
  0
LINE
  5
1BB
102
{ACAD_REACTORS
330
5D
102
}
330
21
100
AcDbEntity
  8
HALLE_0_1_UG
  6
Continuous
100
AcDbLine
 10
24751.0159118727
 20
-6694.614443084454
 30
0.0
 11
24751.0159118727
 21
-6444.614443084454
 31
0.0
  0
LINE
  5
1BC
102
{ACAD_REACTORS
330
5D
102
}
330
21
100
AcDbEntity
  8
HALLE_0_1_UG
  6
Continuous
100
AcDbLine
 10
24751.0159118727
 20
-6444.614443084454
 30
0.0
 11
25751.0159118727
 21
-6444.614443084454
 31
0.0
  0
LINE
  5
1BD
102
{ACAD_REACTORS
330
5D
102
}
330
21
100
AcDbEntity
  8
HALLE_0_1_UG
  6
Continuous
100
AcDbLine
 10
25751.0159118727
 20
-6444.614443084454
 30
0.0
 11
25751.0159118727
 21
-6504.614443084452
 31
0.0
  0
LINE
  5
1BE
102
{ACAD_REACTORS
330
5D
102
}
330
21
100
AcDbEntity
  8
HALLE_0_1_UG
  6
Continuous
100
AcDbLine
 10
25751.0159118727
 20
-6504.614443084452
 30
0.0
 11
24751.0159118727
 21
-6504.614443084452
 31
0.0
  0
LINE
  5
1BF
102
{ACAD_REACTORS
330
5D
102
}
330
21
100
AcDbEntity
  8
HALLE_0_1_UG
  6
Continuous
100
AcDbLine
 10
24751.0159118727
 20
-6504.614443084452
 30
0.0
 11
24751.0159118727
 21
-6444.614443084454
 31
0.0
  0
LINE
  5
1C0
102
{ACAD_REACTORS
330
5D
102
}
330
21
100
AcDbEntity
  8
HALLE_0_1_UG
  6
Continuous
100
AcDbLine
 10
36661.0159118727
 20
-6444.614443084454
 30
0.0
 11
37661.01591187271
 21
-6444.614443084454
 31
0.0
  0
LINE
  5
1C1
102
{ACAD_REACTORS
330
5D
102
}
330
21
100
AcDbEntity
  8
HALLE_0_1_UG
  6
Continuous
100
AcDbLine
 10
37661.01591187271
 20
-6444.614443084454
 30
0.0
 11
37661.01591187271
 21
-6694.614443084454
 31
0.0
  0
LINE
  5
1C2
102
{ACAD_REACTORS
330
5D
102
}
330
21
100
AcDbEntity
  8
HALLE_0_1_UG
  6
Continuous
100
AcDbLine
 10
37661.01591187271
 20
-6694.614443084454
 30
0.0
 11
36661.0159118727
 21
-6694.614443084454
 31
0.0
  0
LINE
  5
1C3
102
{ACAD_REACTORS
330
5D
102
}
330
21
100
AcDbEntity
  8
HALLE_0_1_UG
  6
Continuous
100
AcDbLine
 10
36661.0159118727
 20
-6694.614443084454
 30
0.0
 11
36661.0159118727
 21
-6444.614443084454
 31
0.0
  0
LINE
  5
1C4
102
{ACAD_REACTORS
330
5D
102
}
330
21
100
AcDbEntity
  8
HALLE_0_1_UG
  6
Continuous
100
AcDbLine
 10
36661.0159118727
 20
-6444.614443084454
 30
0.0
 11
37661.01591187271
 21
-6444.614443084454
 31
0.0
  0
LINE
  5
1C5
102
{ACAD_REACTORS
330
5D
102
}
330
21
100
AcDbEntity
  8
HALLE_0_1_UG
  6
Continuous
100
AcDbLine
 10
37661.01591187271
 20
-6444.614443084454
 30
0.0
 11
37661.01591187271
 21
-6504.614443084452
 31
0.0
  0
LINE
  5
1C6
102
{ACAD_REACTORS
330
5D
102
}
330
21
100
AcDbEntity
  8
HALLE_0_1_UG
  6
Continuous
100
AcDbLine
 10
37661.01591187271
 20
-6504.614443084452
 30
0.0
 11
36661.0159118727
 21
-6504.614443084452
 31
0.0
  0
LINE
  5
1C7
102
{ACAD_REACTORS
330
5D
102
}
330
21
100
AcDbEntity
  8
HALLE_0_1_UG
  6
Continuous
100
AcDbLine
 10
36661.0159118727
 20
-6504.614443084452
 30
0.0
 11
36661.0159118727
 21
-6444.614443084454
 31
0.0
  0
LINE
  5
1C8
102
{ACAD_REACTORS
330
5D
102
}
330
21
100
AcDbEntity
  8
HALLE_0_1_UG
  6
Continuous
100
AcDbLine
 10
-1688.984088127299
 20
-6444.614443084454
 30
0.0
 11
-688.9840881272989
 21
-6444.614443084454
 31
0.0
  0
LINE
  5
1C9
102
{ACAD_REACTORS
330
5D
102
}
330
21
100
AcDbEntity
  8
HALLE_0_1_UG
  6
Continuous
100
AcDbLine
 10
-688.9840881272989
 20
-6444.614443084454
 30
0.0
 11
-688.9840881272989
 21
-6694.614443084454
 31
0.0
  0
LINE
  5
1CA
102
{ACAD_REACTORS
330
5D
102
}
330
21
100
AcDbEntity
  8
HALLE_0_1_UG
  6
Continuous
100
AcDbLine
 10
-688.9840881272989
 20
-6694.614443084454
 30
0.0
 11
-1688.984088127299
 21
-6694.614443084454
 31
0.0
  0
LINE
  5
1CB
102
{ACAD_REACTORS
330
5D
102
}
330
21
100
AcDbEntity
  8
HALLE_0_1_UG
  6
Continuous
100
AcDbLine
 10
-1688.984088127299
 20
-6694.614443084454
 30
0.0
 11
-1688.984088127299
 21
-6444.614443084454
 31
0.0
  0
LINE
  5
1CC
102
{ACAD_REACTORS
330
5D
102
}
330
21
100
AcDbEntity
  8
HALLE_0_1_UG
  6
Continuous
100
AcDbLine
 10
-1688.984088127299
 20
-6444.614443084454
 30
0.0
 11
-688.9840881272989
 21
-6444.614443084454
 31
0.0
  0
LINE
  5
1CD
102
{ACAD_REACTORS
330
5D
102
}
330
21
100
AcDbEntity
  8
HALLE_0_1_UG
  6
Continuous
100
AcDbLine
 10
-688.9840881272989
 20
-6444.614443084454
 30
0.0
 11
-688.9840881272989
 21
-6504.614443084452
 31
0.0
  0
LINE
  5
1CE
102
{ACAD_REACTORS
330
5D
102
}
330
21
100
AcDbEntity
  8
HALLE_0_1_UG
  6
Continuous
100
AcDbLine
 10
-688.9840881272989
 20
-6504.614443084452
 30
0.0
 11
-1688.984088127299
 21
-6504.614443084452
 31
0.0
  0
LINE
  5
1CF
102
{ACAD_REACTORS
330
5D
102
}
330
21
100
AcDbEntity
  8
HALLE_0_1_UG
  6
Continuous
100
AcDbLine
 10
-1688.984088127299
 20
-6504.614443084452
 30
0.0
 11
-1688.984088127299
 21
-6444.614443084454
 31
0.0
  0
LINE
  5
1D0
102
{ACAD_REACTORS
330
5D
102
}
330
21
100
AcDbEntity
  8
HALLE_0_1_UG
  6
Continuous
100
AcDbLine
 10
5311.015911872702
 20
-32454.61444308445
 30
0.0
 11
8311.015911872702
 21
-32454.61444308445
 31
0.0
  0
LINE
  5
1D1
102
{ACAD_REACTORS
330
5D
102
}
330
21
100
AcDbEntity
  8
HALLE_0_1_UG
  6
Continuous
100
AcDbLine
 10
8311.015911872702
 20
-32454.61444308445
 30
0.0
 11
8311.015911872702
 21
-32644.61444308445
 31
0.0
  0
LINE
  5
1D2
102
{ACAD_REACTORS
330
5D
102
}
330
21
100
AcDbEntity
  8
HALLE_0_1_UG
  6
Continuous
100
AcDbLine
 10
8311.015911872702
 20
-32644.61444308445
 30
0.0
 11
5311.015911872702
 21
-32644.61444308445
 31
0.0
  0
LINE
  5
1D3
102
{ACAD_REACTORS
330
5D
102
}
330
21
100
AcDbEntity
  8
HALLE_0_1_UG
  6
Continuous
100
AcDbLine
 10
5311.015911872702
 20
-32644.61444308445
 30
0.0
 11
5311.015911872702
 21
-32454.61444308445
 31
0.0
  0
LINE
  5
1D4
102
{ACAD_REACTORS
330
5D
102
}
330
21
100
AcDbEntity
  8
HALLE_0_1_UG
  6
Continuous
100
AcDbLine
 10
5211.015911872703
 20
-32394.61444308445
 30
0.0
 11
8411.015911872702
 21
-32394.61444308445
 31
0.0
  0
LINE
  5
1D5
102
{ACAD_REACTORS
330
5D
102
}
330
21
100
AcDbEntity
  8
HALLE_0_1_UG
  6
Continuous
100
AcDbLine
 10
8411.015911872702
 20
-32394.61444308445
 30
0.0
 11
8411.015911872702
 21
-32454.61444308445
 31
0.0
  0
LINE
  5
1D6
102
{ACAD_REACTORS
330
5D
102
}
330
21
100
AcDbEntity
  8
HALLE_0_1_UG
  6
Continuous
100
AcDbLine
 10
8411.015911872702
 20
-32454.61444308445
 30
0.0
 11
5211.015911872703
 21
-32454.61444308445
 31
0.0
  0
LINE
  5
1D7
102
{ACAD_REACTORS
330
5D
102
}
330
21
100
AcDbEntity
  8
HALLE_0_1_UG
  6
Continuous
100
AcDbLine
 10
5211.015911872703
 20
-32454.61444308445
 30
0.0
 11
5211.015911872703
 21
-32394.61444308445
 31
0.0
  0
LINE
  5
1D8
102
{ACAD_REACTORS
330
5D
102
}
330
21
100
AcDbEntity
  8
HALLE_0_1_UG
  6
Continuous
100
AcDbLine
 10
5211.015911872703
 20
-32394.61444308445
 30
0.0
 11
5211.015911872703
 21
-32454.61444308445
 31
0.0
  0
LINE
  5
1D9
102
{ACAD_REACTORS
330
5D
102
}
330
21
100
AcDbEntity
  8
HALLE_0_1_UG
  6
Continuous
100
AcDbLine
 10
5211.015911872703
 20
-32454.61444308445
 30
0.0
 11
5311.015911872702
 21
-32454.61444308445
 31
0.0
  0
LINE
  5
1DA
102
{ACAD_REACTORS
330
5D
102
}
330
21
100
AcDbEntity
  8
HALLE_0_1_UG
  6
Continuous
100
AcDbLine
 10
5311.015911872702
 20
-32454.61444308445
 30
0.0
 11
5311.015911872702
 21
-32644.61444308445
 31
0.0
  0
LINE
  5
1DB
102
{ACAD_REACTORS
330
5D
102
}
330
21
100
AcDbEntity
  8
HALLE_0_1_UG
  6
Continuous
100
AcDbLine
 10
5311.015911872702
 20
-32644.61444308445
 30
0.0
 11
5211.015911872703
 21
-32644.61444308445
 31
0.0
  0
LINE
  5
1DC
102
{ACAD_REACTORS
330
5D
102
}
330
21
100
AcDbEntity
  8
HALLE_0_1_UG
  6
Continuous
100
AcDbLine
 10
8411.015911872702
 20
-32394.61444308445
 30
0.0
 11
8411.015911872702
 21
-32454.61444308445
 31
0.0
  0
LINE
  5
1DD
102
{ACAD_REACTORS
330
5D
102
}
330
21
100
AcDbEntity
  8
HALLE_0_1_UG
  6
Continuous
100
AcDbLine
 10
8411.015911872702
 20
-32454.61444308445
 30
0.0
 11
8311.015911872702
 21
-32454.61444308445
 31
0.0
  0
LINE
  5
1DE
102
{ACAD_REACTORS
330
5D
102
}
330
21
100
AcDbEntity
  8
HALLE_0_1_UG
  6
Continuous
100
AcDbLine
 10
8311.015911872702
 20
-32454.61444308445
 30
0.0
 11
8311.015911872702
 21
-32644.61444308445
 31
0.0
  0
LINE
  5
1DF
102
{ACAD_REACTORS
330
5D
102
}
330
21
100
AcDbEntity
  8
HALLE_0_1_UG
  6
Continuous
100
AcDbLine
 10
8311.015911872702
 20
-32644.61444308445
 30
0.0
 11
8411.015911872702
 21
-32644.61444308445
 31
0.0
  0
LINE
  5
1E0
102
{ACAD_REACTORS
330
5D
102
}
330
21
100
AcDbEntity
  8
HALLE_0_1_UG
  6
Continuous
100
AcDbLine
 10
10311.0159118727
 20
-32454.61444308445
 30
0.0
 11
13311.0159118727
 21
-32454.61444308445
 31
0.0
  0
LINE
  5
1E1
102
{ACAD_REACTORS
330
5D
102
}
330
21
100
AcDbEntity
  8
HALLE_0_1_UG
  6
Continuous
100
AcDbLine
 10
13311.0159118727
 20
-32454.61444308445
 30
0.0
 11
13311.0159118727
 21
-32644.61444308445
 31
0.0
  0
LINE
  5
1E2
102
{ACAD_REACTORS
330
5D
102
}
330
21
100
AcDbEntity
  8
HALLE_0_1_UG
  6
Continuous
100
AcDbLine
 10
13311.0159118727
 20
-32644.61444308445
 30
0.0
 11
10311.0159118727
 21
-32644.61444308445
 31
0.0
  0
LINE
  5
1E3
102
{ACAD_REACTORS
330
5D
102
}
330
21
100
AcDbEntity
  8
HALLE_0_1_UG
  6
Continuous
100
AcDbLine
 10
10311.0159118727
 20
-32644.61444308445
 30
0.0
 11
10311.0159118727
 21
-32454.61444308445
 31
0.0
  0
LINE
  5
1E4
102
{ACAD_REACTORS
330
5D
102
}
330
21
100
AcDbEntity
  8
HALLE_0_1_UG
  6
Continuous
100
AcDbLine
 10
10211.0159118727
 20
-32394.61444308445
 30
0.0
 11
13411.0159118727
 21
-32394.61444308445
 31
0.0
  0
LINE
  5
1E5
102
{ACAD_REACTORS
330
5D
102
}
330
21
100
AcDbEntity
  8
HALLE_0_1_UG
  6
Continuous
100
AcDbLine
 10
13411.0159118727
 20
-32394.61444308445
 30
0.0
 11
13411.0159118727
 21
-32454.61444308445
 31
0.0
  0
LINE
  5
1E6
102
{ACAD_REACTORS
330
5D
102
}
330
21
100
AcDbEntity
  8
HALLE_0_1_UG
  6
Continuous
100
AcDbLine
 10
13411.0159118727
 20
-32454.61444308445
 30
0.0
 11
10211.0159118727
 21
-32454.61444308445
 31
0.0
  0
LINE
  5
1E7
102
{ACAD_REACTORS
330
5D
102
}
330
21
100
AcDbEntity
  8
HALLE_0_1_UG
  6
Continuous
100
AcDbLine
 10
10211.0159118727
 20
-32454.61444308445
 30
0.0
 11
10211.0159118727
 21
-32394.61444308445
 31
0.0
  0
LINE
  5
1E8
102
{ACAD_REACTORS
330
5D
102
}
330
21
100
AcDbEntity
  8
HALLE_0_1_UG
  6
Continuous
100
AcDbLine
 10
10211.0159118727
 20
-32394.61444308445
 30
0.0
 11
10211.0159118727
 21
-32454.61444308445
 31
0.0
  0
LINE
  5
1E9
102
{ACAD_REACTORS
330
5D
102
}
330
21
100
AcDbEntity
  8
HALLE_0_1_UG
  6
Continuous
100
AcDbLine
 10
10211.0159118727
 20
-32454.61444308445
 30
0.0
 11
10311.0159118727
 21
-32454.61444308445
 31
0.0
  0
LINE
  5
1EA
102
{ACAD_REACTORS
330
5D
102
}
330
21
100
AcDbEntity
  8
HALLE_0_1_UG
  6
Continuous
100
AcDbLine
 10
10311.0159118727
 20
-32454.61444308445
 30
0.0
 11
10311.0159118727
 21
-32644.61444308445
 31
0.0
  0
LINE
  5
1EB
102
{ACAD_REACTORS
330
5D
102
}
330
21
100
AcDbEntity
  8
HALLE_0_1_UG
  6
Continuous
100
AcDbLine
 10
10311.0159118727
 20
-32644.61444308445
 30
0.0
 11
10211.0159118727
 21
-32644.61444308445
 31
0.0
  0
LINE
  5
1EC
102
{ACAD_REACTORS
330
5D
102
}
330
21
100
AcDbEntity
  8
HALLE_0_1_UG
  6
Continuous
100
AcDbLine
 10
13411.0159118727
 20
-32394.61444308445
 30
0.0
 11
13411.0159118727
 21
-32454.61444308445
 31
0.0
  0
LINE
  5
1ED
102
{ACAD_REACTORS
330
5D
102
}
330
21
100
AcDbEntity
  8
HALLE_0_1_UG
  6
Continuous
100
AcDbLine
 10
13411.0159118727
 20
-32454.61444308445
 30
0.0
 11
13311.0159118727
 21
-32454.61444308445
 31
0.0
  0
LINE
  5
1EE
102
{ACAD_REACTORS
330
5D
102
}
330
21
100
AcDbEntity
  8
HALLE_0_1_UG
  6
Continuous
100
AcDbLine
 10
13311.0159118727
 20
-32454.61444308445
 30
0.0
 11
13311.0159118727
 21
-32644.61444308445
 31
0.0
  0
LINE
  5
1EF
102
{ACAD_REACTORS
330
5D
102
}
330
21
100
AcDbEntity
  8
HALLE_0_1_UG
  6
Continuous
100
AcDbLine
 10
13311.0159118727
 20
-32644.61444308445
 30
0.0
 11
13411.0159118727
 21
-32644.61444308445
 31
0.0
  0
LINE
  5
1F0
102
{ACAD_REACTORS
330
5D
102
}
330
21
100
AcDbEntity
  8
HALLE_0_1_UG
  6
Continuous
100
AcDbLine
 10
16911.0159118727
 20
-32454.61444308445
 30
0.0
 11
19911.01591187269
 21
-32454.61444308445
 31
0.0
  0
LINE
  5
1F1
102
{ACAD_REACTORS
330
5D
102
}
330
21
100
AcDbEntity
  8
HALLE_0_1_UG
  6
Continuous
100
AcDbLine
 10
19911.01591187269
 20
-32454.61444308445
 30
0.0
 11
19911.01591187269
 21
-32644.61444308445
 31
0.0
  0
LINE
  5
1F2
102
{ACAD_REACTORS
330
5D
102
}
330
21
100
AcDbEntity
  8
HALLE_0_1_UG
  6
Continuous
100
AcDbLine
 10
19911.01591187269
 20
-32644.61444308445
 30
0.0
 11
16911.0159118727
 21
-32644.61444308445
 31
0.0
  0
LINE
  5
1F3
102
{ACAD_REACTORS
330
5D
102
}
330
21
100
AcDbEntity
  8
HALLE_0_1_UG
  6
Continuous
100
AcDbLine
 10
16911.0159118727
 20
-32644.61444308445
 30
0.0
 11
16911.0159118727
 21
-32454.61444308445
 31
0.0
  0
LINE
  5
1F4
102
{ACAD_REACTORS
330
5D
102
}
330
21
100
AcDbEntity
  8
HALLE_0_1_UG
  6
Continuous
100
AcDbLine
 10
16811.0159118727
 20
-32394.61444308445
 30
0.0
 11
20011.0159118727
 21
-32394.61444308445
 31
0.0
  0
LINE
  5
1F5
102
{ACAD_REACTORS
330
5D
102
}
330
21
100
AcDbEntity
  8
HALLE_0_1_UG
  6
Continuous
100
AcDbLine
 10
20011.0159118727
 20
-32394.61444308445
 30
0.0
 11
20011.0159118727
 21
-32454.61444308445
 31
0.0
  0
LINE
  5
1F6
102
{ACAD_REACTORS
330
5D
102
}
330
21
100
AcDbEntity
  8
HALLE_0_1_UG
  6
Continuous
100
AcDbLine
 10
20011.0159118727
 20
-32454.61444308445
 30
0.0
 11
16811.0159118727
 21
-32454.61444308445
 31
0.0
  0
LINE
  5
1F7
102
{ACAD_REACTORS
330
5D
102
}
330
21
100
AcDbEntity
  8
HALLE_0_1_UG
  6
Continuous
100
AcDbLine
 10
16811.0159118727
 20
-32454.61444308445
 30
0.0
 11
16811.0159118727
 21
-32394.61444308445
 31
0.0
  0
LINE
  5
1F8
102
{ACAD_REACTORS
330
5D
102
}
330
21
100
AcDbEntity
  8
HALLE_0_1_UG
  6
Continuous
100
AcDbLine
 10
16811.0159118727
 20
-32394.61444308445
 30
0.0
 11
16811.0159118727
 21
-32454.61444308445
 31
0.0
  0
LINE
  5
1F9
102
{ACAD_REACTORS
330
5D
102
}
330
21
100
AcDbEntity
  8
HALLE_0_1_UG
  6
Continuous
100
AcDbLine
 10
16811.0159118727
 20
-32454.61444308445
 30
0.0
 11
16911.0159118727
 21
-32454.61444308445
 31
0.0
  0
LINE
  5
1FA
102
{ACAD_REACTORS
330
5D
102
}
330
21
100
AcDbEntity
  8
HALLE_0_1_UG
  6
Continuous
100
AcDbLine
 10
16911.0159118727
 20
-32454.61444308445
 30
0.0
 11
16911.0159118727
 21
-32644.61444308445
 31
0.0
  0
LINE
  5
1FB
102
{ACAD_REACTORS
330
5D
102
}
330
21
100
AcDbEntity
  8
HALLE_0_1_UG
  6
Continuous
100
AcDbLine
 10
16911.0159118727
 20
-32644.61444308445
 30
0.0
 11
16811.0159118727
 21
-32644.61444308445
 31
0.0
  0
LINE
  5
1FC
102
{ACAD_REACTORS
330
5D
102
}
330
21
100
AcDbEntity
  8
HALLE_0_1_UG
  6
Continuous
100
AcDbLine
 10
20011.0159118727
 20
-32394.61444308445
 30
0.0
 11
20011.0159118727
 21
-32454.61444308445
 31
0.0
  0
LINE
  5
1FD
102
{ACAD_REACTORS
330
5D
102
}
330
21
100
AcDbEntity
  8
HALLE_0_1_UG
  6
Continuous
100
AcDbLine
 10
20011.0159118727
 20
-32454.61444308445
 30
0.0
 11
19911.01591187269
 21
-32454.61444308445
 31
0.0
  0
LINE
  5
1FE
102
{ACAD_REACTORS
330
5D
102
}
330
21
100
AcDbEntity
  8
HALLE_0_1_UG
  6
Continuous
100
AcDbLine
 10
19911.01591187269
 20
-32454.61444308445
 30
0.0
 11
19911.01591187269
 21
-32644.61444308445
 31
0.0
  0
LINE
  5
1FF
102
{ACAD_REACTORS
330
5D
102
}
330
21
100
AcDbEntity
  8
HALLE_0_1_UG
  6
Continuous
100
AcDbLine
 10
19911.01591187269
 20
-32644.61444308445
 30
0.0
 11
20011.0159118727
 21
-32644.61444308445
 31
0.0
  0
LINE
  5
200
102
{ACAD_REACTORS
330
5D
102
}
330
21
100
AcDbEntity
  8
HALLE_0_1_UG
  6
Continuous
100
AcDbLine
 10
-4288.984088127299
 20
-23204.61444308857
 30
0.0
 11
-2688.984088127299
 21
-23204.61444308857
 31
0.0
  0
LINE
  5
201
102
{ACAD_REACTORS
330
5D
102
}
330
21
100
AcDbEntity
  8
HALLE_0_1_UG
  6
Continuous
100
AcDbLine
 10
-2688.984088127299
 20
-23204.61444308857
 30
0.0
 11
-2688.984088127299
 21
-24804.61444308445
 31
0.0
  0
LINE
  5
202
102
{ACAD_REACTORS
330
5D
102
}
330
21
100
AcDbEntity
  8
HALLE_0_1_UG
  6
Continuous
100
AcDbLine
 10
-2688.984088127299
 20
-24804.61444308445
 30
0.0
 11
-4288.984088127299
 21
-24804.61444308445
 31
0.0
  0
LINE
  5
203
102
{ACAD_REACTORS
330
5D
102
}
330
21
100
AcDbEntity
  8
HALLE_0_1_UG
  6
Continuous
100
AcDbLine
 10
-4288.984088127299
 20
-24804.61444308445
 30
0.0
 11
-4288.984088127299
 21
-23204.61444308857
 31
0.0
  0
LINE
  5
204
102
{ACAD_REACTORS
330
5D
102
}
330
21
100
AcDbEntity
  8
HALLE_0_1_UG
  6
Continuous
100
AcDbLine
 10
43611.01591187799
 20
-10844.72785995573
 30
0.0
 11
43871.015911878
 21
-10844.72785995573
 31
0.0
  0
LINE
  5
205
102
{ACAD_REACTORS
330
5D
102
}
330
21
100
AcDbEntity
  8
HALLE_0_1_UG
  6
Continuous
100
AcDbLine
 10
43871.015911878
 20
-10844.72785995573
 30
0.0
 11
43871.015911878
 21
-12344.72785995572
 31
0.0
  0
LINE
  5
206
102
{ACAD_REACTORS
330
5D
102
}
330
21
100
AcDbEntity
  8
HALLE_0_1_UG
  6
Continuous
100
AcDbLine
 10
43871.015911878
 20
-12344.72785995572
 30
0.0
 11
43611.01591187799
 21
-12344.72785995572
 31
0.0
  0
LINE
  5
207
102
{ACAD_REACTORS
330
5D
102
}
330
21
100
AcDbEntity
  8
HALLE_0_1_UG
  6
Continuous
100
AcDbLine
 10
43611.01591187799
 20
-12344.72785995572
 30
0.0
 11
43611.01591187799
 21
-10844.72785995573
 31
0.0
  0
LINE
  5
208
102
{ACAD_REACTORS
330
5D
102
}
330
21
100
AcDbEntity
  8
HALLE_0_1_UG
  6
Continuous
100
AcDbLine
 10
43871.015911878
 20
-10844.72785995573
 30
0.0
 11
44131.015911878
 21
-10844.72785995573
 31
0.0
  0
LINE
  5
209
102
{ACAD_REACTORS
330
5D
102
}
330
21
100
AcDbEntity
  8
HALLE_0_1_UG
  6
Continuous
100
AcDbLine
 10
44131.015911878
 20
-10844.72785995573
 30
0.0
 11
44131.015911878
 21
-12344.72785995572
 31
0.0
  0
LINE
  5
20A
102
{ACAD_REACTORS
330
5D
102
}
330
21
100
AcDbEntity
  8
HALLE_0_1_UG
  6
Continuous
100
AcDbLine
 10
44131.015911878
 20
-12344.72785995572
 30
0.0
 11
43871.015911878
 21
-12344.72785995572
 31
0.0
  0
LINE
  5
20B
102
{ACAD_REACTORS
330
5D
102
}
330
21
100
AcDbEntity
  8
HALLE_0_1_UG
  6
Continuous
100
AcDbLine
 10
43871.015911878
 20
-12344.72785995572
 30
0.0
 11
43871.015911878
 21
-10844.72785995573
 31
0.0
  0
LINE
  5
20C
102
{ACAD_REACTORS
330
5D
102
}
330
21
100
AcDbEntity
  8
HALLE_0_1_UG
  6
Continuous
100
AcDbLine
 10
44131.015911878
 20
-10844.72785995573
 30
0.0
 11
44391.015911878
 21
-10844.72785995573
 31
0.0
  0
LINE
  5
20D
102
{ACAD_REACTORS
330
5D
102
}
330
21
100
AcDbEntity
  8
HALLE_0_1_UG
  6
Continuous
100
AcDbLine
 10
44391.015911878
 20
-10844.72785995573
 30
0.0
 11
44391.015911878
 21
-12344.72785995572
 31
0.0
  0
LINE
  5
20E
102
{ACAD_REACTORS
330
5D
102
}
330
21
100
AcDbEntity
  8
HALLE_0_1_UG
  6
Continuous
100
AcDbLine
 10
44391.015911878
 20
-12344.72785995572
 30
0.0
 11
44131.015911878
 21
-12344.72785995572
 31
0.0
  0
LINE
  5
20F
102
{ACAD_REACTORS
330
5D
102
}
330
21
100
AcDbEntity
  8
HALLE_0_1_UG
  6
Continuous
100
AcDbLine
 10
44131.015911878
 20
-12344.72785995572
 30
0.0
 11
44131.015911878
 21
-10844.72785995573
 31
0.0
  0
LINE
  5
210
102
{ACAD_REACTORS
330
5D
102
}
330
21
100
AcDbEntity
  8
HALLE_0_1_UG
  6
Continuous
100
AcDbLine
 10
44391.015911878
 20
-10844.72785995573
 30
0.0
 11
44651.01591187799
 21
-10844.72785995573
 31
0.0
  0
LINE
  5
211
102
{ACAD_REACTORS
330
5D
102
}
330
21
100
AcDbEntity
  8
HALLE_0_1_UG
  6
Continuous
100
AcDbLine
 10
44651.01591187799
 20
-10844.72785995573
 30
0.0
 11
44651.01591187799
 21
-12344.72785995572
 31
0.0
  0
LINE
  5
212
102
{ACAD_REACTORS
330
5D
102
}
330
21
100
AcDbEntity
  8
HALLE_0_1_UG
  6
Continuous
100
AcDbLine
 10
44651.01591187799
 20
-12344.72785995572
 30
0.0
 11
44391.015911878
 21
-12344.72785995572
 31
0.0
  0
LINE
  5
213
102
{ACAD_REACTORS
330
5D
102
}
330
21
100
AcDbEntity
  8
HALLE_0_1_UG
  6
Continuous
100
AcDbLine
 10
44391.015911878
 20
-12344.72785995572
 30
0.0
 11
44391.015911878
 21
-10844.72785995573
 31
0.0
  0
LINE
  5
214
102
{ACAD_REACTORS
330
5D
102
}
330
21
100
AcDbEntity
  8
HALLE_0_1_UG
  6
Continuous
100
AcDbLine
 10
44651.01591187799
 20
-10844.72785995573
 30
0.0
 11
44911.015911878
 21
-10844.72785995573
 31
0.0
  0
LINE
  5
215
102
{ACAD_REACTORS
330
5D
102
}
330
21
100
AcDbEntity
  8
HALLE_0_1_UG
  6
Continuous
100
AcDbLine
 10
44911.015911878
 20
-10844.72785995573
 30
0.0
 11
44911.015911878
 21
-12344.72785995572
 31
0.0
  0
LINE
  5
216
102
{ACAD_REACTORS
330
5D
102
}
330
21
100
AcDbEntity
  8
HALLE_0_1_UG
  6
Continuous
100
AcDbLine
 10
44911.015911878
 20
-12344.72785995572
 30
0.0
 11
44651.01591187799
 21
-12344.72785995572
 31
0.0
  0
LINE
  5
217
102
{ACAD_REACTORS
330
5D
102
}
330
21
100
AcDbEntity
  8
HALLE_0_1_UG
  6
Continuous
100
AcDbLine
 10
44651.01591187799
 20
-12344.72785995572
 30
0.0
 11
44651.01591187799
 21
-10844.72785995573
 31
0.0
  0
LINE
  5
218
102
{ACAD_REACTORS
330
5D
102
}
330
21
100
AcDbEntity
  8
HALLE_0_1_UG
  6
Continuous
100
AcDbLine
 10
44911.015911878
 20
-10844.72785995573
 30
0.0
 11
45171.01591187799
 21
-10844.72785995573
 31
0.0
  0
LINE
  5
219
102
{ACAD_REACTORS
330
5D
102
}
330
21
100
AcDbEntity
  8
HALLE_0_1_UG
  6
Continuous
100
AcDbLine
 10
45171.01591187799
 20
-10844.72785995573
 30
0.0
 11
45171.01591187799
 21
-12344.72785995572
 31
0.0
  0
LINE
  5
21A
102
{ACAD_REACTORS
330
5D
102
}
330
21
100
AcDbEntity
  8
HALLE_0_1_UG
  6
Continuous
100
AcDbLine
 10
45171.01591187799
 20
-12344.72785995572
 30
0.0
 11
44911.015911878
 21
-12344.72785995572
 31
0.0
  0
LINE
  5
21B
102
{ACAD_REACTORS
330
5D
102
}
330
21
100
AcDbEntity
  8
HALLE_0_1_UG
  6
Continuous
100
AcDbLine
 10
44911.015911878
 20
-12344.72785995572
 30
0.0
 11
44911.015911878
 21
-10844.72785995573
 31
0.0
  0
LINE
  5
21C
102
{ACAD_REACTORS
330
5D
102
}
330
21
100
AcDbEntity
  8
HALLE_0_1_UG
  6
Continuous
100
AcDbLine
 10
45171.01591187799
 20
-10844.72785995573
 30
0.0
 11
45431.01591187799
 21
-10844.72785995573
 31
0.0
  0
LINE
  5
21D
102
{ACAD_REACTORS
330
5D
102
}
330
21
100
AcDbEntity
  8
HALLE_0_1_UG
  6
Continuous
100
AcDbLine
 10
45431.01591187799
 20
-10844.72785995573
 30
0.0
 11
45431.01591187799
 21
-12344.72785995572
 31
0.0
  0
LINE
  5
21E
102
{ACAD_REACTORS
330
5D
102
}
330
21
100
AcDbEntity
  8
HALLE_0_1_UG
  6
Continuous
100
AcDbLine
 10
45431.01591187799
 20
-12344.72785995572
 30
0.0
 11
45171.01591187799
 21
-12344.72785995572
 31
0.0
  0
LINE
  5
21F
102
{ACAD_REACTORS
330
5D
102
}
330
21
100
AcDbEntity
  8
HALLE_0_1_UG
  6
Continuous
100
AcDbLine
 10
45171.01591187799
 20
-12344.72785995572
 30
0.0
 11
45171.01591187799
 21
-10844.72785995573
 31
0.0
  0
LINE
  5
220
102
{ACAD_REACTORS
330
5D
102
}
330
21
100
AcDbEntity
  8
HALLE_0_1_UG
  6
Continuous
100
AcDbLine
 10
41961.015911878
 20
-9114.614443093762
 30
0.0
 11
43461.01591187799
 21
-9114.614443093762
 31
0.0
  0
LINE
  5
221
102
{ACAD_REACTORS
330
5D
102
}
330
21
100
AcDbEntity
  8
HALLE_0_1_UG
  6
Continuous
100
AcDbLine
 10
43461.01591187799
 20
-9114.614443093762
 30
0.0
 11
43461.01591187799
 21
-9374.61444309376
 31
0.0
  0
LINE
  5
222
102
{ACAD_REACTORS
330
5D
102
}
330
21
100
AcDbEntity
  8
HALLE_0_1_UG
  6
Continuous
100
AcDbLine
 10
43461.01591187799
 20
-9374.61444309376
 30
0.0
 11
41961.015911878
 21
-9374.61444309376
 31
0.0
  0
LINE
  5
223
102
{ACAD_REACTORS
330
5D
102
}
330
21
100
AcDbEntity
  8
HALLE_0_1_UG
  6
Continuous
100
AcDbLine
 10
41961.015911878
 20
-9374.61444309376
 30
0.0
 11
41961.015911878
 21
-9114.614443093762
 31
0.0
  0
LINE
  5
224
102
{ACAD_REACTORS
330
5D
102
}
330
21
100
AcDbEntity
  8
HALLE_0_1_UG
  6
Continuous
100
AcDbLine
 10
41961.015911878
 20
-9374.61444309376
 30
0.0
 11
43461.01591187799
 21
-9374.61444309376
 31
0.0
  0
LINE
  5
225
102
{ACAD_REACTORS
330
5D
102
}
330
21
100
AcDbEntity
  8
HALLE_0_1_UG
  6
Continuous
100
AcDbLine
 10
43461.01591187799
 20
-9374.61444309376
 30
0.0
 11
43461.01591187799
 21
-9634.614443093759
 31
0.0
  0
LINE
  5
226
102
{ACAD_REACTORS
330
5D
102
}
330
21
100
AcDbEntity
  8
HALLE_0_1_UG
  6
Continuous
100
AcDbLine
 10
43461.01591187799
 20
-9634.614443093759
 30
0.0
 11
41961.015911878
 21
-9634.614443093759
 31
0.0
  0
LINE
  5
227
102
{ACAD_REACTORS
330
5D
102
}
330
21
100
AcDbEntity
  8
HALLE_0_1_UG
  6
Continuous
100
AcDbLine
 10
41961.015911878
 20
-9634.614443093759
 30
0.0
 11
41961.015911878
 21
-9374.61444309376
 31
0.0
  0
LINE
  5
228
102
{ACAD_REACTORS
330
5D
102
}
330
21
100
AcDbEntity
  8
HALLE_0_1_UG
  6
Continuous
100
AcDbLine
 10
41961.015911878
 20
-9634.614443093759
 30
0.0
 11
43461.01591187799
 21
-9634.614443093759
 31
0.0
  0
LINE
  5
229
102
{ACAD_REACTORS
330
5D
102
}
330
21
100
AcDbEntity
  8
HALLE_0_1_UG
  6
Continuous
100
AcDbLine
 10
43461.01591187799
 20
-9634.614443093759
 30
0.0
 11
43461.01591187799
 21
-9894.614443093765
 31
0.0
  0
LINE
  5
22A
102
{ACAD_REACTORS
330
5D
102
}
330
21
100
AcDbEntity
  8
HALLE_0_1_UG
  6
Continuous
100
AcDbLine
 10
43461.01591187799
 20
-9894.614443093765
 30
0.0
 11
41961.015911878
 21
-9894.614443093765
 31
0.0
  0
LINE
  5
22B
102
{ACAD_REACTORS
330
5D
102
}
330
21
100
AcDbEntity
  8
HALLE_0_1_UG
  6
Continuous
100
AcDbLine
 10
41961.015911878
 20
-9894.614443093765
 30
0.0
 11
41961.015911878
 21
-9634.614443093759
 31
0.0
  0
LINE
  5
22C
102
{ACAD_REACTORS
330
5D
102
}
330
21
100
AcDbEntity
  8
HALLE_0_1_UG
  6
Continuous
100
AcDbLine
 10
41961.015911878
 20
-9894.614443093765
 30
0.0
 11
43461.01591187799
 21
-9894.614443093765
 31
0.0
  0
LINE
  5
22D
102
{ACAD_REACTORS
330
5D
102
}
330
21
100
AcDbEntity
  8
HALLE_0_1_UG
  6
Continuous
100
AcDbLine
 10
43461.01591187799
 20
-9894.614443093765
 30
0.0
 11
43461.01591187799
 21
-10154.61444309376
 31
0.0
  0
LINE
  5
22E
102
{ACAD_REACTORS
330
5D
102
}
330
21
100
AcDbEntity
  8
HALLE_0_1_UG
  6
Continuous
100
AcDbLine
 10
43461.01591187799
 20
-10154.61444309376
 30
0.0
 11
41961.015911878
 21
-10154.61444309376
 31
0.0
  0
LINE
  5
22F
102
{ACAD_REACTORS
330
5D
102
}
330
21
100
AcDbEntity
  8
HALLE_0_1_UG
  6
Continuous
100
AcDbLine
 10
41961.015911878
 20
-10154.61444309376
 30
0.0
 11
41961.015911878
 21
-9894.614443093765
 31
0.0
  0
LINE
  5
230
102
{ACAD_REACTORS
330
5D
102
}
330
21
100
AcDbEntity
  8
HALLE_0_1_UG
  6
Continuous
100
AcDbLine
 10
41961.015911878
 20
-10154.61444309376
 30
0.0
 11
43461.01591187799
 21
-10154.61444309376
 31
0.0
  0
LINE
  5
231
102
{ACAD_REACTORS
330
5D
102
}
330
21
100
AcDbEntity
  8
HALLE_0_1_UG
  6
Continuous
100
AcDbLine
 10
43461.01591187799
 20
-10154.61444309376
 30
0.0
 11
43461.01591187799
 21
-10414.61444309376
 31
0.0
  0
LINE
  5
232
102
{ACAD_REACTORS
330
5D
102
}
330
21
100
AcDbEntity
  8
HALLE_0_1_UG
  6
Continuous
100
AcDbLine
 10
43461.01591187799
 20
-10414.61444309376
 30
0.0
 11
41961.015911878
 21
-10414.61444309376
 31
0.0
  0
LINE
  5
233
102
{ACAD_REACTORS
330
5D
102
}
330
21
100
AcDbEntity
  8
HALLE_0_1_UG
  6
Continuous
100
AcDbLine
 10
41961.015911878
 20
-10414.61444309376
 30
0.0
 11
41961.015911878
 21
-10154.61444309376
 31
0.0
  0
LINE
  5
234
102
{ACAD_REACTORS
330
5D
102
}
330
21
100
AcDbEntity
  8
HALLE_0_1_UG
  6
Continuous
100
AcDbLine
 10
41961.015911878
 20
-10414.61444309376
 30
0.0
 11
43461.01591187799
 21
-10414.61444309376
 31
0.0
  0
LINE
  5
235
102
{ACAD_REACTORS
330
5D
102
}
330
21
100
AcDbEntity
  8
HALLE_0_1_UG
  6
Continuous
100
AcDbLine
 10
43461.01591187799
 20
-10414.61444309376
 30
0.0
 11
43461.01591187799
 21
-10674.61444309376
 31
0.0
  0
LINE
  5
236
102
{ACAD_REACTORS
330
5D
102
}
330
21
100
AcDbEntity
  8
HALLE_0_1_UG
  6
Continuous
100
AcDbLine
 10
43461.01591187799
 20
-10674.61444309376
 30
0.0
 11
41961.015911878
 21
-10674.61444309376
 31
0.0
  0
LINE
  5
237
102
{ACAD_REACTORS
330
5D
102
}
330
21
100
AcDbEntity
  8
HALLE_0_1_UG
  6
Continuous
100
AcDbLine
 10
41961.015911878
 20
-10674.61444309376
 30
0.0
 11
41961.015911878
 21
-10414.61444309376
 31
0.0
  0
LINE
  5
238
102
{ACAD_REACTORS
330
5D
102
}
330
21
100
AcDbEntity
  8
HALLE_0_1_UG
  6
Continuous
100
AcDbLine
 10
45171.01591187799
 20
-7444.614443084451
 30
0.0
 11
45431.01591187799
 21
-7444.614443084451
 31
0.0
  0
LINE
  5
239
102
{ACAD_REACTORS
330
5D
102
}
330
21
100
AcDbEntity
  8
HALLE_0_1_UG
  6
Continuous
100
AcDbLine
 10
45431.01591187799
 20
-7444.614443084451
 30
0.0
 11
45431.01591187799
 21
-8944.614443084452
 31
0.0
  0
LINE
  5
23A
102
{ACAD_REACTORS
330
5D
102
}
330
21
100
AcDbEntity
  8
HALLE_0_1_UG
  6
Continuous
100
AcDbLine
 10
45431.01591187799
 20
-8944.614443084452
 30
0.0
 11
45171.01591187799
 21
-8944.614443084452
 31
0.0
  0
LINE
  5
23B
102
{ACAD_REACTORS
330
5D
102
}
330
21
100
AcDbEntity
  8
HALLE_0_1_UG
  6
Continuous
100
AcDbLine
 10
45171.01591187799
 20
-8944.614443084452
 30
0.0
 11
45171.01591187799
 21
-7444.614443084451
 31
0.0
  0
LINE
  5
23C
102
{ACAD_REACTORS
330
5D
102
}
330
21
100
AcDbEntity
  8
HALLE_0_1_UG
  6
Continuous
100
AcDbLine
 10
44911.015911878
 20
-7444.614443084451
 30
0.0
 11
45171.01591187799
 21
-7444.614443084451
 31
0.0
  0
LINE
  5
23D
102
{ACAD_REACTORS
330
5D
102
}
330
21
100
AcDbEntity
  8
HALLE_0_1_UG
  6
Continuous
100
AcDbLine
 10
45171.01591187799
 20
-7444.614443084451
 30
0.0
 11
45171.01591187799
 21
-8944.614443084452
 31
0.0
  0
LINE
  5
23E
102
{ACAD_REACTORS
330
5D
102
}
330
21
100
AcDbEntity
  8
HALLE_0_1_UG
  6
Continuous
100
AcDbLine
 10
45171.01591187799
 20
-8944.614443084452
 30
0.0
 11
44911.015911878
 21
-8944.614443084452
 31
0.0
  0
LINE
  5
23F
102
{ACAD_REACTORS
330
5D
102
}
330
21
100
AcDbEntity
  8
HALLE_0_1_UG
  6
Continuous
100
AcDbLine
 10
44911.015911878
 20
-8944.614443084452
 30
0.0
 11
44911.015911878
 21
-7444.614443084451
 31
0.0
  0
LINE
  5
240
102
{ACAD_REACTORS
330
5D
102
}
330
21
100
AcDbEntity
  8
HALLE_0_1_UG
  6
Continuous
100
AcDbLine
 10
44651.01591187799
 20
-7444.614443084451
 30
0.0
 11
44911.015911878
 21
-7444.614443084451
 31
0.0
  0
LINE
  5
241
102
{ACAD_REACTORS
330
5D
102
}
330
21
100
AcDbEntity
  8
HALLE_0_1_UG
  6
Continuous
100
AcDbLine
 10
44911.015911878
 20
-7444.614443084451
 30
0.0
 11
44911.015911878
 21
-8944.614443084452
 31
0.0
  0
LINE
  5
242
102
{ACAD_REACTORS
330
5D
102
}
330
21
100
AcDbEntity
  8
HALLE_0_1_UG
  6
Continuous
100
AcDbLine
 10
44911.015911878
 20
-8944.614443084452
 30
0.0
 11
44651.01591187799
 21
-8944.614443084452
 31
0.0
  0
LINE
  5
243
102
{ACAD_REACTORS
330
5D
102
}
330
21
100
AcDbEntity
  8
HALLE_0_1_UG
  6
Continuous
100
AcDbLine
 10
44651.01591187799
 20
-8944.614443084452
 30
0.0
 11
44651.01591187799
 21
-7444.614443084451
 31
0.0
  0
LINE
  5
244
102
{ACAD_REACTORS
330
5D
102
}
330
21
100
AcDbEntity
  8
HALLE_0_1_UG
  6
Continuous
100
AcDbLine
 10
44391.015911878
 20
-7444.614443084451
 30
0.0
 11
44651.01591187799
 21
-7444.614443084451
 31
0.0
  0
LINE
  5
245
102
{ACAD_REACTORS
330
5D
102
}
330
21
100
AcDbEntity
  8
HALLE_0_1_UG
  6
Continuous
100
AcDbLine
 10
44651.01591187799
 20
-7444.614443084451
 30
0.0
 11
44651.01591187799
 21
-8944.614443084452
 31
0.0
  0
LINE
  5
246
102
{ACAD_REACTORS
330
5D
102
}
330
21
100
AcDbEntity
  8
HALLE_0_1_UG
  6
Continuous
100
AcDbLine
 10
44651.01591187799
 20
-8944.614443084452
 30
0.0
 11
44391.015911878
 21
-8944.614443084452
 31
0.0
  0
LINE
  5
247
102
{ACAD_REACTORS
330
5D
102
}
330
21
100
AcDbEntity
  8
HALLE_0_1_UG
  6
Continuous
100
AcDbLine
 10
44391.015911878
 20
-8944.614443084452
 30
0.0
 11
44391.015911878
 21
-7444.614443084451
 31
0.0
  0
LINE
  5
248
102
{ACAD_REACTORS
330
5D
102
}
330
21
100
AcDbEntity
  8
HALLE_0_1_UG
  6
Continuous
100
AcDbLine
 10
44131.015911878
 20
-7444.614443084451
 30
0.0
 11
44391.015911878
 21
-7444.614443084451
 31
0.0
  0
LINE
  5
249
102
{ACAD_REACTORS
330
5D
102
}
330
21
100
AcDbEntity
  8
HALLE_0_1_UG
  6
Continuous
100
AcDbLine
 10
44391.015911878
 20
-7444.614443084451
 30
0.0
 11
44391.015911878
 21
-8944.614443084452
 31
0.0
  0
LINE
  5
24A
102
{ACAD_REACTORS
330
5D
102
}
330
21
100
AcDbEntity
  8
HALLE_0_1_UG
  6
Continuous
100
AcDbLine
 10
44391.015911878
 20
-8944.614443084452
 30
0.0
 11
44131.015911878
 21
-8944.614443084452
 31
0.0
  0
LINE
  5
24B
102
{ACAD_REACTORS
330
5D
102
}
330
21
100
AcDbEntity
  8
HALLE_0_1_UG
  6
Continuous
100
AcDbLine
 10
44131.015911878
 20
-8944.614443084452
 30
0.0
 11
44131.015911878
 21
-7444.614443084451
 31
0.0
  0
LINE
  5
24C
102
{ACAD_REACTORS
330
5D
102
}
330
21
100
AcDbEntity
  8
HALLE_0_1_UG
  6
Continuous
100
AcDbLine
 10
-2888.9840881273
 20
-24954.61444308445
 30
0.0
 11
-2588.984088127299
 21
-24954.61444308445
 31
0.0
  0
LINE
  5
24D
102
{ACAD_REACTORS
330
5D
102
}
330
21
100
AcDbEntity
  8
HALLE_0_1_UG
  6
Continuous
100
AcDbLine
 10
-2588.984088127299
 20
-24954.61444308445
 30
0.0
 11
-2588.984088127299
 21
-26454.61444308446
 31
0.0
  0
LINE
  5
24E
102
{ACAD_REACTORS
330
5D
102
}
330
21
100
AcDbEntity
  8
HALLE_0_1_UG
  6
Continuous
100
AcDbLine
 10
-2588.984088127299
 20
-26454.61444308446
 30
0.0
 11
-2888.9840881273
 21
-26454.61444308446
 31
0.0
  0
LINE
  5
24F
102
{ACAD_REACTORS
330
5D
102
}
330
21
100
AcDbEntity
  8
HALLE_0_1_UG
  6
Continuous
100
AcDbLine
 10
-2888.9840881273
 20
-26454.61444308446
 30
0.0
 11
-2888.9840881273
 21
-24954.61444308445
 31
0.0
  0
LINE
  5
250
102
{ACAD_REACTORS
330
5D
102
}
330
21
100
AcDbEntity
  8
HALLE_0_1_UG
  6
Continuous
100
AcDbLine
 10
-3188.9840881273
 20
-24954.61444308445
 30
0.0
 11
-2888.9840881273
 21
-24954.61444308445
 31
0.0
  0
LINE
  5
251
102
{ACAD_REACTORS
330
5D
102
}
330
21
100
AcDbEntity
  8
HALLE_0_1_UG
  6
Continuous
100
AcDbLine
 10
-2888.9840881273
 20
-24954.61444308445
 30
0.0
 11
-2888.9840881273
 21
-26454.61444308446
 31
0.0
  0
LINE
  5
252
102
{ACAD_REACTORS
330
5D
102
}
330
21
100
AcDbEntity
  8
HALLE_0_1_UG
  6
Continuous
100
AcDbLine
 10
-2888.9840881273
 20
-26454.61444308446
 30
0.0
 11
-3188.9840881273
 21
-26454.61444308446
 31
0.0
  0
LINE
  5
253
102
{ACAD_REACTORS
330
5D
102
}
330
21
100
AcDbEntity
  8
HALLE_0_1_UG
  6
Continuous
100
AcDbLine
 10
-3188.9840881273
 20
-26454.61444308446
 30
0.0
 11
-3188.9840881273
 21
-24954.61444308445
 31
0.0
  0
LINE
  5
254
102
{ACAD_REACTORS
330
5D
102
}
330
21
100
AcDbEntity
  8
HALLE_0_1_UG
  6
Continuous
100
AcDbLine
 10
-3488.984088127299
 20
-24954.61444308445
 30
0.0
 11
-3188.9840881273
 21
-24954.61444308445
 31
0.0
  0
LINE
  5
255
102
{ACAD_REACTORS
330
5D
102
}
330
21
100
AcDbEntity
  8
HALLE_0_1_UG
  6
Continuous
100
AcDbLine
 10
-3188.9840881273
 20
-24954.61444308445
 30
0.0
 11
-3188.9840881273
 21
-26454.61444308446
 31
0.0
  0
LINE
  5
256
102
{ACAD_REACTORS
330
5D
102
}
330
21
100
AcDbEntity
  8
HALLE_0_1_UG
  6
Continuous
100
AcDbLine
 10
-3188.9840881273
 20
-26454.61444308446
 30
0.0
 11
-3488.984088127299
 21
-26454.61444308446
 31
0.0
  0
LINE
  5
257
102
{ACAD_REACTORS
330
5D
102
}
330
21
100
AcDbEntity
  8
HALLE_0_1_UG
  6
Continuous
100
AcDbLine
 10
-3488.984088127299
 20
-26454.61444308446
 30
0.0
 11
-3488.984088127299
 21
-24954.61444308445
 31
0.0
  0
LINE
  5
258
102
{ACAD_REACTORS
330
5D
102
}
330
21
100
AcDbEntity
  8
HALLE_0_1_UG
  6
Continuous
100
AcDbLine
 10
-3788.9840881273
 20
-24954.61444308445
 30
0.0
 11
-3488.984088127299
 21
-24954.61444308445
 31
0.0
  0
LINE
  5
259
102
{ACAD_REACTORS
330
5D
102
}
330
21
100
AcDbEntity
  8
HALLE_0_1_UG
  6
Continuous
100
AcDbLine
 10
-3488.984088127299
 20
-24954.61444308445
 30
0.0
 11
-3488.984088127299
 21
-26454.61444308446
 31
0.0
  0
LINE
  5
25A
102
{ACAD_REACTORS
330
5D
102
}
330
21
100
AcDbEntity
  8
HALLE_0_1_UG
  6
Continuous
100
AcDbLine
 10
-3488.984088127299
 20
-26454.61444308446
 30
0.0
 11
-3788.9840881273
 21
-26454.61444308446
 31
0.0
  0
LINE
  5
25B
102
{ACAD_REACTORS
330
5D
102
}
330
21
100
AcDbEntity
  8
HALLE_0_1_UG
  6
Continuous
100
AcDbLine
 10
-3788.9840881273
 20
-26454.61444308446
 30
0.0
 11
-3788.9840881273
 21
-24954.61444308445
 31
0.0
  0
LINE
  5
25C
102
{ACAD_REACTORS
330
5D
102
}
330
21
100
AcDbEntity
  8
HALLE_0_1_UG
  6
Continuous
100
AcDbLine
 10
-4088.9840881273
 20
-24954.61444308445
 30
0.0
 11
-3788.9840881273
 21
-24954.61444308445
 31
0.0
  0
LINE
  5
25D
102
{ACAD_REACTORS
330
5D
102
}
330
21
100
AcDbEntity
  8
HALLE_0_1_UG
  6
Continuous
100
AcDbLine
 10
-3788.9840881273
 20
-24954.61444308445
 30
0.0
 11
-3788.9840881273
 21
-26454.61444308446
 31
0.0
  0
LINE
  5
25E
102
{ACAD_REACTORS
330
5D
102
}
330
21
100
AcDbEntity
  8
HALLE_0_1_UG
  6
Continuous
100
AcDbLine
 10
-3788.9840881273
 20
-26454.61444308446
 30
0.0
 11
-4088.9840881273
 21
-26454.61444308446
 31
0.0
  0
LINE
  5
25F
102
{ACAD_REACTORS
330
5D
102
}
330
21
100
AcDbEntity
  8
HALLE_0_1_UG
  6
Continuous
100
AcDbLine
 10
-4088.9840881273
 20
-26454.61444308446
 30
0.0
 11
-4088.9840881273
 21
-24954.61444308445
 31
0.0
  0
LINE
  5
260
102
{ACAD_REACTORS
330
5D
102
}
330
21
100
AcDbEntity
  8
HALLE_0_1_UG
  6
Continuous
100
AcDbLine
 10
-4388.984088127299
 20
-24954.61444308445
 30
0.0
 11
-4088.9840881273
 21
-24954.61444308445
 31
0.0
  0
LINE
  5
261
102
{ACAD_REACTORS
330
5D
102
}
330
21
100
AcDbEntity
  8
HALLE_0_1_UG
  6
Continuous
100
AcDbLine
 10
-4088.9840881273
 20
-24954.61444308445
 30
0.0
 11
-4088.9840881273
 21
-26454.61444308446
 31
0.0
  0
LINE
  5
262
102
{ACAD_REACTORS
330
5D
102
}
330
21
100
AcDbEntity
  8
HALLE_0_1_UG
  6
Continuous
100
AcDbLine
 10
-4088.9840881273
 20
-26454.61444308446
 30
0.0
 11
-4388.984088127299
 21
-26454.61444308446
 31
0.0
  0
LINE
  5
263
102
{ACAD_REACTORS
330
5D
102
}
330
21
100
AcDbEntity
  8
HALLE_0_1_UG
  6
Continuous
100
AcDbLine
 10
-4388.984088127299
 20
-26454.61444308446
 30
0.0
 11
-4388.984088127299
 21
-24954.61444308445
 31
0.0
  0
LINE
  5
264
102
{ACAD_REACTORS
330
5D
102
}
330
21
100
AcDbEntity
  8
HALLE_0_1_UG
  6
Continuous
100
AcDbLine
 10
-2888.9840881273
 20
-21554.61444308856
 30
0.0
 11
-2588.984088127299
 21
-21554.61444308856
 31
0.0
  0
LINE
  5
265
102
{ACAD_REACTORS
330
5D
102
}
330
21
100
AcDbEntity
  8
HALLE_0_1_UG
  6
Continuous
100
AcDbLine
 10
-2588.984088127299
 20
-21554.61444308856
 30
0.0
 11
-2588.984088127299
 21
-23054.61444308856
 31
0.0
  0
LINE
  5
266
102
{ACAD_REACTORS
330
5D
102
}
330
21
100
AcDbEntity
  8
HALLE_0_1_UG
  6
Continuous
100
AcDbLine
 10
-2588.984088127299
 20
-23054.61444308856
 30
0.0
 11
-2888.9840881273
 21
-23054.61444308856
 31
0.0
  0
LINE
  5
267
102
{ACAD_REACTORS
330
5D
102
}
330
21
100
AcDbEntity
  8
HALLE_0_1_UG
  6
Continuous
100
AcDbLine
 10
-2888.9840881273
 20
-23054.61444308856
 30
0.0
 11
-2888.9840881273
 21
-21554.61444308856
 31
0.0
  0
LINE
  5
268
102
{ACAD_REACTORS
330
5D
102
}
330
21
100
AcDbEntity
  8
HALLE_0_1_UG
  6
Continuous
100
AcDbLine
 10
-3188.9840881273
 20
-21554.61444308856
 30
0.0
 11
-2888.9840881273
 21
-21554.61444308856
 31
0.0
  0
LINE
  5
269
102
{ACAD_REACTORS
330
5D
102
}
330
21
100
AcDbEntity
  8
HALLE_0_1_UG
  6
Continuous
100
AcDbLine
 10
-2888.9840881273
 20
-21554.61444308856
 30
0.0
 11
-2888.9840881273
 21
-23054.61444308856
 31
0.0
  0
LINE
  5
26A
102
{ACAD_REACTORS
330
5D
102
}
330
21
100
AcDbEntity
  8
HALLE_0_1_UG
  6
Continuous
100
AcDbLine
 10
-2888.9840881273
 20
-23054.61444308856
 30
0.0
 11
-3188.9840881273
 21
-23054.61444308856
 31
0.0
  0
LINE
  5
26B
102
{ACAD_REACTORS
330
5D
102
}
330
21
100
AcDbEntity
  8
HALLE_0_1_UG
  6
Continuous
100
AcDbLine
 10
-3188.9840881273
 20
-23054.61444308856
 30
0.0
 11
-3188.9840881273
 21
-21554.61444308856
 31
0.0
  0
LINE
  5
26C
102
{ACAD_REACTORS
330
5D
102
}
330
21
100
AcDbEntity
  8
HALLE_0_1_UG
  6
Continuous
100
AcDbLine
 10
-3488.984088127299
 20
-21554.61444308856
 30
0.0
 11
-3188.9840881273
 21
-21554.61444308856
 31
0.0
  0
LINE
  5
26D
102
{ACAD_REACTORS
330
5D
102
}
330
21
100
AcDbEntity
  8
HALLE_0_1_UG
  6
Continuous
100
AcDbLine
 10
-3188.9840881273
 20
-21554.61444308856
 30
0.0
 11
-3188.9840881273
 21
-23054.61444308856
 31
0.0
  0
LINE
  5
26E
102
{ACAD_REACTORS
330
5D
102
}
330
21
100
AcDbEntity
  8
HALLE_0_1_UG
  6
Continuous
100
AcDbLine
 10
-3188.9840881273
 20
-23054.61444308856
 30
0.0
 11
-3488.984088127299
 21
-23054.61444308856
 31
0.0
  0
LINE
  5
26F
102
{ACAD_REACTORS
330
5D
102
}
330
21
100
AcDbEntity
  8
HALLE_0_1_UG
  6
Continuous
100
AcDbLine
 10
-3488.984088127299
 20
-23054.61444308856
 30
0.0
 11
-3488.984088127299
 21
-21554.61444308856
 31
0.0
  0
LINE
  5
270
102
{ACAD_REACTORS
330
5D
102
}
330
21
100
AcDbEntity
  8
HALLE_0_1_UG
  6
Continuous
100
AcDbLine
 10
-3788.9840881273
 20
-21554.61444308856
 30
0.0
 11
-3488.984088127299
 21
-21554.61444308856
 31
0.0
  0
LINE
  5
271
102
{ACAD_REACTORS
330
5D
102
}
330
21
100
AcDbEntity
  8
HALLE_0_1_UG
  6
Continuous
100
AcDbLine
 10
-3488.984088127299
 20
-21554.61444308856
 30
0.0
 11
-3488.984088127299
 21
-23054.61444308856
 31
0.0
  0
LINE
  5
272
102
{ACAD_REACTORS
330
5D
102
}
330
21
100
AcDbEntity
  8
HALLE_0_1_UG
  6
Continuous
100
AcDbLine
 10
-3488.984088127299
 20
-23054.61444308856
 30
0.0
 11
-3788.9840881273
 21
-23054.61444308856
 31
0.0
  0
LINE
  5
273
102
{ACAD_REACTORS
330
5D
102
}
330
21
100
AcDbEntity
  8
HALLE_0_1_UG
  6
Continuous
100
AcDbLine
 10
-3788.9840881273
 20
-23054.61444308856
 30
0.0
 11
-3788.9840881273
 21
-21554.61444308856
 31
0.0
  0
LINE
  5
274
102
{ACAD_REACTORS
330
5D
102
}
330
21
100
AcDbEntity
  8
HALLE_0_1_UG
  6
Continuous
100
AcDbLine
 10
-4088.9840881273
 20
-21554.61444308856
 30
0.0
 11
-3788.9840881273
 21
-21554.61444308856
 31
0.0
  0
LINE
  5
275
102
{ACAD_REACTORS
330
5D
102
}
330
21
100
AcDbEntity
  8
HALLE_0_1_UG
  6
Continuous
100
AcDbLine
 10
-3788.9840881273
 20
-21554.61444308856
 30
0.0
 11
-3788.9840881273
 21
-23054.61444308856
 31
0.0
  0
LINE
  5
276
102
{ACAD_REACTORS
330
5D
102
}
330
21
100
AcDbEntity
  8
HALLE_0_1_UG
  6
Continuous
100
AcDbLine
 10
-3788.9840881273
 20
-23054.61444308856
 30
0.0
 11
-4088.9840881273
 21
-23054.61444308856
 31
0.0
  0
LINE
  5
277
102
{ACAD_REACTORS
330
5D
102
}
330
21
100
AcDbEntity
  8
HALLE_0_1_UG
  6
Continuous
100
AcDbLine
 10
-4088.9840881273
 20
-23054.61444308856
 30
0.0
 11
-4088.9840881273
 21
-21554.61444308856
 31
0.0
  0
LINE
  5
278
102
{ACAD_REACTORS
330
5D
102
}
330
21
100
AcDbEntity
  8
HALLE_0_1_UG
  6
Continuous
100
AcDbLine
 10
-4388.984088127299
 20
-21554.61444308856
 30
0.0
 11
-4088.9840881273
 21
-21554.61444308856
 31
0.0
  0
LINE
  5
279
102
{ACAD_REACTORS
330
5D
102
}
330
21
100
AcDbEntity
  8
HALLE_0_1_UG
  6
Continuous
100
AcDbLine
 10
-4088.9840881273
 20
-21554.61444308856
 30
0.0
 11
-4088.9840881273
 21
-23054.61444308856
 31
0.0
  0
LINE
  5
27A
102
{ACAD_REACTORS
330
5D
102
}
330
21
100
AcDbEntity
  8
HALLE_0_1_UG
  6
Continuous
100
AcDbLine
 10
-4088.9840881273
 20
-23054.61444308856
 30
0.0
 11
-4388.984088127299
 21
-23054.61444308856
 31
0.0
  0
LINE
  5
27B
102
{ACAD_REACTORS
330
5D
102
}
330
21
100
AcDbEntity
  8
HALLE_0_1_UG
  6
Continuous
100
AcDbLine
 10
-4388.984088127299
 20
-23054.61444308856
 30
0.0
 11
-4388.984088127299
 21
-21554.61444308856
 31
0.0
  0
LINE
  5
27C
102
{ACAD_REACTORS
330
5D
102
}
330
21
100
AcDbEntity
  8
HALLE_0_1_UG
  6
Continuous
100
AcDbLine
 10
-5938.984088127299
 20
-24604.61444308652
 30
0.0
 11
-4438.984088127299
 21
-24604.61444308652
 31
0.0
  0
LINE
  5
27D
102
{ACAD_REACTORS
330
5D
102
}
330
21
100
AcDbEntity
  8
HALLE_0_1_UG
  6
Continuous
100
AcDbLine
 10
-4438.984088127299
 20
-24604.61444308652
 30
0.0
 11
-4438.984088127299
 21
-24904.61444308652
 31
0.0
  0
LINE
  5
27E
102
{ACAD_REACTORS
330
5D
102
}
330
21
100
AcDbEntity
  8
HALLE_0_1_UG
  6
Continuous
100
AcDbLine
 10
-4438.984088127299
 20
-24904.61444308652
 30
0.0
 11
-5938.984088127299
 21
-24904.61444308652
 31
0.0
  0
LINE
  5
27F
102
{ACAD_REACTORS
330
5D
102
}
330
21
100
AcDbEntity
  8
HALLE_0_1_UG
  6
Continuous
100
AcDbLine
 10
-5938.984088127299
 20
-24904.61444308652
 30
0.0
 11
-5938.984088127299
 21
-24604.61444308652
 31
0.0
  0
LINE
  5
280
102
{ACAD_REACTORS
330
5D
102
}
330
21
100
AcDbEntity
  8
HALLE_0_1_UG
  6
Continuous
100
AcDbLine
 10
-5938.984088127299
 20
-24304.61444308651
 30
0.0
 11
-4438.984088127299
 21
-24304.61444308651
 31
0.0
  0
LINE
  5
281
102
{ACAD_REACTORS
330
5D
102
}
330
21
100
AcDbEntity
  8
HALLE_0_1_UG
  6
Continuous
100
AcDbLine
 10
-4438.984088127299
 20
-24304.61444308651
 30
0.0
 11
-4438.984088127299
 21
-24604.61444308652
 31
0.0
  0
LINE
  5
282
102
{ACAD_REACTORS
330
5D
102
}
330
21
100
AcDbEntity
  8
HALLE_0_1_UG
  6
Continuous
100
AcDbLine
 10
-4438.984088127299
 20
-24604.61444308652
 30
0.0
 11
-5938.984088127299
 21
-24604.61444308652
 31
0.0
  0
LINE
  5
283
102
{ACAD_REACTORS
330
5D
102
}
330
21
100
AcDbEntity
  8
HALLE_0_1_UG
  6
Continuous
100
AcDbLine
 10
-5938.984088127299
 20
-24604.61444308652
 30
0.0
 11
-5938.984088127299
 21
-24304.61444308651
 31
0.0
  0
LINE
  5
284
102
{ACAD_REACTORS
330
5D
102
}
330
21
100
AcDbEntity
  8
HALLE_0_1_UG
  6
Continuous
100
AcDbLine
 10
-5938.984088127299
 20
-24004.61444308652
 30
0.0
 11
-4438.984088127299
 21
-24004.61444308652
 31
0.0
  0
LINE
  5
285
102
{ACAD_REACTORS
330
5D
102
}
330
21
100
AcDbEntity
  8
HALLE_0_1_UG
  6
Continuous
100
AcDbLine
 10
-4438.984088127299
 20
-24004.61444308652
 30
0.0
 11
-4438.984088127299
 21
-24304.61444308651
 31
0.0
  0
LINE
  5
286
102
{ACAD_REACTORS
330
5D
102
}
330
21
100
AcDbEntity
  8
HALLE_0_1_UG
  6
Continuous
100
AcDbLine
 10
-4438.984088127299
 20
-24304.61444308651
 30
0.0
 11
-5938.984088127299
 21
-24304.61444308651
 31
0.0
  0
LINE
  5
287
102
{ACAD_REACTORS
330
5D
102
}
330
21
100
AcDbEntity
  8
HALLE_0_1_UG
  6
Continuous
100
AcDbLine
 10
-5938.984088127299
 20
-24304.61444308651
 30
0.0
 11
-5938.984088127299
 21
-24004.61444308652
 31
0.0
  0
LINE
  5
288
102
{ACAD_REACTORS
330
5D
102
}
330
21
100
AcDbEntity
  8
HALLE_0_1_UG
  6
Continuous
100
AcDbLine
 10
-5938.984088127299
 20
-23704.61444308651
 30
0.0
 11
-4438.984088127299
 21
-23704.61444308651
 31
0.0
  0
LINE
  5
289
102
{ACAD_REACTORS
330
5D
102
}
330
21
100
AcDbEntity
  8
HALLE_0_1_UG
  6
Continuous
100
AcDbLine
 10
-4438.984088127299
 20
-23704.61444308651
 30
0.0
 11
-4438.984088127299
 21
-24004.61444308652
 31
0.0
  0
LINE
  5
28A
102
{ACAD_REACTORS
330
5D
102
}
330
21
100
AcDbEntity
  8
HALLE_0_1_UG
  6
Continuous
100
AcDbLine
 10
-4438.984088127299
 20
-24004.61444308652
 30
0.0
 11
-5938.984088127299
 21
-24004.61444308652
 31
0.0
  0
LINE
  5
28B
102
{ACAD_REACTORS
330
5D
102
}
330
21
100
AcDbEntity
  8
HALLE_0_1_UG
  6
Continuous
100
AcDbLine
 10
-5938.984088127299
 20
-24004.61444308652
 30
0.0
 11
-5938.984088127299
 21
-23704.61444308651
 31
0.0
  0
LINE
  5
28C
102
{ACAD_REACTORS
330
5D
102
}
330
21
100
AcDbEntity
  8
HALLE_0_1_UG
  6
Continuous
100
AcDbLine
 10
-5938.984088127299
 20
-23404.61444308651
 30
0.0
 11
-4438.984088127299
 21
-23404.61444308651
 31
0.0
  0
LINE
  5
28D
102
{ACAD_REACTORS
330
5D
102
}
330
21
100
AcDbEntity
  8
HALLE_0_1_UG
  6
Continuous
100
AcDbLine
 10
-4438.984088127299
 20
-23404.61444308651
 30
0.0
 11
-4438.984088127299
 21
-23704.61444308651
 31
0.0
  0
LINE
  5
28E
102
{ACAD_REACTORS
330
5D
102
}
330
21
100
AcDbEntity
  8
HALLE_0_1_UG
  6
Continuous
100
AcDbLine
 10
-4438.984088127299
 20
-23704.61444308651
 30
0.0
 11
-5938.984088127299
 21
-23704.61444308651
 31
0.0
  0
LINE
  5
28F
102
{ACAD_REACTORS
330
5D
102
}
330
21
100
AcDbEntity
  8
HALLE_0_1_UG
  6
Continuous
100
AcDbLine
 10
-5938.984088127299
 20
-23704.61444308651
 30
0.0
 11
-5938.984088127299
 21
-23404.61444308651
 31
0.0
  0
LINE
  5
290
102
{ACAD_REACTORS
330
5D
102
}
330
21
100
AcDbEntity
  8
HALLE_0_1_UG
  6
Continuous
100
AcDbLine
 10
-5938.984088127299
 20
-23104.61444308652
 30
0.0
 11
-4438.984088127299
 21
-23104.61444308652
 31
0.0
  0
LINE
  5
291
102
{ACAD_REACTORS
330
5D
102
}
330
21
100
AcDbEntity
  8
HALLE_0_1_UG
  6
Continuous
100
AcDbLine
 10
-4438.984088127299
 20
-23104.61444308652
 30
0.0
 11
-4438.984088127299
 21
-23404.61444308651
 31
0.0
  0
LINE
  5
292
102
{ACAD_REACTORS
330
5D
102
}
330
21
100
AcDbEntity
  8
HALLE_0_1_UG
  6
Continuous
100
AcDbLine
 10
-4438.984088127299
 20
-23404.61444308651
 30
0.0
 11
-5938.984088127299
 21
-23404.61444308651
 31
0.0
  0
LINE
  5
293
102
{ACAD_REACTORS
330
5D
102
}
330
21
100
AcDbEntity
  8
HALLE_0_1_UG
  6
Continuous
100
AcDbLine
 10
-5938.984088127299
 20
-23404.61444308651
 30
0.0
 11
-5938.984088127299
 21
-23104.61444308652
 31
0.0
  0
TEXT
  5
295
330
21
100
AcDbEntity
  8
HALLE_0_1_EG
  6
Continuous
100
AcDbText
 10
38363.33931080753
 20
-43922.43440052043
 30
0.0
 40
375.0
  1
Veranstalter
  7
ARIAL
100
AcDbText
  0
TEXT
  5
297
330
21
100
AcDbEntity
  8
HALLE_0_1_EG
  6
Continuous
100
AcDbText
 10
38369.07955225001
 20
-44696.22229168176
 30
0.0
 40
375.0
  1
Projekt
  7
ARIAL
100
AcDbText
  0
TEXT
  5
298
330
21
100
AcDbEntity
  8
HALLE_0_1_EG
  6
Continuous
100
AcDbText
 10
38363.33931080754
 20
-45448.69556891109
 30
0.0
 40
375.0
  1
Zeit/Datum
  7
ARIAL
100
AcDbText
  0
TEXT
  5
299
330
21
100
AcDbEntity
  8
HALLE_0_1_EG
  6
Continuous
100
AcDbText
 10
38363.33931080754
 20
-47878.75530201925
 30
0.0
 40
375.0
  1
Massstab 1:250
  7
ARIAL
100
AcDbText
  0
TEXT
  5
29A
330
21
100
AcDbEntity
  8
HALLE_0_1_EG
  6
Continuous
100
AcDbText
 10
43523.48864357818
 20
-47907.74139014343
 30
0.0
 40
375.0
  1
Thun,
  7
ARIAL
100
AcDbText
  0
TEXT
  5
29B
330
21
100
AcDbEntity
  8
HALLE_0_1_EG
  6
Continuous
100
AcDbText
 10
38363.33931080754
 20
-46777.37355296404
 30
0.0
 40
750.0
  1
Grundriss UG Halle 7
  7
ARIAL
100
AcDbText
  0
LWPOLYLINE
  5
29C
330
21
100
AcDbEntity
  8
HALLE_0_1_EG
  6
Continuous
100
AcDbPolyline
 90
        4
 70
     1
 43
0.0
 10
37902.01671112169
 20
-43157.06432324253
 10
54194.53417688298
 20
-43157.06432324253
 10
54194.53417688298
 20
-48202.0744597063
 10
37902.01671112169
 20
-48202.0744597063
  0
LINE
  5
29D
330
21
100
AcDbEntity
  8
HALLE_0_1_EG
  6
Continuous
100
AcDbLine
 10
48206.21194267269
 20
-43163.26710561771
 30
0.0
 11
48206.21194267269
 21
-48208.27724208148
 31
0.0
  0
LINE
  5
29E
330
21
100
AcDbEntity
  8
HALLE_0_1_EG
  6
Continuous
100
AcDbLine
 10
37902.01671112169
 20
-45758.55547959858
 30
0.0
 11
48206.21194267269
 21
-45758.55547959858
 31
0.0
  0
LINE
  5
29F
330
21
100
AcDbEntity
  8
HALLE_0_1_EG
  6
Continuous
100
AcDbLine
 10
37902.01671112169
 20
-47154.99688421383
 30
0.0
 11
48206.21194267269
 21
-47154.99688421383
 31
0.0
  0
LINE
  5
2A0
330
21
100
AcDbEntity
  8
HALLE_0_1_EG
  6
Continuous
100
AcDbLine
 10
43110.40905564249
 20
-47167.22600993771
 30
0.0
 11
43110.40905564249
 21
-48191.96169973288
 31
0.0
  0
TEXT
  5
2A1
330
21
100
AcDbEntity
  8
HALLE_0_1_EG
  6
Continuous
100
AcDbText
 10
48675.17218590182
 20
-43913.7952503475
 30
0.0
 40
375.0
  1
Thun-Expo
  7
ARIAL
100
AcDbText
  0
TEXT
  5
2A2
330
21
100
AcDbEntity
  8
HALLE_0_1_EG
  6
Continuous
100
AcDbText
 10
48675.17218590182
 20
-44476.2952503475
 30
0.0
 40
375.0
  1
Mittlere Strasse 27
  7
ARIAL
100
AcDbText
  0
TEXT
  5
2A3
330
21
100
AcDbEntity
  8
HALLE_0_1_EG
  6
Continuous
100
AcDbText
 10
48675.17218590182
 20
-45038.79525034751
 30
0.0
 40
375.0
  1
Postfach 879
  7
ARIAL
100
AcDbText
  0
TEXT
  5
2A4
330
21
100
AcDbEntity
  8
HALLE_0_1_EG
  6
Continuous
100
AcDbText
 10
48675.17218590182
 20
-45601.29525034751
 30
0.0
 40
375.0
  1
3607 Thun
  7
ARIAL
100
AcDbText
  0
TEXT
  5
2A5
330
21
100
AcDbEntity
  8
HALLE_0_1_EG
  6
Continuous
100
AcDbText
 10
48671.35836736126
 20
-46779.1878442939
 30
0.0
 40
375.0
  1
Fon  +41 33 225 11 20
  7
ARIAL
100
AcDbText
  0
TEXT
  5
2A6
330
21
100
AcDbEntity
  8
HALLE_0_1_EG
  6
Continuous
100
AcDbText
 10
48671.35836736126
 20
-47341.68784429391
 30
0.0
 40
375.0
  1
Fax  +41 33 225 11 28
  7
ARIAL
100
AcDbText
  0
TEXT
  5
2A7
330
21
100
AcDbEntity
  8
HALLE_0_1_EG
  6
Continuous
100
AcDbText
 10
48671.35836736126
 20
-47904.18784429391
 30
0.0
 40
375.0
  1
Mail  info@thun-expo.ch
  7
ARIAL
100
AcDbText
  0
ENDSEC
  0
SECTION
  2
OBJECTS
  0
DICTIONARY
  5
C
330
0
100
AcDbDictionary
281
     1
  3
ACAD_COLOR
350
1C
  3
ACAD_GROUP
350
D
  3
ACAD_LAYOUT
350
1A
  3
ACAD_MATERIAL
350
1B
  3
ACAD_MLINESTYLE
350
17
  3
ACAD_PLOTSETTINGS
350
19
  3
ACAD_PLOTSTYLENAME
350
E
  3
ACDBHEADERROUNDTRIPXREC
350
2AC
  3
AcDbVariableDictionary
350
2A8
  0
DICTIONARY
  5
1C
102
{ACAD_REACTORS
330
C
102
}
330
C
100
AcDbDictionary
281
     1
  0
DICTIONARY
  5
D
102
{ACAD_REACTORS
330
C
102
}
330
C
100
AcDbDictionary
281
     1
  3
*A1
350
5D
  0
DICTIONARY
  5
1A
102
{ACAD_REACTORS
330
C
102
}
330
C
100
AcDbDictionary
281
     1
  3
Layout1
350
20
  3
Layout2
350
28
  3
Model
350
24
  0
DICTIONARY
  5
1B
102
{ACAD_REACTORS
330
C
102
}
330
C
100
AcDbDictionary
281
     1
  0
DICTIONARY
  5
17
102
{ACAD_REACTORS
330
C
102
}
330
C
100
AcDbDictionary
281
     1
  3
Standard
350
18
  0
DICTIONARY
  5
19
102
{ACAD_REACTORS
330
C
102
}
330
C
100
AcDbDictionary
281
     1
  0
ACDBDICTIONARYWDFLT
  5
E
102
{ACAD_REACTORS
330
C
102
}
330
C
100
AcDbDictionary
281
     1
  3
Normal
350
F
100
AcDbDictionaryWithDefault
340
F
  0
DICTIONARY
  5
2AC
102
{ACAD_REACTORS
330
C
102
}
330
C
100
AcDbDictionary
281
     1
  0
DICTIONARY
  5
2A8
102
{ACAD_REACTORS
330
C
102
}
330
C
100
AcDbDictionary
281
     1
  3
DIMASSOC
350
2AA
  3
HIDETEXT
350
2A9
  3
PROJECTNAME
350
2AB
  0
GROUP
  5
5D
102
{ACAD_REACTORS
330
D
102
}
330
D
100
AcDbGroup
300

 70
     0
 71
     1
340
5E
340
5F
340
60
340
61
340
62
340
63
340
64
340
65
340
66
340
67
340
68
340
69
340
6A
340
6B
340
6C
340
6D
340
6E
340
6F
340
70
340
71
340
72
340
73
340
74
340
75
340
76
340
77
340
78
340
79
340
7A
340
7B
340
7C
340
7D
340
7E
340
7F
340
80
340
81
340
82
340
83
340
84
340
85
340
86
340
87
340
88
340
89
340
8A
340
8B
340
8C
340
8D
340
8E
340
8F
340
90
340
91
340
92
340
93
340
94
340
95
340
96
340
97
340
98
340
99
340
9A
340
9B
340
9C
340
9D
340
9E
340
9F
340
A0
340
A1
340
A2
340
A3
340
A4
340
A5
340
A6
340
A7
340
A8
340
A9
340
AA
340
AB
340
AC
340
AD
340
AE
340
AF
340
B0
340
B1
340
B2
340
B3
340
B4
340
B5
340
B6
340
B7
340
B8
340
B9
340
BA
340
BB
340
BC
340
BD
340
BE
340
BF
340
C0
340
C1
340
C2
340
C3
340
C4
340
C5
340
C6
340
C7
340
C8
340
C9
340
CA
340
CB
340
CC
340
CD
340
CE
340
CF
340
D0
340
D1
340
D2
340
D3
340
D4
340
D5
340
D6
340
D7
340
D8
340
D9
340
DA
340
DB
340
DC
340
DD
340
DE
340
DF
340
E0
340
E1
340
E2
340
E3
340
E4
340
E5
340
E6
340
E7
340
E8
340
E9
340
EA
340
EB
340
EC
340
ED
340
EE
340
F0
340
F2
340
F3
340
F4
340
F5
340
F6
340
F7
340
F8
340
F9
340
FA
340
FB
340
FC
340
FD
340
FE
340
FF
340
100
340
101
340
102
340
103
340
104
340
105
340
106
340
107
340
108
340
109
340
10A
340
10B
340
10C
340
10D
340
10E
340
10F
340
110
340
111
340
112
340
113
340
114
340
115
340
116
340
117
340
118
340
119
340
11A
340
11B
340
11C
340
11D
340
11E
340
11F
340
120
340
121
340
122
340
123
340
124
340
125
340
126
340
127
340
128
340
129
340
12A
340
12B
340
12C
340
12D
340
12E
340
12F
340
130
340
131
340
132
340
133
340
134
340
135
340
136
340
137
340
138
340
139
340
13A
340
13B
340
13C
340
13D
340
13E
340
13F
340
140
340
141
340
142
340
143
340
144
340
145
340
146
340
147
340
148
340
149
340
14A
340
14B
340
14C
340
14D
340
14E
340
14F
340
150
340
151
340
152
340
153
340
154
340
155
340
156
340
157
340
158
340
159
340
15A
340
15B
340
15C
340
15D
340
15E
340
15F
340
160
340
161
340
162
340
163
340
164
340
165
340
166
340
167
340
168
340
169
340
16A
340
16B
340
16C
340
16D
340
16E
340
16F
340
170
340
171
340
172
340
173
340
174
340
175
340
176
340
177
340
178
340
179
340
17A
340
17B
340
17C
340
17D
340
17E
340
17F
340
180
340
181
340
182
340
183
340
184
340
185
340
186
340
187
340
188
340
189
340
18A
340
18B
340
18C
340
18D
340
18E
340
18F
340
190
340
191
340
192
340
193
340
194
340
195
340
196
340
197
340
198
340
199
340
19A
340
19B
340
19C
340
19D
340
19E
340
19F
340
1A0
340
1A1
340
1A2
340
1A3
340
1A4
340
1A5
340
1A6
340
1A7
340
1A8
340
1A9
340
1AA
340
1AB
340
1AC
340
1AD
340
1AE
340
1AF
340
1B0
340
1B1
340
1B2
340
1B3
340
1B4
340
1B5
340
1B6
340
1B7
340
1B8
340
1B9
340
1BA
340
1BB
340
1BC
340
1BD
340
1BE
340
1BF
340
1C0
340
1C1
340
1C2
340
1C3
340
1C4
340
1C5
340
1C6
340
1C7
340
1C8
340
1C9
340
1CA
340
1CB
340
1CC
340
1CD
340
1CE
340
1CF
340
1D0
340
1D1
340
1D2
340
1D3
340
1D4
340
1D5
340
1D6
340
1D7
340
1D8
340
1D9
340
1DA
340
1DB
340
1DC
340
1DD
340
1DE
340
1DF
340
1E0
340
1E1
340
1E2
340
1E3
340
1E4
340
1E5
340
1E6
340
1E7
340
1E8
340
1E9
340
1EA
340
1EB
340
1EC
340
1ED
340
1EE
340
1EF
340
1F0
340
1F1
340
1F2
340
1F3
340
1F4
340
1F5
340
1F6
340
1F7
340
1F8
340
1F9
340
1FA
340
1FB
340
1FC
340
1FD
340
1FE
340
1FF
340
200
340
201
340
202
340
203
340
204
340
205
340
206
340
207
340
208
340
209
340
20A
340
20B
340
20C
340
20D
340
20E
340
20F
340
210
340
211
340
212
340
213
340
214
340
215
340
216
340
217
340
218
340
219
340
21A
340
21B
340
21C
340
21D
340
21E
340
21F
340
220
340
221
340
222
340
223
340
224
340
225
340
226
340
227
340
228
340
229
340
22A
340
22B
340
22C
340
22D
340
22E
340
22F
340
230
340
231
340
232
340
233
340
234
340
235
340
236
340
237
340
238
340
239
340
23A
340
23B
340
23C
340
23D
340
23E
340
23F
340
240
340
241
340
242
340
243
340
244
340
245
340
246
340
247
340
248
340
249
340
24A
340
24B
340
24C
340
24D
340
24E
340
24F
340
250
340
251
340
252
340
253
340
254
340
255
340
256
340
257
340
258
340
259
340
25A
340
25B
340
25C
340
25D
340
25E
340
25F
340
260
340
261
340
262
340
263
340
264
340
265
340
266
340
267
340
268
340
269
340
26A
340
26B
340
26C
340
26D
340
26E
340
26F
340
270
340
271
340
272
340
273
340
274
340
275
340
276
340
277
340
278
340
279
340
27A
340
27B
340
27C
340
27D
340
27E
340
27F
340
280
340
281
340
282
340
283
340
284
340
285
340
286
340
287
340
288
340
289
340
28A
340
28B
340
28C
340
28D
340
28E
340
28F
340
290
340
291
340
292
340
293
  0
LAYOUT
  5
20
102
{ACAD_XDICTIONARY
360
2AD
102
}
102
{ACAD_REACTORS
330
1A
102
}
330
1A
100
AcDbPlotSettings
  1

  2

  4

  6

 40
0.0
 41
0.0
 42
0.0
 43
0.0
 44
0.0
 45
0.0
 46
0.0
 47
0.0
 48
0.0
 49
0.0
140
0.0
141
0.0
142
1.0
143
1.0
 70
   688
 72
     0
 73
     0
 74
     5
  7

 75
    16
147
1.0
148
0.0
149
0.0
100
AcDbLayout
  1
Layout1
 70
     1
 71
     1
 10
0.0
 20
0.0
 11
12.0
 21
9.0
 12
0.0
 22
0.0
 32
0.0
 14
0.0
 24
0.0
 34
0.0
 15
0.0
 25
0.0
 35
0.0
146
0.0
 13
0.0
 23
0.0
 33
0.0
 16
1.0
 26
0.0
 36
0.0
 17
0.0
 27
1.0
 37
0.0
 76
     0
330
1D
  0
LAYOUT
  5
28
102
{ACAD_XDICTIONARY
360
2B1
102
}
102
{ACAD_REACTORS
330
1A
102
}
330
1A
100
AcDbPlotSettings
  1

  2

  4

  6

 40
0.0
 41
0.0
 42
0.0
 43
0.0
 44
0.0
 45
0.0
 46
0.0
 47
0.0
 48
0.0
 49
0.0
140
0.0
141
0.0
142
1.0
143
1.0
 70
   688
 72
     0
 73
     0
 74
     5
  7

 75
    16
147
1.0
148
0.0
149
0.0
100
AcDbLayout
  1
Layout2
 70
     1
 71
     2
 10
0.0
 20
0.0
 11
12.0
 21
9.0
 12
0.0
 22
0.0
 32
0.0
 14
0.0
 24
0.0
 34
0.0
 15
0.0
 25
0.0
 35
0.0
146
0.0
 13
0.0
 23
0.0
 33
0.0
 16
1.0
 26
0.0
 36
0.0
 17
0.0
 27
1.0
 37
0.0
 76
     0
330
25
  0
LAYOUT
  5
24
102
{ACAD_XDICTIONARY
360
2AF
102
}
102
{ACAD_REACTORS
330
1A
102
}
330
1A
100
AcDbPlotSettings
  1

  2

  4

  6

 40
0.0
 41
0.0
 42
0.0
 43
0.0
 44
0.0
 45
0.0
 46
0.0
 47
0.0
 48
0.0
 49
0.0
140
0.0
141
0.0
142
1.0
143
1.0
 70
  1712
 72
     0
 73
     0
 74
     0
  7

 75
     0
147
1.0
148
0.0
149
0.0
100
AcDbLayout
  1
Model
 70
     1
 71
     0
 10
0.0
 20
0.0
 11
12.0
 21
9.0
 12
0.0
 22
0.0
 32
0.0
 14
0.0
 24
0.0
 34
0.0
 15
0.0
 25
0.0
 35
0.0
146
0.0
 13
0.0
 23
0.0
 33
0.0
 16
1.0
 26
0.0
 36
0.0
 17
0.0
 27
1.0
 37
0.0
 76
     0
330
21
  0
MLINESTYLE
  5
18
102
{ACAD_REACTORS
330
17
102
}
330
17
100
AcDbMlineStyle
  2
STANDARD
 70
     0
  3

 62
   256
 51
90.0
 52
90.0
 71
     2
 49
0.5
 62
   256
  6
BYLAYER
 49
-0.5
 62
   256
  6
BYLAYER
  0
ACDBPLACEHOLDER
  5
F
102
{ACAD_REACTORS
330
E
102
}
330
E
  0
DICTIONARYVAR
  5
2AA
102
{ACAD_REACTORS
330
2A8
102
}
330
2A8
100
DictionaryVariables
280
     0
  1
2
  0
DICTIONARYVAR
  5
2A9
102
{ACAD_REACTORS
330
2A8
102
}
330
2A8
100
DictionaryVariables
280
     0
  1
1
  0
DICTIONARYVAR
  5
2AB
102
{ACAD_REACTORS
330
2A8
102
}
330
2A8
100
DictionaryVariables
280
     0
  1

  0
DICTIONARY
  5
2AD
330
20
100
AcDbDictionary
280
     1
281
     1
  3
ACAD_XREC_ROUNDTRIP
360
2AE
  0
DICTIONARY
  5
2B1
330
28
100
AcDbDictionary
280
     1
281
     1
  3
ACAD_XREC_ROUNDTRIP
360
2B2
  0
DICTIONARY
  5
2AF
330
24
100
AcDbDictionary
280
     1
281
     1
  3
ACAD_XREC_ROUNDTRIP
360
2B0
  0
XRECORD
  5
2AE
102
{ACAD_REACTORS
330
2AD
102
}
330
2AD
100
AcDbXrecord
280
     1
102
SHADEPLOT
 70
     0
102
SHADEPLOTRESLEVEL
 70
     2
102
SHADEPLOTCUSTOMDPI
 70
   300
  0
XRECORD
  5
2B2
102
{ACAD_REACTORS
330
2B1
102
}
330
2B1
100
AcDbXrecord
280
     1
102
SHADEPLOT
 70
     0
102
SHADEPLOTRESLEVEL
 70
     2
102
SHADEPLOTCUSTOMDPI
 70
   300
  0
XRECORD
  5
2B0
102
{ACAD_REACTORS
330
2AF
102
}
330
2AF
100
AcDbXrecord
280
     1
102
SHADEPLOT
 70
     0
102
SHADEPLOTRESLEVEL
 70
     2
102
SHADEPLOTCUSTOMDPI
 70
   300
  0
ENDSEC
  0
EOF
